  0
SECTION
  2
HEADER
  9
$ACADVER
  1
AC1015
  9
$ACADMAINTVER
 70
    20
  9
$DWGCODEPAGE
  3
ANSI_1252
  9
$INSBASE
 10
0.0
 20
0.0
 30
0.0
  9
$EXTMIN
 10
1601.770183529998
 20
0.0
 30
0.0
  9
$EXTMAX
 10
2388.003435644243
 20
518.8348351415169
 30
0.0
  9
$LIMMIN
 10
0.0
 20
0.0
  9
$LIMMAX
 10
12.0
 20
9.0
  9
$ORTHOMODE
 70
     1
  9
$REGENMODE
 70
     1
  9
$FILLMODE
 70
     1
  9
$QTEXTMODE
 70
     0
  9
$MIRRTEXT
 70
     0
  9
$LTSCALE
 40
1.0
  9
$ATTMODE
 70
     1
  9
$TEXTSIZE
 40
0.2
  9
$TRACEWID
 40
0.05
  9
$TEXTSTYLE
  7
Standard
  9
$CLAYER
  8
0
  9
$CELTYPE
  6
ByLayer
  9
$CECOLOR
 62
   256
  9
$CELTSCALE
 40
1.0
  9
$DISPSILH
 70
     0
  9
$DIMSCALE
 40
24.0
  9
$DIMASZ
 40
0.18
  9
$DIMEXO
 40
0.0625
  9
$DIMDLI
 40
0.38
  9
$DIMRND
 40
0.0
  9
$DIMDLE
 40
0.0
  9
$DIMEXE
 40
0.18
  9
$DIMTP
 40
0.0
  9
$DIMTM
 40
0.0
  9
$DIMTXT
 40
0.18
  9
$DIMCEN
 40
0.09
  9
$DIMTSZ
 40
0.0
  9
$DIMTOL
 70
     0
  9
$DIMLIM
 70
     0
  9
$DIMTIH
 70
     1
  9
$DIMTOH
 70
     1
  9
$DIMSE1
 70
     0
  9
$DIMSE2
 70
     0
  9
$DIMTAD
 70
     0
  9
$DIMZIN
 70
     0
  9
$DIMBLK
  1

  9
$DIMASO
 70
     1
  9
$DIMSHO
 70
     1
  9
$DIMPOST
  1

  9
$DIMAPOST
  1

  9
$DIMALT
 70
     0
  9
$DIMALTD
 70
     2
  9
$DIMALTF
 40
25.4
  9
$DIMLFAC
 40
1.0
  9
$DIMTOFL
 70
     0
  9
$DIMTVP
 40
0.0
  9
$DIMTIX
 70
     0
  9
$DIMSOXD
 70
     0
  9
$DIMSAH
 70
     0
  9
$DIMBLK1
  1

  9
$DIMBLK2
  1

  9
$DIMSTYLE
  2
Standard
  9
$DIMCLRD
 70
     0
  9
$DIMCLRE
 70
     0
  9
$DIMCLRT
 70
     0
  9
$DIMTFAC
 40
1.0
  9
$DIMGAP
 40
0.09
  9
$DIMJUST
 70
     0
  9
$DIMSD1
 70
     0
  9
$DIMSD2
 70
     0
  9
$DIMTOLJ
 70
     1
  9
$DIMTZIN
 70
     0
  9
$DIMALTZ
 70
     0
  9
$DIMALTTZ
 70
     0
  9
$DIMUPT
 70
     0
  9
$DIMDEC
 70
     3
  9
$DIMTDEC
 70
     3
  9
$DIMALTU
 70
     4
  9
$DIMALTTD
 70
     2
  9
$DIMTXSTY
  7
Standard
  9
$DIMAUNIT
 70
     0
  9
$DIMADEC
 70
     0
  9
$DIMALTRND
 40
0.0
  9
$DIMAZIN
 70
     0
  9
$DIMDSEP
 70
    46
  9
$DIMATFIT
 70
     3
  9
$DIMFRAC
 70
     1
  9
$DIMLDRBLK
  1

  9
$DIMLUNIT
 70
     5
  9
$DIMLWD
 70
    -2
  9
$DIMLWE
 70
    -2
  9
$DIMTMOVE
 70
     0
  9
$LUNITS
 70
     4
  9
$LUPREC
 70
     4
  9
$SKETCHINC
 40
0.1
  9
$FILLETRAD
 40
0.0
  9
$AUNITS
 70
     0
  9
$AUPREC
 70
     0
  9
$MENU
  1
.
  9
$ELEVATION
 40
0.0
  9
$PELEVATION
 40
0.0
  9
$THICKNESS
 40
0.0
  9
$LIMCHECK
 70
     0
  9
$CHAMFERA
 40
0.0
  9
$CHAMFERB
 40
0.0
  9
$CHAMFERC
 40
0.0
  9
$CHAMFERD
 40
0.0
  9
$SKPOLY
 70
     0
  9
$TDCREATE
 40
2457120.750518936
  9
$TDUCREATE
 40
2457120.917185602
  9
$TDUPDATE
 40
2457210.708872292
  9
$TDUUPDATE
 40
2457210.875538959
  9
$TDINDWG
 40
0.0113173958
  9
$TDUSRTIMER
 40
0.0113172454
  9
$USRTIMER
 70
     1
  9
$ANGBASE
 50
0.0
  9
$ANGDIR
 70
     0
  9
$PDMODE
 70
     0
  9
$PDSIZE
 40
0.0
  9
$PLINEWID
 40
0.0
  9
$SPLFRAME
 70
     0
  9
$SPLINETYPE
 70
     6
  9
$SPLINESEGS
 70
     8
  9
$HANDSEED
  5
98D
  9
$SURFTAB1
 70
     6
  9
$SURFTAB2
 70
     6
  9
$SURFTYPE
 70
     6
  9
$SURFU
 70
     6
  9
$SURFV
 70
     6
  9
$UCSBASE
  2

  9
$UCSNAME
  2

  9
$UCSORG
 10
0.0
 20
0.0
 30
0.0
  9
$UCSXDIR
 10
1.0
 20
0.0
 30
0.0
  9
$UCSYDIR
 10
0.0
 20
1.0
 30
0.0
  9
$UCSORTHOREF
  2

  9
$UCSORTHOVIEW
 70
     0
  9
$UCSORGTOP
 10
0.0
 20
0.0
 30
0.0
  9
$UCSORGBOTTOM
 10
0.0
 20
0.0
 30
0.0
  9
$UCSORGLEFT
 10
0.0
 20
0.0
 30
0.0
  9
$UCSORGRIGHT
 10
0.0
 20
0.0
 30
0.0
  9
$UCSORGFRONT
 10
0.0
 20
0.0
 30
0.0
  9
$UCSORGBACK
 10
0.0
 20
0.0
 30
0.0
  9
$PUCSBASE
  2

  9
$PUCSNAME
  2

  9
$PUCSORG
 10
0.0
 20
0.0
 30
0.0
  9
$PUCSXDIR
 10
1.0
 20
0.0
 30
0.0
  9
$PUCSYDIR
 10
0.0
 20
1.0
 30
0.0
  9
$PUCSORTHOREF
  2

  9
$PUCSORTHOVIEW
 70
     0
  9
$PUCSORGTOP
 10
0.0
 20
0.0
 30
0.0
  9
$PUCSORGBOTTOM
 10
0.0
 20
0.0
 30
0.0
  9
$PUCSORGLEFT
 10
0.0
 20
0.0
 30
0.0
  9
$PUCSORGRIGHT
 10
0.0
 20
0.0
 30
0.0
  9
$PUCSORGFRONT
 10
0.0
 20
0.0
 30
0.0
  9
$PUCSORGBACK
 10
0.0
 20
0.0
 30
0.0
  9
$USERI1
 70
     0
  9
$USERI2
 70
     0
  9
$USERI3
 70
     0
  9
$USERI4
 70
     0
  9
$USERI5
 70
     0
  9
$USERR1
 40
0.0
  9
$USERR2
 40
0.0
  9
$USERR3
 40
0.0
  9
$USERR4
 40
0.0
  9
$USERR5
 40
0.0
  9
$WORLDVIEW
 70
     1
  9
$SHADEDGE
 70
     3
  9
$SHADEDIF
 70
    70
  9
$TILEMODE
 70
     1
  9
$MAXACTVP
 70
    64
  9
$PINSBASE
 10
0.0
 20
0.0
 30
0.0
  9
$PLIMCHECK
 70
     0
  9
$PEXTMIN
 10
1.000000000000000E+20
 20
1.000000000000000E+20
 30
1.000000000000000E+20
  9
$PEXTMAX
 10
-1.000000000000000E+20
 20
-1.000000000000000E+20
 30
-1.000000000000000E+20
  9
$PLIMMIN
 10
457.0559704444398
 20
-936.3798351776614
  9
$PLIMMAX
 10
3103.405920651643
 20
1108.526931389329
  9
$UNITMODE
 70
     0
  9
$VISRETAIN
 70
     1
  9
$PLINEGEN
 70
     0
  9
$PSLTSCALE
 70
     1
  9
$TREEDEPTH
 70
  3020
  9
$CMLSTYLE
  2
Standard
  9
$CMLJUST
 70
     0
  9
$CMLSCALE
 40
1.0
  9
$PROXYGRAPHICS
 70
     1
  9
$MEASUREMENT
 70
     0
  9
$CELWEIGHT
370
    -1
  9
$ENDCAPS
280
     0
  9
$JOINSTYLE
280
     0
  9
$LWDISPLAY
290
     0
  9
$INSUNITS
 70
     1
  9
$HYPERLINKBASE
  1

  9
$STYLESHEET
  1

  9
$XEDIT
290
     1
  9
$CEPSNTYPE
380
     0
  9
$PSTYLEMODE
290
     1
  9
$FINGERPRINTGUID
  2
{7B473454-34B4-4CCF-B45E-EE6A615E563A}
  9
$VERSIONGUID
  2
{5AAE00B9-2DE2-4EF0-971D-66506361C1A6}
  9
$EXTNAMES
290
     1
  9
$PSVPSCALE
 40
0.0
  9
$OLESTARTUP
290
     0
  0
ENDSEC
  0
SECTION
  2
CLASSES
  0
CLASS
  1
ACDBDICTIONARYWDFLT
  2
AcDbDictionaryWithDefault
  3
ObjectDBX Classes
 90
        0
280
     0
281
     0
  0
CLASS
  1
MATERIAL
  2
AcDbMaterial
  3
ObjectDBX Classes
 90
     1153
280
     0
281
     0
  0
CLASS
  1
VISUALSTYLE
  2
AcDbVisualStyle
  3
ObjectDBX Classes
 90
     4095
280
     0
281
     0
  0
CLASS
  1
SCALE
  2
AcDbScale
  3
ObjectDBX Classes
 90
     1153
280
     0
281
     0
  0
CLASS
  1
TABLESTYLE
  2
AcDbTableStyle
  3
ObjectDBX Classes
 90
     4095
280
     0
281
     0
  0
CLASS
  1
MLEADERSTYLE
  2
AcDbMLeaderStyle
  3
ACDB_MLEADERSTYLE_CLASS
 90
     4095
280
     0
281
     0
  0
CLASS
  1
ACDBSECTIONVIEWSTYLE
  2
AcDbSectionViewStyle
  3
ObjectDBX Classes
 90
     1025
280
     0
281
     0
  0
CLASS
  1
ACDBDETAILVIEWSTYLE
  2
AcDbDetailViewStyle
  3
ObjectDBX Classes
 90
     1025
280
     0
281
     0
  0
CLASS
  1
RASTERVARIABLES
  2
AcDbRasterVariables
  3
ISM
 90
        0
280
     0
281
     0
  0
CLASS
  1
DICTIONARYVAR
  2
AcDbDictionaryVar
  3
ObjectDBX Classes
 90
        0
280
     0
281
     0
  0
CLASS
  1
CELLSTYLEMAP
  2
AcDbCellStyleMap
  3
ObjectDBX Classes
 90
     1152
280
     0
281
     0
  0
CLASS
  1
SORTENTSTABLE
  2
AcDbSortentsTable
  3
ObjectDBX Classes
 90
        0
280
     0
281
     0
  0
CLASS
  1
SUN
  2
AcDbSun
  3
SCENEOE
 90
    33921
280
     0
281
     0
  0
CLASS
  1
EXACXREFPANELOBJECT
  2
ExAcXREFPanelObject
  3
EXAC_ESW
 90
     1025
280
     0
281
     0
  0
CLASS
  1
NPOCOLLECTION
  2
AcDbImpNonPersistentObjectsCollection
  3
ObjectDBX Classes
 90
     1153
280
     0
281
     0
  0
CLASS
  1
DIMASSOC
  2
AcDbDimAssoc
  3
"AcDbDimAssoc|Product Desc:     AcDim ARX App For Dimension|Company:          Autodesk, Inc.|WEB Address:      www.autodesk.com"
 90
    32768
280
     0
281
     0
  0
CLASS
  1
ACDBPLACEHOLDER
  2
AcDbPlaceHolder
  3
ObjectDBX Classes
 90
        0
280
     0
281
     0
  0
CLASS
  1
LAYOUT
  2
AcDbLayout
  3
ObjectDBX Classes
 90
        0
280
     0
281
     0
  0
ENDSEC
  0
SECTION
  2
TABLES
  0
TABLE
  2
VPORT
  5
8
102
{ACAD_XDICTIONARY
360
902
102
}
330
0
100
AcDbSymbolTable
 70
     1
  0
VPORT
  5
57
330
8
100
AcDbSymbolTableRecord
100
AcDbViewportTableRecord
  2
*Active
 70
     0
 10
0.0
 20
0.0
 11
1.0
 21
1.0
 12
2109.646998805573
 22
207.1472884570779
 13
0.0
 23
0.0
 14
1.0
 24
1.0
 15
0.0
 25
0.0
 16
0.0
 26
0.0
 36
1.0
 17
0.0
 27
0.0
 37
0.0
 40
837.816987243986
 41
1.644329896907216
 42
50.0
 43
0.0
 44
0.0
 50
0.0
 51
0.0
 71
     0
 72
  1000
 73
     1
 74
     1
 75
     0
 76
     0
 77
     0
 78
     0
281
     0
 65
     1
110
0.0
120
0.0
130
0.0
111
1.0
121
0.0
131
0.0
112
0.0
122
1.0
132
0.0
 79
     0
146
0.0
1001
ACAD_NAV_VCDISPLAY
1070
     3
  0
ENDTAB
  0
TABLE
  2
LTYPE
  5
5
330
0
100
AcDbSymbolTable
 70
     2
  0
LTYPE
  5
5B
330
5
100
AcDbSymbolTableRecord
100
AcDbLinetypeTableRecord
  2
ByBlock
 70
     0
  3

 72
    65
 73
     0
 40
0.0
  0
LTYPE
  5
5C
330
5
100
AcDbSymbolTableRecord
100
AcDbLinetypeTableRecord
  2
ByLayer
 70
     0
  3

 72
    65
 73
     0
 40
0.0
  0
LTYPE
  5
5D
330
5
100
AcDbSymbolTableRecord
100
AcDbLinetypeTableRecord
  2
Continuous
 70
     0
  3
Solid line
 72
    65
 73
     0
 40
0.0
  0
LTYPE
  5
69
330
5
100
AcDbSymbolTableRecord
100
AcDbLinetypeTableRecord
  2
PHANTOM2
 70
     0
  3
___ _ _ ___ _ _ ___ _ _ ___ _ _
 72
    65
 73
     6
 40
1.25
 49
0.625
 74
     0
 49
-0.125
 74
     0
 49
0.125
 74
     0
 49
-0.125
 74
     0
 49
0.125
 74
     0
 49
-0.125
 74
     0
  0
ENDTAB
  0
TABLE
  2
LAYER
  5
2
102
{ACAD_XDICTIONARY
360
3DE
102
}
330
0
100
AcDbSymbolTable
 70
     2
  0
LAYER
  5
54
330
2
100
AcDbSymbolTableRecord
100
AcDbLayerTableRecord
  2
0
 70
     0
 62
     7
  6
Continuous
370
    -3
390
F
  0
LAYER
  5
318
330
2
100
AcDbSymbolTableRecord
100
AcDbLayerTableRecord
  2
Defpoints
 70
     0
 62
     7
  6
Continuous
290
     0
370
    -3
390
F
  0
ENDTAB
  0
TABLE
  2
STYLE
  5
3
330
0
100
AcDbSymbolTable
 70
     1
  0
STYLE
  5
55
330
3
100
AcDbSymbolTableRecord
100
AcDbTextStyleTableRecord
  2
Standard
 70
     0
 40
0.0
 41
1.0
 50
0.0
 71
     0
 42
0.2
  3
txt
  4

  0
ENDTAB
  0
TABLE
  2
VIEW
  5
6
330
0
100
AcDbSymbolTable
 70
     0
  0
ENDTAB
  0
TABLE
  2
UCS
  5
7
330
0
100
AcDbSymbolTable
 70
     0
  0
ENDTAB
  0
TABLE
  2
APPID
  5
9
330
0
100
AcDbSymbolTable
 70
    11
  0
APPID
  5
56
330
9
100
AcDbSymbolTableRecord
100
AcDbRegAppTableRecord
  2
ACAD
 70
     0
  0
APPID
  5
5E
330
9
100
AcDbSymbolTableRecord
100
AcDbRegAppTableRecord
  2
AcadAnnotative
 70
     0
  0
APPID
  5
79
330
9
100
AcDbSymbolTableRecord
100
AcDbRegAppTableRecord
  2
REVIT
 70
     0
  0
APPID
  5
3D7
330
9
100
AcDbSymbolTableRecord
100
AcDbRegAppTableRecord
  2
ACAD_PSEXT
 70
     0
  0
APPID
  5
5B6
330
9
100
AcDbSymbolTableRecord
100
AcDbRegAppTableRecord
  2
ACAD_EXEMPT_FROM_CAD_STANDARDS
 70
     0
  0
APPID
  5
5C1
330
9
100
AcDbSymbolTableRecord
100
AcDbRegAppTableRecord
  2
ACAD_NAV_VCDISPLAY
 70
     0
  0
APPID
  5
691
330
9
100
AcDbSymbolTableRecord
100
AcDbRegAppTableRecord
  2
GradientColor1ACI
 70
     0
  0
APPID
  5
692
330
9
100
AcDbSymbolTableRecord
100
AcDbRegAppTableRecord
  2
GradientColor2ACI
 70
     0
  0
APPID
  5
694
330
9
100
AcDbSymbolTableRecord
100
AcDbRegAppTableRecord
  2
ACAD_DSTYLE_DIMJAG
 70
     0
  0
APPID
  5
695
330
9
100
AcDbSymbolTableRecord
100
AcDbRegAppTableRecord
  2
ACAD_DSTYLE_DIMTALN
 70
     0
  0
APPID
  5
731
330
9
100
AcDbSymbolTableRecord
100
AcDbRegAppTableRecord
  2
ACAD_MLEADERVER
 70
     0
  0
ENDTAB
  0
TABLE
  2
DIMSTYLE
  5
A
330
0
100
AcDbSymbolTable
 70
     1
100
AcDbDimStyleTable
 71
     1
340
58
  0
DIMSTYLE
105
58
330
A
100
AcDbSymbolTableRecord
100
AcDbDimStyleTableRecord
  2
Standard
 70
     0
340
55
  0
ENDTAB
  0
TABLE
  2
BLOCK_RECORD
  5
1
330
0
100
AcDbSymbolTable
 70
     0
  0
BLOCK_RECORD
  5
71
102
{ACAD_XDICTIONARY
360
3C5
102
}
330
1
100
AcDbSymbolTableRecord
100
AcDbBlockTableRecord
  2
*Model_Space
340
74
  0
BLOCK_RECORD
  5
6D
330
1
100
AcDbSymbolTableRecord
100
AcDbBlockTableRecord
  2
*Paper_Space
340
70
  0
ENDTAB
  0
ENDSEC
  0
SECTION
  2
BLOCKS
  0
BLOCK
  5
72
330
71
100
AcDbEntity
  8
0
100
AcDbBlockBegin
  2
*Model_Space
 70
     0
 10
0.0
 20
0.0
 30
0.0
  3
*Model_Space
  1

  0
ENDBLK
  5
73
330
71
100
AcDbEntity
  8
0
100
AcDbBlockEnd
  0
BLOCK
  5
6E
330
6D
100
AcDbEntity
 67
     1
  8
0
100
AcDbBlockBegin
  2
*Paper_Space
 70
     0
 10
0.0
 20
0.0
 30
0.0
  3
*Paper_Space
  1

  0
ENDBLK
  5
6F
330
6D
100
AcDbEntity
 67
     1
  8
0
100
AcDbBlockEnd
  0
ENDSEC
  0
SECTION
  2
ENTITIES
  0
LINE
  5
40F
330
71
100
AcDbEntity
  8
0
100
AcDbLine
 10
2114.53833293448
 20
445.3348351414797
 30
0.0
 11
2119.53833293448
 21
445.3348351414797
 31
0.0
  0
LINE
  5
410
330
71
100
AcDbEntity
  8
0
100
AcDbLine
 10
2119.53833293448
 20
450.3348351414798
 30
0.0
 11
2114.53833293448
 21
450.3348351414798
 31
0.0
  0
LWPOLYLINE
  5
411
330
71
100
AcDbEntity
  8
0
100
AcDbPolyline
 90
       41
 70
   128
 43
0.0
 10
2119.53833293448
 20
445.3348351414797
 10
2119.698290271226
 20
445.3348351414797
 10
2119.857991710357
 20
445.3348351414797
 10
2120.017181763635
 20
445.3348351414797
 10
2120.175605760937
 20
445.3348351414797
 10
2120.33301025766
 20
445.3348351414797
 10
2120.48914344019
 20
445.3348351414797
 10
2120.643755528736
 20
445.3348351414797
 10
2120.796599176944
 20
445.3348351414797
 10
2120.947429867582
 20
445.3348351414797
 10
2121.096006303716
 20
445.3348351414797
 10
2121.242090794744
 20
445.3348351414797
 10
2121.385449636647
 20
445.3348351414797
 10
2121.525853485855
 20
445.3348351414797
 10
2121.663077726164
 20
445.3348351414797
 10
2121.79690282806
 20
445.3348351414797
 10
2121.92711469993
 20
445.3348351414797
 10
2122.053505030554
 20
445.3348351414797
 10
2122.175871622366
 20
445.3348351414797
 10
2122.294018714923
 20
445.3348351414797
 10
2122.40775729808
 20
445.3348351414797
 10
2122.516905414363
 20
445.3348351414797
 10
2122.621288450076
 20
445.3348351414797
 10
2122.720739414627
 20
445.3348351414797
 10
2122.815099207684
 20
445.3348351414797
 10
2122.904216873712
 20
445.3348351414797
 10
2122.987949843454
 20
445.3348351414797
 10
2123.06616416202
 20
445.3348351414797
 10
2123.138734703188
 20
445.3348351414797
 10
2123.205545369568
 20
445.3348351414797
 10
2123.26648927835
 20
445.3348351414797
 10
2123.32146893228
 20
445.3348351414797
 10
2123.370396375638
 20
445.3348351414797
 10
2123.413193334954
 20
445.3348351414797
 10
2123.449791344222
 20
445.3348351414797
 10
2123.480131854434
 20
445.3348351414797
 10
2123.504166327248
 20
445.3348351414797
 10
2123.521856312631
 20
445.3348351414797
 10
2123.533173510383
 20
445.3348351414797
 10
2123.538099815401
 20
445.3348351414797
 10
2123.538332934481
 20
445.3348351414797
  0
LWPOLYLINE
  5
412
330
71
100
AcDbEntity
  8
0
100
AcDbPolyline
 90
       41
 70
   128
 43
0.0
 10
2123.538332934481
 20
450.3348351414798
 10
2123.535133361125
 20
450.3348351414798
 10
2123.525539759691
 20
450.3348351414798
 10
2123.509567477896
 20
450.3348351414798
 10
2123.487242067984
 20
450.3348351414798
 10
2123.458599245847
 20
450.3348351414798
 10
2123.423684833889
 20
450.3348351414798
 10
2123.382554687724
 20
450.3348351414798
 10
2123.335274606811
 20
450.3348351414798
 10
2123.281920229192
 20
450.3348351414798
 10
2123.222576910492
 20
450.3348351414798
 10
2123.15733958736
 20
450.3348351414798
 10
2123.086312625598
 20
450.3348351414798
 10
2123.009609653192
 20
450.3348351414798
 10
2122.927353378535
 20
450.3348351414798
 10
2122.83967539412
 20
450.3348351414798
 10
2122.746715966017
 20
450.3348351414798
 10
2122.648623809485
 20
450.3348351414798
 10
2122.545555851044
 20
450.3348351414798
 10
2122.437676977444
 20
450.3348351414798
 10
2122.32515977187
 20
450.3348351414798
 10
2122.208184237846
 20
450.3348351414798
 10
2122.086937511275
 20
450.3348351414798
 10
2121.961613561055
 20
450.3348351414798
 10
2121.83241287877
 20
450.3348351414798
 10
2121.699542157954
 20
450.3348351414798
 10
2121.563213963411
 20
450.3348351414798
 10
2121.423646391175
 20
450.3348351414798
 10
2121.281062719588
 20
450.3348351414798
 10
2121.135691052105
 20
450.3348351414798
 10
2120.987763952387
 20
450.3348351414798
 10
2120.837518072236
 20
450.3348351414798
 10
2120.685193773008
 20
450.3348351414798
 10
2120.531034741091
 20
450.3348351414798
 10
2120.375287598045
 20
450.3348351414798
 10
2120.218201506081
 20
450.3348351414798
 10
2120.060027769433
 20
450.3348351414798
 10
2119.901019432338
 20
450.3348351414798
 10
2119.741430874215
 20
450.3348351414798
 10
2119.581517402714
 20
450.3348351414798
 10
2119.53833293448
 20
450.3348351414798
  0
LINE
  5
413
330
71
100
AcDbEntity
  8
0
100
AcDbLine
 10
2140.788332934481
 20
424.484835141482
 30
0.0
 11
2135.788332934481
 21
424.484835141482
 31
0.0
  0
LINE
  5
414
330
71
100
AcDbEntity
  8
0
100
AcDbLine
 10
2135.788332934481
 20
424.484835141482
 30
0.0
 11
2135.788332934481
 21
420.097644910772
 31
0.0
  0
LINE
  5
415
330
71
100
AcDbEntity
  8
0
100
AcDbLine
 10
2140.788332934481
 20
420.097644910772
 30
0.0
 11
2140.788332934481
 21
424.484835141482
 31
0.0
  0
LINE
  5
416
330
71
100
AcDbEntity
  8
0
100
AcDbLine
 10
2121.03833293448
 20
417.084835141483
 30
0.0
 11
2114.538332934483
 21
417.084835141483
 31
0.0
  0
LINE
  5
417
330
71
100
AcDbEntity
  8
0
100
AcDbLine
 10
2126.038332934481
 20
410.6848351414807
 30
0.0
 11
2127.78833293448
 21
410.6848351414807
 31
0.0
  0
LINE
  5
418
330
71
100
AcDbEntity
  8
0
100
AcDbLine
 10
2127.78833293448
 20
419.4848351414828
 30
0.0
 11
2126.038332934481
 21
419.4848351414828
 31
0.0
  0
LWPOLYLINE
  5
419
330
71
100
AcDbEntity
  8
0
100
AcDbPolyline
 90
       41
 70
   128
 43
0.0
 10
2128.53833293448
 20
409.6848351414807
 10
2128.508340933841
 20
409.6854350614852
 10
2128.478396914004
 20
409.687233861754
 10
2128.448548779013
 20
409.6902286645905
 10
2128.418844279519
 20
409.6944146789491
 10
2128.389330936383
 20
409.6997852080999
 10
2128.360055964661
 20
409.7063316603417
 10
2128.331066198057
 20
409.7140435627478
 10
2128.302408014019
 20
409.7229085779191
 10
2128.274127259524
 20
409.7329125237224
 10
2128.246269177749
 20
409.7440393959788
 10
2128.218878335681
 20
409.7562713940657
 10
2128.191998552825
 20
409.7695889493965
 10
2128.165672831099
 20
409.7839707567227
 10
2128.139943286039
 20
409.7993938082209
 10
2128.114851079434
 20
409.8158334302985
 10
2128.090436353458
 20
409.8332633230674
 10
2128.066738166467
 20
409.8516556024176
 10
2128.043794430502
 20
409.8709808446249
 10
2128.021641850648
 20
409.8912081334251
 10
2128.000315866305
 20
409.9123051094705
 10
2127.979850594503
 20
409.9342380220998
 10
2127.960278775307
 20
409.9569717833319
 10
2127.941631719454
 20
409.9804700239984
 10
2127.923939258255
 20
410.0046951519265
 10
2127.907229695875
 20
410.0296084120797
 10
2127.891529764047
 20
410.0551699485563
 10
2127.876864579317
 20
410.0813388683505
 10
2127.863257602848
 20
410.1080733067733
 10
2127.850730602901
 20
410.1353304944261
 10
2127.839303620005
 20
410.1630668256233
 10
2127.828994934894
 20
410.1912379281516
 10
2127.819821039263
 20
410.2197987342568
 10
2127.811796609393
 20
410.2487035527416
 10
2127.804934482653
 20
410.2779061420623
 10
2127.799245636988
 20
410.3073597843057
 10
2127.794739173336
 20
410.3370173599271
 10
2127.791422301077
 20
410.3668314231327
 10
2127.789300326499
 20
410.3967542777807
 10
2127.788376644308
 20
410.4267380536873
 10
2127.78833293448
 20
410.4348351414808
  0
LWPOLYLINE
  5
41A
330
71
100
AcDbEntity
  8
0
100
AcDbPolyline
 90
       41
 70
   128
 43
0.0
 10
2127.78833293448
 20
415.0848351414818
 10
2127.78833293448
 20
414.898884737514
 10
2127.78833293448
 20
414.7132318145252
 10
2127.78833293448
 20
414.5281733775883
 10
2127.78833293448
 20
414.3440054807253
 10
2127.78833293448
 20
414.1610227532845
 10
2127.78833293448
 20
413.9795179285955
 10
2127.78833293448
 20
413.7997813756585
 10
2127.78833293448
 20
413.6221006346166
 10
2127.78833293448
 20
413.4467599567523
 10
2127.78833293448
 20
413.2740398497463
 10
2127.78833293448
 20
413.1042166289246
 10
2127.78833293448
 20
412.9375619752136
 10
2127.78833293448
 20
412.7743425005081
 10
2127.78833293448
 20
412.6148193211492
 10
2127.78833293448
 20
412.4592476401944
 10
2127.78833293448
 20
412.3078763391462
 10
2127.78833293448
 20
412.1609475797954
 10
2127.78833293448
 20
412.0186964168139
 10
2127.78833293448
 20
411.8813504217171
 10
2127.78833293448
 20
411.7491293187985
 10
2127.78833293448
 20
411.6222446336167
 10
2127.78833293448
 20
411.5008993546008
 10
2127.78833293448
 20
411.3852876083121
 10
2127.78833293448
 20
411.2755943488815
 10
2127.78833293448
 20
411.1719950621241
 10
2127.78833293448
 20
411.0746554847993
 10
2127.78833293448
 20
410.9837313394661
 10
2127.78833293448
 20
410.8993680853603
 10
2127.78833293448
 20
410.8217006856922
 10
2127.78833293448
 20
410.7508533917334
 10
2127.78833293448
 20
410.6869395440405
 10
2127.78833293448
 20
410.630061391136
 10
2127.78833293448
 20
410.5803099259309
 10
2127.78833293448
 20
410.5377647401565
 10
2127.78833293448
 20
410.5024938970347
 10
2127.78833293448
 20
410.4745538223895
 10
2127.78833293448
 20
410.4539892143809
 10
2127.78833293448
 20
410.4408329719944
 10
2127.78833293448
 20
410.4351061424116
 10
2127.78833293448
 20
410.4348351414808
  0
LWPOLYLINE
  5
41B
330
71
100
AcDbEntity
  8
0
100
AcDbPolyline
 90
       10
 70
   128
 43
0.0
 10
2127.78833293448
 20
410.4348351414808
 10
2127.78833293448
 20
410.4385546455072
 10
2127.78833293448
 20
410.4497072071736
 10
2127.78833293448
 20
410.4682749847603
 10
2127.78833293448
 20
410.4942282737842
 10
2127.78833293448
 20
410.5275255545191
 10
2127.78833293448
 20
410.5681135584188
 10
2127.78833293448
 20
410.6159273533357
 10
2127.78833293448
 20
410.6708904473975
 10
2127.78833293448
 20
410.6848351414807
  0
LWPOLYLINE
  5
41C
330
71
100
AcDbEntity
  8
0
100
AcDbPolyline
 90
       41
 70
   128
 43
0.0
 10
2127.78833293448
 20
419.734835141483
 10
2127.788932854485
 20
419.7648271421226
 10
2127.790731654753
 20
419.7947711619598
 10
2127.793726457591
 20
419.8246192969496
 10
2127.797912471948
 20
419.8543237964436
 10
2127.803283001099
 20
419.8838371395791
 10
2127.809829453342
 20
419.9131121113033
 10
2127.817541355748
 20
419.9421018779061
 10
2127.826406370918
 20
419.9707600619452
 10
2127.836410316723
 20
419.9990408164392
 10
2127.847537188979
 20
420.0268988982143
 10
2127.859769187065
 20
420.0542897402822
 10
2127.873086742396
 20
420.081169523139
 10
2127.887468549722
 20
420.1074952448657
 10
2127.902891601221
 20
420.1332247899236
 10
2127.919331223298
 20
420.1583169965291
 10
2127.936761116067
 20
420.1827317225045
 10
2127.955153395417
 20
420.2064299094968
 10
2127.974478637625
 20
420.2293736454615
 10
2127.994705926425
 20
420.2515262253156
 10
2128.015802902471
 20
420.2728522096575
 10
2128.0377358151
 20
420.293317481461
 10
2128.060469576332
 20
420.3128893006571
 10
2128.083967816997
 20
420.3315363565101
 10
2128.108192944926
 20
420.3492288177086
 10
2128.133106205079
 20
420.3659383800887
 10
2128.158667741556
 20
420.3816383119153
 10
2128.18483666135
 20
420.3963034966466
 10
2128.211571099773
 20
420.4099104731151
 10
2128.238828287425
 20
420.4224374730618
 10
2128.266564618622
 20
420.4338644559583
 10
2128.294735721151
 20
420.44417314107
 10
2128.323296527256
 20
420.4533470366999
 10
2128.35220134574
 20
420.4613714665716
 10
2128.381403935061
 20
420.4682335933091
 10
2128.410857577304
 20
420.4739224389743
 10
2128.440515152926
 20
420.4784289026266
 10
2128.470329216133
 20
420.4817457748862
 10
2128.50025207078
 20
420.4838677494647
 10
2128.530235846688
 20
420.4847914316554
 10
2128.53833293448
 20
420.4848351414828
  0
LWPOLYLINE
  5
41D
330
71
100
AcDbEntity
  8
0
100
AcDbPolyline
 90
       10
 70
   128
 43
0.0
 10
2127.78833293448
 20
419.4848351414828
 10
2127.78833293448
 20
419.5396088918276
 10
2127.78833293448
 20
419.5893603570326
 10
2127.78833293448
 20
419.6319055428071
 10
2127.78833293448
 20
419.667176385929
 10
2127.78833293448
 20
419.695116460574
 10
2127.78833293448
 20
419.715681068583
 10
2127.78833293448
 20
419.7288373109691
 10
2127.78833293448
 20
419.7345641405521
 10
2127.78833293448
 20
419.734835141483
  0
LWPOLYLINE
  5
41E
330
71
100
AcDbEntity
  8
0
100
AcDbPolyline
 90
       41
 70
   128
 43
0.0
 10
2127.78833293448
 20
419.734835141483
 10
2127.78833293448
 20
419.7311156374563
 10
2127.78833293448
 20
419.7199630757902
 10
2127.78833293448
 20
419.7013952982032
 10
2127.78833293448
 20
419.6754420091797
 10
2127.78833293448
 20
419.6421447284448
 10
2127.78833293448
 20
419.6015567245446
 10
2127.78833293448
 20
419.553742929628
 10
2127.78833293448
 20
419.498779835566
 10
2127.78833293448
 20
419.4367553715853
 10
2127.78833293448
 20
419.3677687635961
 10
2127.78833293448
 20
419.2919303754557
 10
2127.78833293448
 20
419.2093615324065
 10
2127.78833293448
 20
419.1201943269836
 10
2127.78833293448
 20
419.0245714076951
 10
2127.78833293448
 20
418.9226457508127
 10
2127.78833293448
 20
418.8145804156446
 10
2127.78833293448
 20
418.7005482836744
 10
2127.78833293448
 20
418.580731781988
 10
2127.78833293448
 20
418.4553225914278
 10
2127.78833293448
 20
418.3245213399469
 10
2127.78833293448
 20
418.1885372816445
 10
2127.78833293448
 20
418.0475879620058
 10
2127.78833293448
 20
417.9018988698747
 10
2127.78833293448
 20
417.7517030767194
 10
2127.78833293448
 20
417.5972408637693
 10
2127.78833293448
 20
417.4387593376149
 10
2127.78833293448
 20
417.2765120348902
 10
2127.78833293448
 20
417.1107585166691
 10
2127.78833293448
 20
416.9417639532215
 10
2127.78833293448
 20
416.7697986997989
 10
2127.78833293448
 20
416.5951378641223
 10
2127.78833293448
 20
416.4180608662708
 10
2127.78833293448
 20
416.2388509916656
 10
2127.78833293448
 20
416.0577949378773
 10
2127.78833293448
 20
415.8751823559681
 10
2127.78833293448
 20
415.6913053871144
 10
2127.78833293448
 20
415.5064581952411
 10
2127.78833293448
 20
415.320936496423
 10
2127.78833293448
 20
415.1350370858028
 10
2127.78833293448
 20
415.0848351414818
  0
LINE
  5
41F
330
71
100
AcDbEntity
  8
0
100
AcDbLine
 10
2128.53833293448
 20
409.6848351414807
 30
0.0
 11
2146.288332934481
 21
409.6848351414807
 31
0.0
  0
LINE
  5
420
330
71
100
AcDbEntity
  8
0
100
AcDbLine
 10
2146.288332934481
 20
420.4848351414828
 30
0.0
 11
2140.78833293448
 21
420.4848351414828
 31
0.0
  0
LINE
  5
421
330
71
100
AcDbEntity
  8
0
100
AcDbLine
 10
2135.788332934481
 20
420.4848351414828
 30
0.0
 11
2128.53833293448
 21
420.4848351414828
 31
0.0
  0
LWPOLYLINE
  5
422
330
71
100
AcDbEntity
  8
0
100
AcDbPolyline
 90
       41
 70
   128
 43
0.0
 10
2147.788332934481
 20
411.1848351414807
 10
2147.787133094472
 20
411.1248511402008
 10
2147.783535493934
 20
411.0649631005271
 10
2147.777545888262
 20
411.0052668305475
 10
2147.769173859543
 20
410.9458578315595
 10
2147.758432801243
 20
410.8868311452883
 10
2147.745339896759
 20
410.82828120184
 10
2147.729916091947
 20
410.7703016686346
 10
2147.712186061605
 20
410.7129853005566
 10
2147.692178169998
 20
410.6564237915684
 10
2147.669924425485
 20
410.6007076280176
 10
2147.64546042931
 20
410.5459259438819
 10
2147.618825318649
 20
410.4921663781686
 10
2147.590061703997
 20
410.4395149347153
 10
2147.559215601001
 20
410.3880558445996
 10
2147.526336356845
 20
410.3378714313882
 10
2147.491476571307
 20
410.2890419794373
 10
2147.454692012606
 20
410.2416456054531
 10
2147.416041528193
 20
410.1957581335237
 10
2147.375586950592
 20
410.1514529738151
 10
2147.333392998501
 20
410.1088010051316
 10
2147.289527173243
 20
410.0678704615246
 10
2147.244059650778
 20
410.0287268231324
 10
2147.197063169446
 20
409.9914327114263
 10
2147.14861291359
 20
409.9560477890292
 10
2147.098786393284
 20
409.922628664269
 10
2147.047663320329
 20
409.8912288006158
 10
2146.995325480741
 20
409.8618984311533
 10
2146.941856603895
 20
409.834684478216
 10
2146.887342228589
 20
409.8096304783231
 10
2146.831869566196
 20
409.7867765125301
 10
2146.775527361139
 20
409.7661591423066
 10
2146.718405748929
 20
409.747811351047
 10
2146.66059611196
 20
409.7317624913034
 10
2146.602190933317
 20
409.7180382378278
 10
2146.54328364883
 20
409.7066605464982
 10
2146.483968497588
 20
409.6976476191933
 10
2146.424340371177
 20
409.6910138746745
 10
2146.364494661881
 20
409.6867699255175
 10
2146.304527110069
 20
409.684922561136
 10
2146.288332934481
 20
409.6848351414807
  0
LWPOLYLINE
  5
423
330
71
100
AcDbEntity
  8
0
100
AcDbPolyline
 90
       41
 70
   128
 43
0.0
 10
2147.788332934481
 20
415.0848351414818
 10
2147.788332934481
 20
414.9288767381539
 10
2147.788332934481
 20
414.7731678350021
 10
2147.788332934481
 20
414.6179575330548
 10
2147.788332934481
 20
414.463494135686
 10
2147.788332934481
 20
414.3100247513809
 10
2147.788332934481
 20
414.1577948984158
 10
2147.788332934481
 20
414.0070481120813
 10
2147.788332934481
 20
413.8580255550786
 10
2147.788332934481
 20
413.7109656317088
 10
2147.788332934481
 20
413.5661036064776
 10
2147.788332934481
 20
413.4236712277241
 10
2147.788332934481
 20
413.2838963568696
 10
2147.788332934481
 20
413.1470026038908
 10
2147.788332934481
 20
413.01320896959
 10
2147.788332934481
 20
412.8827294952406
 10
2147.788332934481
 20
412.7557729201678
 10
2147.788332934481
 20
412.6325423478092
 10
2147.788332934481
 20
412.5132349207922
 10
2147.788332934481
 20
412.3980415055497
 10
2147.788332934481
 20
412.2871463869731
 10
2147.788332934481
 20
412.1807269735946
 10
2147.788332934481
 20
412.0789535137751
 10
2147.788332934481
 20
411.9819888233393
 10
2147.788332934481
 20
411.8899880251071
 10
2147.788332934481
 20
411.8030983007303
 10
2147.788332934481
 20
411.721458655232
 10
2147.788332934481
 20
411.6451996946294
 10
2147.788332934481
 20
411.5744434169926
 10
2147.788332934481
 20
411.5093030172711
 10
2147.788332934481
 20
411.4498827062087
 10
2147.788332934481
 20
411.3962775436275
 10
2147.788332934481
 20
411.3485732863528
 10
2147.788332934481
 20
411.3068462510197
 10
2147.788332934481
 20
411.2711631919832
 10
2147.788332934481
 20
411.2415811945258
 10
2147.788332934481
 20
411.2181475835333
 10
2147.788332934481
 20
411.2008998477842
 10
2147.788332934481
 20
411.1898655799762
 10
2147.788332934481
 20
411.185062432584
 10
2147.788332934481
 20
411.1848351414807
  0
LWPOLYLINE
  5
424
330
71
100
AcDbEntity
  8
0
100
AcDbPolyline
 90
       41
 70
   128
 43
0.0
 10
2147.788332934481
 20
411.1848351414807
 10
2147.788332934481
 20
411.1879547255028
 10
2147.788332934481
 20
411.1973084869007
 10
2147.788332934481
 20
411.2128814616508
 10
2147.788332934481
 20
411.234648736316
 10
2147.788332934481
 20
411.2625754879001
 10
2147.788332934481
 20
411.296617039558
 10
2147.788332934481
 20
411.3367189320689
 10
2147.788332934481
 20
411.3828170109593
 10
2147.788332934481
 20
411.434837529137
 10
2147.788332934481
 20
411.4926972648698
 10
2147.788332934481
 20
411.5563036549231
 10
2147.788332934481
 20
411.6255549426417
 10
2147.788332934481
 20
411.7003403407383
 10
2147.788332934481
 20
411.7805402085285
 10
2147.788332934481
 20
411.8660262433333
 10
2147.788332934481
 20
411.9566616857325
 10
2147.788332934481
 20
412.0523015383525
 10
2147.788332934481
 20
412.1527927978315
 10
2147.788332934481
 20
412.2579746995914
 10
2147.788332934481
 20
412.3676789750271
 10
2147.788332934481
 20
412.4817301207001
 10
2147.788332934481
 20
412.5999456791068
 10
2147.788332934481
 20
412.7221365305715
 10
2147.788332934481
 20
412.8481071957986
 10
2147.788332934481
 20
412.9776561485956
 10
2147.788332934481
 20
413.1105761382734
 10
2147.788332934481
 20
413.2466545212038
 10
2147.788332934481
 20
413.3856736010022
 10
2147.788332934481
 20
413.5274109767967
 10
2147.788332934481
 20
413.6716398990225
 10
2147.788332934481
 20
413.8181296321703
 10
2147.788332934481
 20
413.9666458239166
 10
2147.788332934481
 20
414.1169508800373
 10
2147.788332934481
 20
414.2688043445051
 10
2147.788332934481
 20
414.4219632841705
 10
2147.788332934481
 20
414.576182677403
 10
2147.788332934481
 20
414.731215806071
 10
2147.788332934481
 20
414.886814650241
 10
2147.788332934481
 20
415.0427302849545
 10
2147.788332934481
 20
415.0848351414818
  0
LWPOLYLINE
  5
425
330
71
100
AcDbEntity
  8
0
100
AcDbPolyline
 90
       41
 70
   128
 43
0.0
 10
2146.288332934481
 20
420.4848351414828
 10
2146.34831693576
 20
420.4836353014743
 10
2146.408204975434
 20
420.4800377009368
 10
2146.467901245413
 20
420.4740480952636
 10
2146.527310244401
 20
420.4656760665463
 10
2146.586336930674
 20
420.4549350082447
 10
2146.644886874121
 20
420.4418421037608
 10
2146.702866407327
 20
420.4264182989491
 10
2146.760182775405
 20
420.4086882686063
 10
2146.816744284393
 20
420.3886803769998
 10
2146.872460447942
 20
420.3664266324873
 10
2146.92724213208
 20
420.3419626363126
 10
2146.981001697793
 20
420.3153275256516
 10
2147.033653141246
 20
420.2865639109992
 10
2147.085112231362
 20
420.2557178080032
 10
2147.135296644572
 20
420.2228385638475
 10
2147.184126096524
 20
420.1879787783093
 10
2147.231522470509
 20
420.1511942196092
 10
2147.277409942438
 20
420.1125437351943
 10
2147.321715102146
 20
420.0720891575941
 10
2147.364367070831
 20
420.0298952055034
 10
2147.405297614437
 20
419.986029380245
 10
2147.444441252829
 20
419.9405618577808
 10
2147.481735364535
 20
419.8935653764481
 10
2147.517120286932
 20
419.8451151205913
 10
2147.550539411692
 20
419.7952886002851
 10
2147.581939275347
 20
419.7441655273321
 10
2147.611269644808
 20
419.6918276877434
 10
2147.638483597746
 20
419.6383588108979
 10
2147.663537597638
 20
419.5838444355923
 10
2147.686391563432
 20
419.528371773198
 10
2147.707008933656
 20
419.4720295681412
 10
2147.725356724913
 20
419.4149079559307
 10
2147.741405584659
 20
419.3570983189614
 10
2147.755129838133
 20
419.29869314032
 10
2147.766507529464
 20
419.2397858558333
 10
2147.775520456768
 20
419.18047070459
 10
2147.782154201287
 20
419.1208425781794
 10
2147.786398150444
 20
419.0609968688833
 10
2147.788245514826
 20
419.0010293170701
 10
2147.788332934481
 20
418.9848351414828
  0
LWPOLYLINE
  5
426
330
71
100
AcDbEntity
  8
0
100
AcDbPolyline
 90
       41
 70
   128
 43
0.0
 10
2147.788332934481
 20
415.0848351414818
 10
2147.788332934481
 20
415.2407935448096
 10
2147.788332934481
 20
415.3965024479616
 10
2147.788332934481
 20
415.5517127499088
 10
2147.788332934481
 20
415.7061761472776
 10
2147.788332934481
 20
415.8596455315827
 10
2147.788332934481
 20
416.0118753845479
 10
2147.788332934481
 20
416.1626221708822
 10
2147.788332934481
 20
416.3116447278851
 10
2147.788332934481
 20
416.4587046512551
 10
2147.788332934481
 20
416.6035666764861
 10
2147.788332934481
 20
416.7459990552398
 10
2147.788332934481
 20
416.8857739260942
 10
2147.788332934481
 20
417.0226676790731
 10
2147.788332934481
 20
417.1564613133737
 10
2147.788332934481
 20
417.2869407877231
 10
2147.788332934481
 20
417.4138973627957
 10
2147.788332934481
 20
417.5371279351546
 10
2147.788332934481
 20
417.6564353621714
 10
2147.788332934481
 20
417.7716287774137
 10
2147.788332934481
 20
417.8825238959909
 10
2147.788332934481
 20
417.9889433093689
 10
2147.788332934481
 20
418.0907167691885
 10
2147.788332934481
 20
418.1876814596246
 10
2147.788332934481
 20
418.2796822578564
 10
2147.788332934481
 20
418.3665719822336
 10
2147.788332934481
 20
418.4482116277317
 10
2147.788332934481
 20
418.5244705883341
 10
2147.788332934481
 20
418.5952268659713
 10
2147.788332934481
 20
418.6603672656928
 10
2147.788332934481
 20
418.719787576755
 10
2147.788332934481
 20
418.773392739336
 10
2147.788332934481
 20
418.8210969966108
 10
2147.788332934481
 20
418.8628240319442
 10
2147.788332934481
 20
418.8985070909806
 10
2147.788332934481
 20
418.9280890884377
 10
2147.788332934481
 20
418.9515226994303
 10
2147.788332934481
 20
418.9687704351795
 10
2147.788332934481
 20
418.9798047029876
 10
2147.788332934481
 20
418.9846078503796
 10
2147.788332934481
 20
418.9848351414828
  0
LWPOLYLINE
  5
427
330
71
100
AcDbEntity
  8
0
100
AcDbPolyline
 90
       41
 70
   128
 43
0.0
 10
2147.788332934481
 20
418.9848351414828
 10
2147.788332934481
 20
418.9817155574607
 10
2147.788332934481
 20
418.9723617960631
 10
2147.788332934481
 20
418.9567888213128
 10
2147.788332934481
 20
418.9350215466478
 10
2147.788332934481
 20
418.9070947950638
 10
2147.788332934481
 20
418.8730532434058
 10
2147.788332934481
 20
418.8329513508946
 10
2147.788332934481
 20
418.7868532720044
 10
2147.788332934481
 20
418.7348327538268
 10
2147.788332934481
 20
418.676973018094
 10
2147.788332934481
 20
418.6133666280406
 10
2147.788332934481
 20
418.5441153403218
 10
2147.788332934481
 20
418.4693299422256
 10
2147.788332934481
 20
418.3891300744348
 10
2147.788332934481
 20
418.3036440396302
 10
2147.788332934481
 20
418.2130085972312
 10
2147.788332934481
 20
418.1173687446111
 10
2147.788332934481
 20
418.016877485132
 10
2147.788332934481
 20
417.9116955833721
 10
2147.788332934481
 20
417.8019913079364
 10
2147.788332934481
 20
417.6879401622636
 10
2147.788332934481
 20
417.5697246038571
 10
2147.788332934481
 20
417.447533752392
 10
2147.788332934481
 20
417.3215630871649
 10
2147.788332934481
 20
417.1920141343681
 10
2147.788332934481
 20
417.0590941446901
 10
2147.788332934481
 20
416.92301576176
 10
2147.788332934481
 20
416.7839966819611
 10
2147.788332934481
 20
416.6422593061667
 10
2147.788332934481
 20
416.4980303839412
 10
2147.788332934481
 20
416.3515406507933
 10
2147.788332934481
 20
416.2030244590467
 10
2147.788332934481
 20
416.0527194029263
 10
2147.788332934481
 20
415.9008659384586
 10
2147.788332934481
 20
415.747706998793
 10
2147.788332934481
 20
415.5934876055608
 10
2147.788332934481
 20
415.4384544768927
 10
2147.788332934481
 20
415.2828556327227
 10
2147.788332934481
 20
415.126939998009
 10
2147.788332934481
 20
415.0848351414818
  0
LWPOLYLINE
  5
428
330
71
100
AcDbEntity
  8
0
100
AcDbPolyline
 90
        4
 70
   128
 43
0.0
 10
2126.038332934481
 20
409.4348351414821
 10
2126.036333201133
 20
409.3348618060264
 10
2126.030337200238
 20
409.2350484065702
 10
2126.028573802679
 20
409.2174732501371
  0
LWPOLYLINE
  5
429
330
71
100
AcDbEntity
  8
0
100
AcDbPolyline
 90
        4
 70
   128
 43
0.0
 10
2126.0285208796
 20
409.216945784613
 10
2126.020354524114
 20
409.1355546232708
 10
2126.00640114292
 20
409.0365396249572
 10
2126.004414112075
 20
409.0256200448826
  0
LWPOLYLINE
  5
42A
330
71
100
AcDbEntity
  8
0
100
AcDbPolyline
 90
       69
 70
   128
 43
0.0
 10
2125.999882097708
 20
409.0007146973148
 10
2125.988499379083
 20
408.9381618145051
 10
2125.966677871611
 20
408.8405785754251
 10
2125.940971530258
 20
408.7439460200827
 10
2125.911421479687
 20
408.6484187399528
 10
2125.878074993675
 20
408.5541495583052
 10
2125.840985419488
 20
408.4612892857215
 10
2125.800212092531
 20
408.3699864788281
 10
2125.755820241428
 20
408.2803872026394
 10
2125.707880883675
 20
408.1926347968837
 10
2125.656470712015
 20
408.106869646691
 10
2125.601671971755
 20
408.0232289580055
 10
2125.543572329191
 20
407.9418465380871
 10
2125.482264731358
 20
407.8628525814468
 10
2125.417847257333
 20
407.7863734615643
 10
2125.350422961333
 20
407.7125315287166
 10
2125.280099707849
 20
407.6414449142442
 10
2125.206989999083
 20
407.5732273415657
 10
2125.131210794976
 20
407.5079879442456
 10
2125.05288332609
 20
407.4458310914021
 10
2124.972132899662
 20
407.3868562207406
 10
2124.88908869915
 20
407.3311576794733
 10
2124.803883577563
 20
407.2788245733847
 10
2124.716653844914
 20
407.2299406242808
 10
2124.627539050172
 20
407.1845840360516
 10
2124.536681757996
 20
407.1428273695635
 10
2124.444227320672
 20
407.104737426575
 10
2124.350323645578
 20
407.0703751428693
 10
2124.25512095856
 20
407.0397954907699
 10
2124.158771563612
 20
407.0130473911975
 10
2124.061429599208
 20
406.9901736354046
 10
2123.963250791732
 20
406.9712108165218
 10
2123.864392206326
 20
406.9561892710138
 10
2123.765011995642
 20
406.945133030149
 10
2123.665269146814
 20
406.938059781554
 10
2123.565323227126
 20
406.9349808409182
 10
2123.465334128728
 20
406.9359011338893
 10
2123.365461812846
 20
406.9408191881951
 10
2123.265866053881
 20
406.9497271359979
 10
2123.166706183802
 20
406.962610726481
 10
2123.068140837248
 20
406.9794493486488
 10
2122.970327697748
 20
407.0002160642976
 10
2122.873423245458
 20
407.0248776511119
 10
2122.777582506831
 20
407.0533946558139
 10
2122.682958806604
 20
407.0857214572796
 10
2122.58970352251
 20
407.1218063395225
 10
2122.497965843113
 20
407.1615915744287
 10
2122.407892529129
 20
407.2050135141096
 10
2122.319627678644
 20
407.2520026927243
 10
2122.233312496593
 20
407.3024839376107
 10
2122.149085068855
 20
407.3563764895462
 10
2122.067080141341
 20
407.4135941319441
 10
2121.987428904448
 20
407.4740453287819
 10
2121.910258783161
 20
407.5376333710407
 10
2121.835693233213
 20
407.6042565314175
 10
2121.763851543576
 20
407.6738082270676
 10
2121.694848645628
 20
407.7461771901152
 10
2121.628794929286
 20
407.8212476456571
 10
2121.565796066406
 20
407.8988994969789
 10
2121.505952841731
 20
407.979008517683
 10
2121.449360991651
 20
408.0614465504253
 10
2121.396111051058
 20
408.1460817119395
 10
2121.346288208495
 20
408.2327786040215
 10
2121.299972169882
 20
408.3213985301385
 10
2121.257237031
 20
408.4117997173128
 10
2121.218151158958
 20
408.5038375429304
 10
2121.182777082809
 20
408.5973647661033
 10
2121.151171393532
 20
408.6922317632262
 10
2121.123384653486
 20
408.7882867673401
  0
LWPOLYLINE
  5
42B
330
71
100
AcDbEntity
  8
0
100
AcDbPolyline
 90
        4
 70
   128
 43
0.0
 10
2121.120581185016
 20
408.7996642312233
 10
2121.099461315528
 20
408.8853761109303
 10
2121.079439651896
 20
408.9833444717575
 10
2121.076608061706
 20
409.0007146973148
  0
LWPOLYLINE
  5
42C
330
71
100
AcDbEntity
  8
0
100
AcDbPolyline
 90
        6
 70
   128
 43
0.0
 10
2121.075030800292
 20
409.0103903158577
 10
2121.063351692979
 20
409.0820351213436
 10
2121.051223176081
 20
409.1812901757014
 10
2121.043073504242
 20
409.2809508479184
 10
2121.038915715197
 20
409.3808577021778
 10
2121.03833293448
 20
409.4348351414821
  0
LWPOLYLINE
  5
42D
330
71
100
AcDbEntity
  8
0
100
AcDbPolyline
 90
        6
 70
   128
 43
0.0
 10
2121.03833293448
 20
410.5758495301371
 10
2121.03833293448
 20
410.4564027805903
 10
2121.03833293448
 20
410.3305240773266
 10
2121.03833293448
 20
410.2122512575665
 10
2121.03833293448
 20
410.1017735325918
 10
2121.03833293448
 20
410.0572716887752
  0
LWPOLYLINE
  5
42E
330
71
100
AcDbEntity
  8
0
100
AcDbPolyline
 90
        6
 70
   128
 43
0.0
 10
2121.03833293448
 20
409.8798307260556
 10
2121.03833293448
 20
409.8188143057774
 10
2121.03833293448
 20
409.7411555446026
 10
2121.03833293448
 20
409.6720455308584
 10
2121.03833293448
 20
409.6115948258247
 10
2121.03833293448
 20
409.5736752774136
  0
LWPOLYLINE
  5
42F
330
71
100
AcDbEntity
  8
0
100
AcDbPolyline
 90
        6
 70
   128
 43
0.0
 10
2121.03833293448
 20
409.5736752774136
 10
2121.03833293448
 20
409.5967755835787
 10
2121.03833293448
 20
409.6548719150368
 10
2121.03833293448
 20
409.7216550293267
 10
2121.03833293448
 20
409.797018087712
 10
2121.03833293448
 20
409.8798307260556
  0
LWPOLYLINE
  5
430
330
71
100
AcDbEntity
  8
0
100
AcDbPolyline
 90
        7
 70
   128
 43
0.0
 10
2121.03833293448
 20
410.0572716887752
 10
2121.03833293448
 20
410.0733138277888
 10
2121.03833293448
 20
410.1816567763127
 10
2121.03833293448
 20
410.2978437642656
 10
2121.03833293448
 20
410.4216889172512
 10
2121.03833293448
 20
410.5529941094446
 10
2121.03833293448
 20
410.5758495301371
  0
LWPOLYLINE
  5
431
330
71
100
AcDbEntity
  8
0
100
AcDbPolyline
 90
        5
 70
   128
 43
0.0
 10
2126.038332934481
 20
410.4127970821219
 10
2126.038332934481
 20
410.3305240773266
 10
2126.038332934481
 20
410.2122512575665
 10
2126.038332934481
 20
410.1017735325918
 10
2126.038332934481
 20
410.0906250431462
  0
LWPOLYLINE
  5
432
330
71
100
AcDbEntity
  8
0
100
AcDbPolyline
 90
        8
 70
   128
 43
0.0
 10
2126.038332934481
 20
409.6851353976886
 10
2126.038332934481
 20
409.6720455308584
 10
2126.038332934481
 20
409.6115948258247
 10
2126.038332934481
 20
409.5599001377332
 10
2126.038332934481
 20
409.517044167058
 10
2126.038332934481
 20
409.4830954742098
 10
2126.038332934481
 20
409.4581083698555
 10
2126.038332934481
 20
409.4550517397566
  0
LWPOLYLINE
  5
433
330
71
100
AcDbEntity
  8
0
100
AcDbPolyline
 90
        7
 70
   128
 43
0.0
 10
2126.038332934481
 20
409.4550517397566
 10
2126.038332934481
 20
409.4754663489186
 10
2126.038332934481
 20
409.5070009904206
 10
2126.038332934481
 20
409.5474589766898
 10
2126.038332934481
 20
409.5967755835787
 10
2126.038332934481
 20
409.6548719150368
 10
2126.038332934481
 20
409.6851353976886
  0
LWPOLYLINE
  5
434
330
71
100
AcDbEntity
  8
0
100
AcDbPolyline
 90
        4
 70
   128
 43
0.0
 10
2126.038332934481
 20
410.0906250431462
 10
2126.038332934481
 20
410.1816567763127
 10
2126.038332934481
 20
410.2978437642656
 10
2126.038332934481
 20
410.4127970821219
  0
LWPOLYLINE
  5
435
330
71
100
AcDbEntity
  8
0
100
AcDbPolyline
 90
        5
 70
   128
 43
0.0
 10
2126.038332934481
 20
410.9478072230205
 10
2126.038332934481
 20
410.9895116808038
 10
2126.038332934481
 20
411.1484422336782
 10
2126.038332934481
 20
411.3136701754858
 10
2126.038332934481
 20
411.380146970753
  0
LWPOLYLINE
  5
436
330
71
100
AcDbEntity
  8
0
100
AcDbPolyline
 90
        7
 70
   128
 43
0.0
 10
2126.038332934481
 20
411.8051337365574
 10
2126.038332934481
 20
411.8444472201788
 10
2126.038332934481
 20
412.0321271133326
 10
2126.038332934481
 20
412.2246906881223
 10
2126.038332934481
 20
412.4218298839052
 10
2126.038332934481
 20
412.6232293200233
 10
2126.038332934481
 20
412.6760637397357
  0
LWPOLYLINE
  5
437
330
71
100
AcDbEntity
  8
0
100
AcDbPolyline
 90
       41
 70
   128
 43
0.0
 10
2126.038332934481
 20
409.4348351414821
 10
2126.038332934481
 20
409.4380347148382
 10
2126.038332934481
 20
409.4476283162716
 10
2126.038332934481
 20
409.4636005980667
 10
2126.038332934481
 20
409.4859260079797
 10
2126.038332934481
 20
409.5145688301172
 10
2126.038332934481
 20
409.5494832420741
 10
2126.038332934481
 20
409.5906133882388
 10
2126.038332934481
 20
409.6378934691522
 10
2126.038332934481
 20
409.6912478467705
 10
2126.038332934481
 20
409.7505911654705
 10
2126.038332934481
 20
409.8158284886022
 10
2126.038332934481
 20
409.8868554503648
 10
2126.038332934481
 20
409.9635584227717
 10
2126.038332934481
 20
410.0458146974283
 10
2126.038332934481
 20
410.1334926818433
 10
2126.038332934481
 20
410.2264521099447
 10
2126.038332934481
 20
410.3245442664784
 10
2126.038332934481
 20
410.4276122249186
 10
2126.038332934481
 20
410.5354910985185
 10
2126.038332934481
 20
410.6480083040934
 10
2126.038332934481
 20
410.7649838381169
 10
2126.038332934481
 20
410.8862305646878
 10
2126.038332934481
 20
411.0115545149083
 10
2126.038332934481
 20
411.1407551971921
 10
2126.038332934481
 20
411.2736259180095
 10
2126.038332934481
 20
411.409954112551
 10
2126.038332934481
 20
411.5495216847872
 10
2126.038332934481
 20
411.6921053563752
 10
2126.038332934481
 20
411.837477023857
 10
2126.038332934481
 20
411.9854041235752
 10
2126.038332934481
 20
412.135650003727
 10
2126.038332934481
 20
412.2879743029543
 10
2126.038332934481
 20
412.4421333348726
 10
2126.038332934481
 20
412.5978804779164
 10
2126.038332934481
 20
412.7549665698811
 10
2126.038332934481
 20
412.9131403065294
 10
2126.038332934481
 20
413.0721486436248
 10
2126.038332934481
 20
413.2317372017478
 10
2126.038332934481
 20
413.3916506732489
 10
2126.038332934481
 20
413.434835141482
  0
LWPOLYLINE
  5
438
330
71
100
AcDbEntity
  8
0
100
AcDbPolyline
 90
       29
 70
   128
 43
0.0
 10
2121.03833293448
 20
411.4598351414818
 10
2121.03833293448
 20
411.4473145901071
 10
2121.03833293448
 20
411.3100903497985
 10
2121.03833293448
 20
411.1762652479018
 10
2121.03833293448
 20
411.0460533760326
 10
2121.03833293448
 20
410.9196630454079
 10
2121.03833293448
 20
410.7972964535961
 10
2121.03833293448
 20
410.6791493610399
 10
2121.03833293448
 20
410.5654107778841
 10
2121.03833293448
 20
410.4562626615986
 10
2121.03833293448
 20
410.3518796258861
 10
2121.03833293448
 20
410.2524286613363
 10
2121.03833293448
 20
410.1580688682778
 10
2121.03833293448
 20
410.0689512022505
 10
2121.03833293448
 20
409.9852182325085
 10
2121.03833293448
 20
409.9070039139423
 10
2121.03833293448
 20
409.834433372776
 10
2121.03833293448
 20
409.7676227063951
 10
2121.03833293448
 20
409.7066787976132
 10
2121.03833293448
 20
409.6516991436836
 10
2121.03833293448
 20
409.602771700325
 10
2121.03833293448
 20
409.5599747410091
 10
2121.03833293448
 20
409.5233767317409
 10
2121.03833293448
 20
409.493036221528
 10
2121.03833293448
 20
409.4690017487155
 10
2121.03833293448
 20
409.4513117633316
 10
2121.03833293448
 20
409.4399945655797
 10
2121.03833293448
 20
409.4350682605623
 10
2121.03833293448
 20
409.4348351414821
  0
LINE
  5
439
330
71
100
AcDbEntity
  8
0
100
AcDbLine
 10
2126.038332934481
 20
413.434835141482
 30
0.0
 11
2126.038332934481
 21
443.8348351414817
 31
0.0
  0
LINE
  5
43A
330
71
100
AcDbEntity
  8
0
100
AcDbLine
 10
2121.03833293448
 20
443.8348351414817
 30
0.0
 11
2121.03833293448
 21
415.4598351414818
 31
0.0
  0
LWPOLYLINE
  5
43F
330
71
100
AcDbEntity
  8
0
100
AcDbPolyline
 90
       41
 70
   128
 43
0.0
 10
2126.038332934481
 20
447.8348351414817
 10
2126.038332934481
 20
447.8316355681258
 10
2126.038332934481
 20
447.8220419666921
 10
2126.038332934481
 20
447.8060696848975
 10
2126.038332934481
 20
447.7837442749843
 10
2126.038332934481
 20
447.755101452847
 10
2126.038332934481
 20
447.72018704089
 10
2126.038332934481
 20
447.6790568947249
 10
2126.038332934481
 20
447.6317768138117
 10
2126.038332934481
 20
447.5784224361937
 10
2126.038332934481
 20
447.5190791174934
 10
2126.038332934481
 20
447.4538417943618
 10
2126.038332934481
 20
447.382814832599
 10
2126.038332934481
 20
447.3061118601925
 10
2126.038332934481
 20
447.2238555855356
 10
2126.038332934481
 20
447.1361776011205
 10
2126.038332934481
 20
447.0432181730187
 10
2126.038332934481
 20
446.9451260164856
 10
2126.038332934481
 20
446.8420580580453
 10
2126.038332934481
 20
446.7341791844455
 10
2126.038332934481
 20
446.6216619788704
 10
2126.038332934481
 20
446.5046864448471
 10
2126.038332934481
 20
446.3834397182763
 10
2126.038332934481
 20
446.2581157680556
 10
2126.038332934481
 20
446.1289150857718
 10
2126.038332934481
 20
445.9960443649544
 10
2126.038332934481
 20
445.859716170413
 10
2126.038332934481
 20
445.7201485981769
 10
2126.038332934481
 20
445.5775649265886
 10
2126.038332934481
 20
445.4321932591071
 10
2126.038332934481
 20
445.2842661593883
 10
2126.038332934481
 20
445.1340202792368
 10
2126.038332934481
 20
444.9816959800097
 10
2126.038332934481
 20
444.8275369480913
 10
2126.038332934481
 20
444.6717898050476
 10
2126.038332934481
 20
444.5147037130826
 10
2126.038332934481
 20
444.3565299764343
 10
2126.038332934481
 20
444.1975216393392
 10
2126.038332934481
 20
444.0379330812161
 10
2126.038332934481
 20
443.8780196097148
 10
2126.038332934481
 20
443.8348351414817
  0
LWPOLYLINE
  5
440
330
71
100
AcDbEntity
  8
0
100
AcDbPolyline
 90
       11
 70
   128
 43
0.0
 10
2121.03833293448
 20
443.8348351414817
 10
2121.03833293448
 20
443.9947924782281
 10
2121.03833293448
 20
444.1544939173586
 10
2121.03833293448
 20
444.3136839706376
 10
2121.03833293448
 20
444.4721079679388
 10
2121.03833293448
 20
444.6295124646622
 10
2121.03833293448
 20
444.7856456471903
 10
2121.03833293448
 20
444.9402577357384
 10
2121.03833293448
 20
445.0931013839463
 10
2121.03833293448
 20
445.2439320745822
 10
2121.03833293448
 20
445.3360429812781
  0
LINE
  5
441
330
71
100
AcDbEntity
  8
0
100
AcDbLine
 10
2114.538332934462
 20
376.8348351415168
 30
0.0
 11
2114.538332934462
 21
518.8348351415169
 31
0.0
  0
LINE
  5
442
330
71
100
AcDbEntity
  8
0
100
AcDbLine
 10
2114.538332934462
 20
518.8348351415169
 30
0.0
 11
1874.788332934462
 21
518.8348351415169
 31
0.0
  0
LINE
  5
443
330
71
100
AcDbEntity
  8
0
100
AcDbLine
 10
1874.788332934462
 20
518.8348351415169
 30
0.0
 11
1874.788332934462
 21
376.834835141517
 31
0.0
  0
LINE
  5
444
330
71
100
AcDbEntity
  8
0
100
AcDbLine
 10
1874.788332934462
 20
376.834835141517
 30
0.0
 11
2114.538332934462
 21
376.8348351415168
 31
0.0
  0
ARC
  5
445
330
71
100
AcDbEntity
  8
0
100
AcDbCircle
 10
1994.66333293448
 20
447.8348351414782
 30
0.0
 40
69.7499999999999
100
AcDbArc
 50
0.0
 51
180.0
  0
ARC
  5
446
330
71
100
AcDbEntity
  8
0
100
AcDbCircle
 10
1994.66333293448
 20
447.8348351414782
 30
0.0
 40
69.7499999999999
100
AcDbArc
 50
180.0
 51
0.0
  0
ARC
  5
447
330
71
100
AcDbEntity
  8
0
100
AcDbCircle
 10
1994.66333293448
 20
447.8348351414778
 30
0.0
 40
68.24999999999988
100
AcDbArc
 50
0.0
 51
180.0
  0
ARC
  5
448
330
71
100
AcDbEntity
  8
0
100
AcDbCircle
 10
1994.66333293448
 20
447.8348351414778
 30
0.0
 40
68.24999999999993
100
AcDbArc
 50
180.0
 51
0.0
  0
ARC
  5
449
330
71
100
AcDbEntity
  8
0
100
AcDbCircle
 10
1994.66333293448
 20
447.8348351414778
 30
0.0
 40
2.999999999999993
100
AcDbArc
 50
0.0
 51
180.0
  0
ARC
  5
44A
330
71
100
AcDbEntity
  8
0
100
AcDbCircle
 10
1994.66333293448
 20
447.8348351414778
 30
0.0
 40
3.0
100
AcDbArc
 50
180.0
 51
0.0
  0
LINE
  5
44B
330
71
100
AcDbEntity
  8
0
100
AcDbLine
 10
2114.78833293448
 20
461.4598351414817
 30
0.0
 11
2114.538332934483
 21
461.4598351414817
 31
0.0
  0
LINE
  5
44C
330
71
100
AcDbEntity
  8
0
100
AcDbLine
 10
2114.538332934483
 20
458.4598351414817
 30
0.0
 11
2114.78833293448
 21
458.4598351414817
 31
0.0
  0
LINE
  5
44D
330
71
100
AcDbEntity
  8
0
100
AcDbLine
 10
2114.78833293448
 20
386.0848351414816
 30
0.0
 11
2114.538332934483
 21
386.0848351414816
 31
0.0
  0
LINE
  5
44E
330
71
100
AcDbEntity
  8
0
100
AcDbLine
 10
2114.538332934483
 20
384.0848351414818
 30
0.0
 11
2114.78833293448
 21
384.0848351414818
 31
0.0
  0
LINE
  5
44F
330
71
100
AcDbEntity
  8
0
100
AcDbLine
 10
2114.78833293448
 20
509.0848351414818
 30
0.0
 11
2114.538332934483
 21
509.0848351414818
 31
0.0
  0
LINE
  5
450
330
71
100
AcDbEntity
  8
0
100
AcDbLine
 10
2114.538332934483
 20
507.5848351414817
 30
0.0
 11
2114.78833293448
 21
507.5848351414817
 31
0.0
  0
LINE
  5
451
330
71
100
AcDbEntity
  8
0
100
AcDbLine
 10
2114.78833293448
 20
461.4598351414813
 30
0.0
 11
2114.78833293448
 21
458.4598351414814
 31
0.0
  0
LINE
  5
452
330
71
100
AcDbEntity
  8
0
100
AcDbLine
 10
2114.78833293448
 20
386.0848351414814
 30
0.0
 11
2114.78833293448
 21
384.0848351414814
 31
0.0
  0
LINE
  5
453
330
71
100
AcDbEntity
  8
0
100
AcDbLine
 10
2114.78833293448
 20
509.0848351414813
 30
0.0
 11
2114.78833293448
 21
507.5848351414814
 31
0.0
  0
LINE
  5
454
330
71
100
AcDbEntity
  8
0
100
AcDbLine
 10
2123.538332934479
 20
415.4598351414818
 30
0.0
 11
2114.53833293448
 21
415.4598351414818
 31
0.0
  0
LINE
  5
455
330
71
100
AcDbEntity
  8
0
100
AcDbLine
 10
2114.53833293448
 20
411.4598351414818
 30
0.0
 11
2123.538332934479
 21
411.4598351414818
 31
0.0
  0
LINE
  5
456
330
71
100
AcDbEntity
  8
0
100
AcDbLine
 10
2123.538332934481
 20
484.2098351414818
 30
0.0
 11
2114.53833293448
 21
484.2098351414818
 31
0.0
  0
LINE
  5
457
330
71
100
AcDbEntity
  8
0
100
AcDbLine
 10
2114.53833293448
 20
480.2098351414818
 30
0.0
 11
2123.538332934481
 21
480.2098351414818
 31
0.0
  0
LINE
  5
458
330
71
100
AcDbEntity
  8
0
100
AcDbLine
 10
2123.538332934479
 20
415.4598351414817
 30
0.0
 11
2123.538332934479
 21
411.4598351414817
 31
0.0
  0
LINE
  5
459
330
71
100
AcDbEntity
  8
0
100
AcDbLine
 10
2123.538332934479
 20
484.2098351414817
 30
0.0
 11
2123.538332934479
 21
480.2098351414817
 31
0.0
  0
LINE
  5
45A
330
71
100
AcDbEntity
  8
0
100
AcDbLine
 10
1601.770183529998
 20
191.4999999999972
 30
0.0
 11
1743.770183529997
 21
191.4999999999976
 31
0.0
  0
LINE
  5
45B
330
71
100
AcDbEntity
  8
0
100
AcDbLine
 10
1743.770183529998
 20
150.7450353879073
 30
0.0
 11
1601.770183529998
 21
150.7450353879068
 31
0.0
  0
LINE
  5
45C
330
71
100
AcDbEntity
  8
0
100
AcDbLine
 10
1601.770183529998
 20
150.7450353879068
 30
0.0
 11
1601.770183529998
 21
191.4999999999972
 31
0.0
  0
LINE
  5
45D
330
71
100
AcDbEntity
  8
0
100
AcDbLine
 10
1743.770183529998
 20
150.7450353879073
 30
0.0
 11
1743.770183529997
 21
191.4999999999976
 31
0.0
  0
LWPOLYLINE
  5
45E
330
71
100
AcDbEntity
  8
0
100
AcDbPolyline
 90
       41
 70
   128
 43
0.0
 10
1603.020183530036
 20
191.5000000000013
 10
1603.140151532596
 20
191.5023996800182
 10
1603.259927611943
 20
191.5095948810934
 10
1603.379320151903
 20
191.5215740924397
 10
1603.498138149879
 20
191.5383181498745
 10
1603.616191522421
 20
191.5598002664776
 10
1603.733291409317
 20
191.5859860754451
 10
1603.849250475728
 20
191.6168336850688
 10
1603.963883211885
 20
191.652293745754
 10
1604.077006229861
 20
191.6923095289675
 10
1604.188438556962
 20
191.7368170179925
 10
1604.298001925234
 20
191.7857450103413
 10
1604.40552105666
 20
191.8390152316635
 10
1604.510823943567
 20
191.8965424609684
 10
1604.613742123799
 20
191.9582346669609
 10
1604.714110950221
 20
192.0239931552721
 10
1604.811769854123
 20
192.0937127263484
 10
1604.906562602091
 20
192.1672818437484
 10
1604.99833754595
 20
192.2445828125787
 10
1605.086947865367
 20
192.3254919677784
 10
1605.172251802734
 20
192.4098798719596
 10
1605.254112889948
 20
192.4976115224773
 10
1605.332400166733
 20
192.5885465674055
 10
1605.406988390145
 20
192.6825395300709
 10
1605.477758234939
 20
192.7794400417838
 10
1605.54459648446
 20
192.8790930823967
 10
1605.607396211766
 20
192.981339228303
 10
1605.666056950691
 20
193.08601490748
 10
1605.720484856566
 20
193.192952661171
 10
1605.770592856351
 20
193.3019814117824
 10
1605.816300787938
 20
193.4129267365712
 10
1605.857535528384
 20
193.5256111466849
 10
1605.894231110904
 20
193.6398543711054
 10
1605.926328830391
 20
193.755473645044
 10
1605.953777337342
 20
193.8722840023269
 10
1605.976532720001
 20
193.9900985713005
 10
1605.994558574611
 20
194.1087288737867
 10
1606.007826063649
 20
194.2279851266082
 10
1606.016313961963
 20
194.3476765452005
 10
1606.020008690726
 20
194.4676116488263
 10
1606.020183530036
 20
194.5000000000013
  0
LWPOLYLINE
  5
45F
330
71
100
AcDbEntity
  8
0
100
AcDbPolyline
 90
       41
 70
   128
 43
0.0
 10
1739.520183530036
 20
194.4999999999992
 10
1739.522583210053
 20
194.3800319974394
 10
1739.529778411128
 20
194.2602559180919
 10
1739.541757622474
 20
194.1408633781327
 10
1739.558501679909
 20
194.0220453801566
 10
1739.579983796512
 20
193.9039920076141
 10
1739.60616960548
 20
193.7868921207179
 10
1739.637017215104
 20
193.6709330543071
 10
1739.672477275789
 20
193.5563003181508
 10
1739.712493059002
 20
193.4431773001741
 10
1739.757000548027
 20
193.3317449730734
 10
1739.805928540376
 20
193.2221816048014
 10
1739.859198761698
 20
193.1146624733749
 10
1739.916725991003
 20
193.0093595864682
 10
1739.978418196996
 20
192.9064414062366
 10
1740.044176685307
 20
192.8060725798142
 10
1740.113896256383
 20
192.7084136759123
 10
1740.187465373783
 20
192.6136209279439
 10
1740.264766342613
 20
192.5218459840849
 10
1740.345675497813
 20
192.4332356646677
 10
1740.430063401995
 20
192.3479317273009
 10
1740.517795052512
 20
192.2660706400868
 10
1740.60873009744
 20
192.1877833633025
 10
1740.702723060106
 20
192.1131951398901
 10
1740.799623571819
 20
192.0424252950961
 10
1740.899276612432
 20
191.9755870455756
 10
1741.001522758338
 20
191.912787318269
 10
1741.106198437515
 20
191.8541265793446
 10
1741.213136191206
 20
191.7996986734697
 10
1741.322164941817
 20
191.7495906736841
 10
1741.433110266606
 20
191.7038827420977
 10
1741.54579467672
 20
191.6626480016505
 10
1741.66003790114
 20
191.6259524191318
 10
1741.775657175079
 20
191.5938546996445
 10
1741.892467532362
 20
191.5664061926931
 10
1742.010282101335
 20
191.5436508100339
 10
1742.128912403822
 20
191.5256249554242
 10
1742.248168656643
 20
191.5123574663864
 10
1742.367860075235
 20
191.5038695680726
 10
1742.487795178861
 20
191.5001748393095
 10
1742.520183530036
 20
191.4999999999994
  0
LINE
  5
460
330
71
100
AcDbEntity
  8
0
100
AcDbLine
 10
1606.020183530036
 20
204.1250000000012
 30
0.0
 11
1606.020183530036
 21
194.5000000000013
 31
0.0
  0
LINE
  5
461
330
71
100
AcDbEntity
  8
0
100
AcDbLine
 10
1739.520183530036
 20
194.4999999999992
 30
0.0
 11
1739.520183530036
 21
204.1249999999994
 31
0.0
  0
LINE
  5
462
330
71
100
AcDbEntity
  8
0
100
AcDbLine
 10
1604.520183530036
 20
204.3750000000013
 30
0.0
 11
1604.520183530036
 21
204.1250000000012
 31
0.0
  0
LINE
  5
463
330
71
100
AcDbEntity
  8
0
100
AcDbLine
 10
1741.020183530036
 20
204.1249999999994
 30
0.0
 11
1741.020183530036
 21
204.3749999999993
 31
0.0
  0
LINE
  5
464
330
71
100
AcDbEntity
  8
0
100
AcDbLine
 10
1669.770183530036
 20
215.5000000000004
 30
0.0
 11
1604.520183530036
 21
204.3750000000013
 31
0.0
  0
LINE
  5
465
330
71
100
AcDbEntity
  8
0
100
AcDbLine
 10
1741.020183530036
 20
204.3749999999993
 30
0.0
 11
1675.770183530036
 21
215.5000000000002
 31
0.0
  0
LINE
  5
466
330
71
100
AcDbEntity
  8
0
100
AcDbLine
 10
1672.770183530037
 20
204.125
 30
0.0
 11
1604.581679086567
 21
204.1250000000009
 31
0.0
  0
LINE
  5
467
330
71
100
AcDbEntity
  8
0
100
AcDbLine
 10
1740.958687973506
 20
204.124999999999
 30
0.0
 11
1672.770183530037
 21
204.125
 31
0.0
  0
LINE
  5
468
330
71
100
AcDbEntity
  8
0
100
AcDbLine
 10
1672.770183530037
 20
204.375
 30
0.0
 11
1604.581679086567
 21
204.3750000000009
 31
0.0
  0
LINE
  5
469
330
71
100
AcDbEntity
  8
0
100
AcDbLine
 10
1740.958687973506
 20
204.3749999999991
 30
0.0
 11
1672.770183530037
 21
204.375
 31
0.0
  0
LINE
  5
46A
330
71
100
AcDbEntity
  8
0
100
AcDbLine
 10
1672.770183530037
 20
215.5
 30
0.0
 11
1669.770183530037
 21
215.5000000000001
 31
0.0
  0
LINE
  5
46B
330
71
100
AcDbEntity
  8
0
100
AcDbLine
 10
1675.770183530036
 20
215.5
 30
0.0
 11
1672.770183530037
 21
215.5
 31
0.0
  0
LINE
  5
46C
330
71
100
AcDbEntity
  8
0
100
AcDbLine
 10
1601.770183530031
 20
150.5
 30
0.0
 11
1743.770183530031
 21
150.5
 31
0.0
  0
LINE
  5
46D
330
71
100
AcDbEntity
  8
0
100
AcDbLine
 10
1743.770183530031
 20
69.625
 30
0.0
 11
1601.770183530031
 21
69.625
 31
0.0
  0
LINE
  5
46E
330
71
100
AcDbEntity
  8
0
100
AcDbLine
 10
1601.770183530031
 20
69.625
 30
0.0
 11
1601.770183530031
 21
150.5
 31
0.0
  0
LINE
  5
46F
330
71
100
AcDbEntity
  8
0
100
AcDbLine
 10
1743.770183530031
 20
69.625
 30
0.0
 11
1743.770183530031
 21
150.5
 31
0.0
  0
LINE
  5
473
330
71
100
AcDbEntity
  8
0
100
AcDbLine
 10
1601.770183530032
 20
69.625
 30
0.0
 11
1743.770183530032
 21
69.625
 31
0.0
  0
LINE
  5
474
330
71
100
AcDbEntity
  8
0
100
AcDbLine
 10
1743.770183530032
 20
0.0
 30
0.0
 11
1601.770183530032
 21
0.0
 31
0.0
  0
LINE
  5
475
330
71
100
AcDbEntity
  8
0
100
AcDbLine
 10
1601.770183530032
 20
63.75000000000087
 30
0.0
 11
1601.770183530032
 21
69.625
 31
0.0
  0
LINE
  5
476
102
{ACAD_REACTORS
330
8FE
102
}
330
71
100
AcDbEntity
  8
0
100
AcDbLine
 10
1601.770183530032
 20
63.75000000000087
 30
0.0
 11
1743.770183530032
 21
63.75000000000087
 31
0.0
  0
LINE
  5
477
102
{ACAD_REACTORS
330
8FE
102
}
330
71
100
AcDbEntity
  8
0
100
AcDbLine
 10
1743.770183530032
 20
21.75000000000045
 30
0.0
 11
1601.770183530032
 21
21.75000000000045
 31
0.0
  0
LINE
  5
478
330
71
100
AcDbEntity
  8
0
100
AcDbLine
 10
1601.770183530032
 20
0.0
 30
0.0
 11
1601.770183530032
 21
21.75000000000045
 31
0.0
  0
LINE
  5
479
330
71
100
AcDbEntity
  8
0
100
AcDbLine
 10
1743.770183530032
 20
63.75000000000087
 30
0.0
 11
1743.770183530032
 21
69.625
 31
0.0
  0
LINE
  5
47A
330
71
100
AcDbEntity
  8
0
100
AcDbLine
 10
1743.770183530032
 20
0.0
 30
0.0
 11
1743.770183530032
 21
21.75000000000045
 31
0.0
  0
LINE
  5
47B
330
71
100
AcDbEntity
  8
0
100
AcDbLine
 10
1742.770183530032
 20
63.75000000000085
 30
0.0
 11
1742.770183530032
 21
21.75000000000042
 31
0.0
  0
LINE
  5
47C
330
71
100
AcDbEntity
  8
0
100
AcDbLine
 10
1741.395183530032
 20
63.75000000000085
 30
0.0
 11
1741.395183530032
 21
21.75000000000043
 31
0.0
  0
LINE
  5
47D
102
{ACAD_REACTORS
330
8FE
102
}
330
71
100
AcDbEntity
  8
0
100
AcDbLine
 10
1738.020183530032
 20
63.75000000000087
 30
0.0
 11
1738.020183530032
 21
21.75000000000043
 31
0.0
  0
LINE
  5
47E
102
{ACAD_REACTORS
330
8FE
102
}
330
71
100
AcDbEntity
  8
0
100
AcDbLine
 10
1674.520183530033
 20
63.75000000000087
 30
0.0
 11
1674.520183530033
 21
21.75000000000043
 31
0.0
  0
LINE
  5
47F
102
{ACAD_REACTORS
330
8FE
102
}
330
71
100
AcDbEntity
  8
0
100
AcDbLine
 10
1671.020183530033
 20
21.75000000000043
 30
0.0
 11
1671.020183530033
 21
63.75000000000087
 31
0.0
  0
LINE
  5
480
102
{ACAD_REACTORS
330
8FE
102
}
330
71
100
AcDbEntity
  8
0
100
AcDbLine
 10
1607.520183530033
 20
63.75000000000087
 30
0.0
 11
1607.520183530033
 21
21.75000000000043
 31
0.0
  0
LINE
  5
481
330
71
100
AcDbEntity
  8
0
100
AcDbLine
 10
1604.145183530032
 20
63.75000000000085
 30
0.0
 11
1604.145183530032
 21
21.75000000000043
 31
0.0
  0
LINE
  5
482
330
71
100
AcDbEntity
  8
0
100
AcDbLine
 10
1602.770183530032
 20
63.75000000000085
 30
0.0
 11
1602.770183530032
 21
21.75000000000042
 31
0.0
  0
LINE
  5
483
330
71
100
AcDbEntity
  8
0
100
AcDbLine
 10
2119.538332934478
 20
143.3750000000034
 30
0.0
 11
2114.538332934478
 21
143.3750000000034
 31
0.0
  0
LINE
  5
484
330
71
100
AcDbEntity
  8
0
100
AcDbLine
 10
2114.538332934478
 20
138.3750000000033
 30
0.0
 11
2119.538332934478
 21
138.3750000000033
 31
0.0
  0
LWPOLYLINE
  5
485
330
71
100
AcDbEntity
  8
0
100
AcDbPolyline
 90
       41
 70
   128
 43
0.0
 10
2126.038332934479
 20
136.875000000003
 10
2126.033133627776
 20
137.1349306722162
 10
2126.017544025446
 20
137.3944455108026
 10
2125.991589067529
 20
137.6531293473809
 10
2125.955310276421
 20
137.9105683429957
 10
2125.908765690447
 20
138.1663506501711
 10
2125.852029771017
 20
138.4200670717795
 10
2125.785193283499
 20
138.6713117156697
 10
2125.708363152015
 20
138.9196826440078
 10
2125.621662288386
 20
139.1647825162912
 10
2125.525229395497
 20
139.4062192250092
 10
2125.419218745409
 20
139.6436065229321
 10
2125.303799932544
 20
139.8765646410228
 10
2125.179157602383
 20
140.1047208959876
 10
2125.045491156066
 20
140.327710286489
 10
2124.903014431392
 20
140.5451760770709
 10
2124.751955360727
 20
140.7567703688588
 10
2124.59255560636
 20
140.9621546561232
 10
2124.425070173895
 20
141.1610003678179
 10
2124.249767004295
 20
141.3529893932221
 10
2124.066926545235
 20
141.5378145908502
 10
2123.876841302447
 20
141.7151802798137
 10
2123.67981537177
 20
141.8848027128468
 10
2123.476163952661
 20
142.0464105302398
 10
2123.26621284395
 20
142.1997451939599
 10
2123.050297922622
 20
142.3445614012548
 10
2122.828764606492
 20
142.4806274770851
 10
2122.601967301608
 20
142.6077257447555
 10
2122.370268835277
 20
142.7256528741507
 10
2122.134039875619
 20
142.8342202070199
 10
2121.893658338577
 20
142.9332540587903
 10
2121.649508783331
 20
143.0225959964254
 10
2121.401981797086
 20
143.1021030918833
 10
2121.15147337022
 20
143.1716481507722
 10
2120.898384262773
 20
143.2311199158329
 10
2120.643119363331
 20
143.2804232449283
 10
2120.386087041276
 20
143.3194792632494
 10
2120.127698493496
 20
143.348225489498
 10
2119.868367086547
 20
143.3666159358448
 10
2119.608507695357
 20
143.3746211814982
 10
2119.538332934478
 20
143.3750000000034
  0
LWPOLYLINE
  5
486
330
71
100
AcDbEntity
  8
0
100
AcDbPolyline
 90
       41
 70
   128
 43
0.0
 10
2119.538332934478
 20
138.3750000000033
 10
2119.598316935758
 20
138.3738001599948
 10
2119.658204975432
 20
138.3702025594572
 10
2119.717901245412
 20
138.3642129537842
 10
2119.7773102444
 20
138.3558409250668
 10
2119.836336930671
 20
138.3450998667653
 10
2119.89488687412
 20
138.3320069622815
 10
2119.952866407325
 20
138.3165831574694
 10
2120.010182775402
 20
138.2988531271269
 10
2120.066744284391
 20
138.2788452355202
 10
2120.122460447942
 20
138.2565914910077
 10
2120.177242132077
 20
138.2321274948334
 10
2120.231001697792
 20
138.2054923841723
 10
2120.283653141244
 20
138.1767287695199
 10
2120.33511223136
 20
138.1458826665235
 10
2120.385296644571
 20
138.1130034223679
 10
2120.434126096522
 20
138.0781436368297
 10
2120.481522470507
 20
138.0413590781297
 10
2120.527409942436
 20
138.0027085937147
 10
2120.571715102145
 20
137.9622540161147
 10
2120.614367070828
 20
137.9200600640239
 10
2120.655297614435
 20
137.8761942387653
 10
2120.694441252827
 20
137.8307267163011
 10
2120.731735364533
 20
137.7837302349685
 10
2120.76712028693
 20
137.7352799791117
 10
2120.800539411691
 20
137.6854534588055
 10
2120.831939275344
 20
137.6343303858523
 10
2120.861269644807
 20
137.5819925462637
 10
2120.888483597744
 20
137.5285236694181
 10
2120.913537597636
 20
137.4740092941125
 10
2120.93639156343
 20
137.418536631718
 10
2120.957008933653
 20
137.3621944266612
 10
2120.975356724913
 20
137.305072814451
 10
2120.991405584657
 20
137.2472631774815
 10
2121.005129838132
 20
137.1888579988402
 10
2121.016507529462
 20
137.1299507143533
 10
2121.025520456766
 20
137.0706355631102
 10
2121.032154201285
 20
137.0110074366994
 10
2121.036398150442
 20
136.9511617274033
 10
2121.038245514824
 20
136.8911941755904
 10
2121.038332934479
 20
136.8750000000028
  0
LINE
  5
487
330
71
100
AcDbEntity
  8
0
100
AcDbLine
 10
2126.038332934479
 20
128.875000000003
 30
0.0
 11
2126.038332934479
 21
136.8750000000028
 31
0.0
  0
LINE
  5
488
330
71
100
AcDbEntity
  8
0
100
AcDbLine
 10
2121.038332934479
 20
136.8750000000028
 30
0.0
 11
2121.038332934479
 21
134.2500000000001
 31
0.0
  0
LINE
  5
489
330
71
100
AcDbEntity
  8
0
100
AcDbLine
 10
2121.038332934479
 20
130.2500000000002
 30
0.0
 11
2121.038332934479
 21
128.875000000003
 31
0.0
  0
LINE
  5
48B
330
71
100
AcDbEntity
  8
0
100
AcDbLine
 10
2114.53833293448
 20
12.24999999999824
 30
0.0
 11
2121.038332934478
 21
12.24999999999824
 31
0.0
  0
LINE
  5
48C
330
71
100
AcDbEntity
  8
0
100
AcDbLine
 10
2121.038332934478
 20
16.25000000000022
 30
0.0
 11
2114.53833293448
 21
16.25000000000022
 31
0.0
  0
LINE
  5
48D
330
71
100
AcDbEntity
  8
0
100
AcDbLine
 10
2126.038332934478
 20
9.849999999998198
 30
0.0
 11
2127.788332934478
 21
9.849999999998198
 31
0.0
  0
LINE
  5
48E
330
71
100
AcDbEntity
  8
0
100
AcDbLine
 10
2127.788332934478
 20
18.65000000000026
 30
0.0
 11
2126.038332934478
 21
18.65000000000026
 31
0.0
  0
LWPOLYLINE
  5
48F
330
71
100
AcDbEntity
  8
0
100
AcDbPolyline
 90
       80
 70
   128
 43
0.0
 10
2127.788332934478
 20
18.9000000000002
 10
2127.788332934478
 20
18.89628049597382
 10
2127.788332934478
 20
18.88512793430754
 10
2127.788332934478
 20
18.86656015672059
 10
2127.788332934478
 20
18.84060686769709
 10
2127.788332934478
 20
18.80730958696199
 10
2127.788332934478
 20
18.76672158306211
 10
2127.788332934478
 20
18.7189077881452
 10
2127.788332934478
 20
18.66394469408356
 10
2127.788332934478
 20
18.60192023010267
 10
2127.788332934478
 20
18.5329336221136
 10
2127.788332934478
 20
18.45709523397289
 10
2127.788332934478
 20
18.3745263909239
 10
2127.788332934478
 20
18.28535918550113
 10
2127.788332934478
 20
18.18973626621254
 10
2127.788332934478
 20
18.08781060933
 10
2127.788332934478
 20
17.97974527416198
 10
2127.788332934478
 20
17.8657131421919
 10
2127.788332934478
 20
17.74589664050517
 10
2127.788332934478
 20
17.62048744994524
 10
2127.788332934478
 20
17.48968619846436
 10
2127.788332934478
 20
17.35370214016199
 10
2127.788332934478
 20
17.21275282052329
 10
2127.788332934478
 20
17.06706372839192
 10
2127.788332934478
 20
16.91686793523672
 10
2127.788332934478
 20
16.76240572228669
 10
2127.788332934478
 20
16.60392419613236
 10
2127.788332934478
 20
16.44167689340758
 10
2127.788332934478
 20
16.2759233751866
 10
2127.788332934478
 20
16.10692881173878
 10
2127.788332934478
 20
15.93496355831632
 10
2127.788332934478
 20
15.76030272263994
 10
2127.788332934478
 20
15.58322572478823
 10
2127.788332934478
 20
15.40401585018293
 10
2127.788332934478
 20
15.22295979639454
 10
2127.788332934478
 20
15.04034721448556
 10
2127.788332934478
 20
14.85647024563178
 10
2127.788332934478
 20
14.67162305375842
 10
2127.788332934478
 20
14.48610135494038
 10
2127.788332934478
 20
14.30020194432012
 10
2127.788332934478
 20
14.11422222129834
 10
2127.788332934478
 20
13.92845971375771
 10
2127.788332934478
 20
13.74321160208387
 10
2127.788332934478
 20
13.55877424373716
 10
2127.788332934478
 20
13.37544269914713
 10
2127.788332934478
 20
13.19351025967625
 10
2127.788332934478
 20
13.01326797841722
 10
2127.788332934478
 20
12.83500420457073
 10
2127.788332934478
 20
12.65900412214728
 10
2127.788332934478
 20
12.48554929373398
 10
2127.788332934478
 20
12.31491721005466
 10
2127.788332934478
 20
12.14738084604357
 10
2127.788332934478
 20
11.98320822414387
 10
2127.788332934478
 20
11.8226619855294
 10
2127.788332934478
 20
11.66599896993346
 10
2127.788332934478
 20
11.51346980476148
 10
2127.788332934478
 20
11.36531850413973
 10
2127.788332934478
 20
11.22178207854551
 10
2127.788332934478
 20
11.08309015564043
 10
2127.788332934478
 20
10.94946461291465
 10
2127.788332934478
 20
10.8211192227319
 10
2127.788332934478
 20
10.69825931033688
 10
2127.788332934478
 20
10.58108142538117
 10
2127.788332934478
 20
10.46977302748393
 10
2127.788332934478
 20
10.36451218633738
 10
2127.788332934478
 20
10.26546729683286
 10
2127.788332934478
 20
10.1727968096651
 10
2127.788332934478
 20
10.08664897784484
 10
2127.788332934478
 20
10.00716161952579
 10
2127.788332934478
 20
9.934461897524952
 10
2127.788332934478
 20
9.868666115889141
 10
2127.788332934478
 20
9.809879533833107
 10
2127.788332934478
 20
9.758196197347782
 10
2127.788332934478
 20
9.71369878874634
 10
2127.788332934478
 20
9.676458494390193
 10
2127.788332934478
 20
9.646534890806206
 10
2127.788332934478
 20
9.623975849376732
 10
2127.788332934478
 20
9.608817459755924
 10
2127.788332934478
 20
9.601083972133263
 10
2127.788332934478
 20
9.599999999998088
  0
LWPOLYLINE
  5
490
330
71
100
AcDbEntity
  8
0
100
AcDbPolyline
 90
       41
 70
   128
 43
0.0
 10
2127.788332934478
 20
18.9000000000002
 10
2127.788932854483
 20
18.92999200064019
 10
2127.790731654751
 20
18.95993602047707
 10
2127.793726457588
 20
18.98978415546696
 10
2127.797912471947
 20
19.01948865496086
 10
2127.803283001097
 20
19.04900199809657
 10
2127.809829453339
 20
19.0782769698207
 10
2127.817541355745
 20
19.10726673642341
 10
2127.826406370916
 20
19.13592492046234
 10
2127.83641031672
 20
19.16420567495663
 10
2127.847537188976
 20
19.19206375673178
 10
2127.859769187063
 20
19.21945459879987
 10
2127.873086742394
 20
19.24633438165636
 10
2127.88746854972
 20
19.27266010338325
 10
2127.902891601219
 20
19.29838964844094
 10
2127.919331223296
 20
19.32348185504645
 10
2127.936761116065
 20
19.34789658102214
 10
2127.955153395415
 20
19.37159476801423
 10
2127.974478637623
 20
19.39453850397887
 10
2127.994705926423
 20
19.41669108383325
 10
2128.015802902468
 20
19.43801706817504
 10
2128.037735815098
 20
19.45848233997827
 10
2128.06046957633
 20
19.47805415917446
 10
2128.083967816996
 20
19.49670121502754
 10
2128.108192944925
 20
19.51439367622595
 10
2128.133106205078
 20
19.53110323860636
 10
2128.158667741554
 20
19.54680317043272
 10
2128.184836661348
 20
19.56146835516403
 10
2128.211571099771
 20
19.57507533163266
 10
2128.238828287424
 20
19.58760233157903
 10
2128.266564618621
 20
19.59902931447567
 10
2128.29473572115
 20
19.60933799958735
 10
2128.323296527254
 20
19.61851189521723
 10
2128.352201345739
 20
19.62653632508892
 10
2128.38140393506
 20
19.63339845182673
 10
2128.410857577303
 20
19.63908729749169
 10
2128.440515152925
 20
19.64359376114407
 10
2128.47032921613
 20
19.64691063340342
 10
2128.500252070778
 20
19.64903260798189
 10
2128.530235846685
 20
19.64995629017272
 10
2128.538332934478
 20
19.6500000000002
  0
LWPOLYLINE
  5
491
330
71
100
AcDbEntity
  8
0
100
AcDbPolyline
 90
       41
 70
   128
 43
0.0
 10
2128.538332934478
 20
8.849999999998258
 10
2128.508340933838
 20
8.850599920002535
 10
2128.478396914001
 20
8.852398720271422
 10
2128.448548779012
 20
8.855393523107863
 10
2128.418844279518
 20
8.859579537466514
 10
2128.389330936382
 20
8.86495006661738
 10
2128.360055964658
 20
8.871496518859201
 10
2128.331066198055
 20
8.879208421265216
 10
2128.302408014016
 20
8.888073436436568
 10
2128.274127259522
 20
8.898077382239819
 10
2128.246269177747
 20
8.909204254495987
 10
2128.218878335679
 20
8.921436252583132
 10
2128.191998552822
 20
8.934753807913693
 10
2128.165672831096
 20
8.949135615240091
 10
2128.139943286038
 20
8.964558666738296
 10
2128.114851079432
 20
8.980998288815893
 10
2128.090436353457
 20
8.998428181585095
 10
2128.066738166464
 20
9.016820460935091
 10
2128.043794430499
 20
9.036145703142606
 10
2128.021641850645
 20
9.056372991942676
 10
2128.000315866303
 20
9.077469967987893
 10
2127.9798505945
 20
9.099402880617443
 10
2127.960278775304
 20
9.122136641849404
 10
2127.941631719451
 20
9.145634882515707
 10
2127.923939258253
 20
9.169860010443812
 10
2127.907229695872
 20
9.194773270597123
 10
2127.891529764045
 20
9.220334807073641
 10
2127.876864579315
 20
9.246503726867898
 10
2127.863257602847
 20
9.273238165290649
 10
2127.8507306029
 20
9.300495352943583
 10
2127.839303620003
 20
9.328231684140687
 10
2127.828994934891
 20
9.356402786669091
 10
2127.819821039262
 20
9.384963592774337
 10
2127.81179660939
 20
9.413868411259043
 10
2127.804934482652
 20
9.443071000579662
 10
2127.799245636987
 20
9.472524642823199
 10
2127.794739173335
 20
9.502182218444655
 10
2127.791422301076
 20
9.531996281650091
 10
2127.789300326497
 20
9.561919136298113
 10
2127.788376644306
 20
9.591902912204655
 10
2127.788332934478
 20
9.599999999998088
  0
LWPOLYLINE
  5
492
330
71
100
AcDbEntity
  8
0
100
AcDbPolyline
 90
        4
 70
   128
 43
0.0
 10
2127.788332934478
 20
9.599999999998088
 10
2127.788332934478
 20
9.603719504024807
 10
2127.788332934478
 20
9.614872065691086
 10
2127.788332934478
 20
9.622553189619905
  0
LWPOLYLINE
  5
493
330
71
100
AcDbEntity
  8
0
100
AcDbPolyline
 90
        4
 70
   128
 43
0.0
 10
2127.788332934478
 20
18.87805018983056
 10
2127.788332934478
 20
18.8911825402427
 10
2127.788332934478
 20
18.89891602786536
 10
2127.788332934478
 20
18.9000000000002
  0
LINE
  5
494
330
71
100
AcDbEntity
  8
0
100
AcDbLine
 10
2128.538332934478
 20
8.849999999998258
 30
0.0
 11
2146.288332934478
 21
8.849999999998258
 31
0.0
  0
LINE
  5
495
330
71
100
AcDbEntity
  8
0
100
AcDbLine
 10
2146.288332934478
 20
19.6500000000002
 30
0.0
 11
2128.538332934478
 21
19.6500000000002
 31
0.0
  0
LWPOLYLINE
  5
496
330
71
100
AcDbEntity
  8
0
100
AcDbPolyline
 90
       80
 70
   128
 43
0.0
 10
2147.788332934478
 20
10.34999999999809
 10
2147.788332934478
 20
10.35311958402053
 10
2147.788332934478
 20
10.36247334541809
 10
2147.788332934478
 20
10.37804632016826
 10
2147.788332934478
 20
10.39981359483346
 10
2147.788332934478
 20
10.42774034641752
 10
2147.788332934478
 20
10.4617818980754
 10
2147.788332934478
 20
10.5018837905863
 10
2147.788332934478
 20
10.54798186947675
 10
2147.788332934478
 20
10.60000238765439
 10
2147.788332934478
 20
10.65786212338696
 10
2147.788332934478
 20
10.72146851344052
 10
2147.788332934478
 20
10.79071980115912
 10
2147.788332934478
 20
10.86550519925549
 10
2147.788332934478
 20
10.94570506704604
 10
2147.788332934478
 20
11.03119110185082
 10
2147.788332934478
 20
11.12182654424981
 10
2147.788332934478
 20
11.21746639686989
 10
2147.788332934478
 20
11.3179576563491
 10
2147.788332934478
 20
11.42313955810897
 10
2147.788332934478
 20
11.5328438335448
 10
2147.788332934478
 20
11.64689497921745
 10
2147.788332934478
 20
11.76511053762419
 10
2147.788332934478
 20
11.88730138908925
 10
2147.788332934478
 20
12.01327205431619
 10
2147.788332934478
 20
12.14282100711307
 10
2147.788332934478
 20
12.27574099679088
 10
2147.788332934478
 20
12.41181937972123
 10
2147.788332934478
 20
12.55083845951963
 10
2147.788332934478
 20
12.69257583531435
 10
2147.788332934478
 20
12.83680475754005
 10
2147.788332934478
 20
12.98329449068768
 10
2147.788332934478
 20
13.13181068243432
 10
2147.788332934478
 20
13.28211573855492
 10
2147.788332934478
 20
13.43396920302268
 10
2147.788332934478
 20
13.58712814268813
 10
2147.788332934478
 20
13.74134753592045
 10
2147.788332934478
 20
13.89638066458837
 10
2147.788332934478
 20
14.05197950875839
 10
2147.788332934478
 20
14.20789514347194
 10
2147.788332934478
 20
14.36387813697433
 10
2147.788332934478
 20
14.51967894975024
 10
2147.788332934478
 20
14.67504833373487
 10
2147.788332934478
 20
14.82973773105771
 10
2147.788332934478
 20
14.98349967168172
 10
2147.788332934478
 20
15.13608816930246
 10
2147.788332934478
 20
15.28725911487464
 10
2147.788332934478
 20
15.43677066713286
 10
2147.788332934478
 20
15.58438363948812
 10
2147.788332934478
 20
15.7298618826735
 10
2147.788332934478
 20
15.87297266253364
 10
2147.788332934478
 20
16.01348703234924
 10
2147.788332934478
 20
16.15118019910386
 10
2147.788332934478
 20
16.28583188310318
 10
2147.788332934478
 20
16.4172266703772
 10
2147.788332934478
 20
16.54515435729575
 10
2147.788332934478
 20
16.66941028684942
 10
2147.788332934478
 20
16.78979567605739
 10
2147.788332934478
 20
16.90611793397772
 10
2147.788332934478
 20
17.01819096981222
 10
2147.788332934478
 20
17.12583549061082
 10
2147.788332934478
 20
17.22887928810348
 10
2147.788332934478
 20
17.32715751419522
 10
2147.788332934478
 20
17.42051294468978
 10
2147.788332934478
 20
17.50879623081277
 10
2147.788332934478
 20
17.59186613813915
 10
2147.788332934478
 20
17.66958977253801
 10
2147.788332934478
 20
17.7418427927742
 10
2147.788332934478
 20
17.80850960942893
 10
2147.788332934478
 20
17.8694835698165
 10
2147.788332934478
 20
17.924667128608
 10
2147.788332934478
 20
17.9739720038808
 10
2147.788332934478
 20
18.01731931835229
 10
2147.788332934478
 20
18.05463972556634
 10
2147.788332934478
 20
18.08587352083293
 10
2147.788332934478
 20
18.11097073674204
 10
2147.788332934478
 20
18.12989122310216
 10
2147.788332934478
 20
18.14260471117131
 10
2147.788332934478
 20
18.14909086208086
 10
2147.788332934478
 20
18.1500000000002
  0
LWPOLYLINE
  5
497
330
71
100
AcDbEntity
  8
0
100
AcDbPolyline
 90
       41
 70
   128
 43
0.0
 10
2146.288332934478
 20
19.6500000000002
 10
2146.348316935759
 20
19.64880015999182
 10
2146.408204975432
 20
19.64520255945421
 10
2146.467901245412
 20
19.63921295378099
 10
2146.527310244399
 20
19.63084092506369
 10
2146.586336930671
 20
19.6200998667623
 10
2146.644886874119
 20
19.60700696227831
 10
2146.702866407325
 20
19.59158315746645
 10
2146.760182775404
 20
19.57385312712392
 10
2146.816744284391
 20
19.55384523551708
 10
2146.872460447941
 20
19.53159149100474
 10
2146.927242132078
 20
19.50712749483028
 10
2146.98100169779
 20
19.48049238416916
 10
2147.033653141244
 20
19.4517287695167
 10
2147.085112231359
 20
19.42088266652046
 10
2147.135296644571
 20
19.38800342236493
 10
2147.184126096522
 20
19.35314363682669
 10
2147.231522470506
 20
19.31635907812653
 10
2147.277409942436
 20
19.27770859371167
 10
2147.321715102144
 20
19.2372540161117
 10
2147.364367070828
 20
19.19506006402093
 10
2147.405297614435
 20
19.15119423876234
 10
2147.444441252828
 20
19.10572671629807
 10
2147.481735364533
 20
19.05873023496548
 10
2147.51712028693
 20
19.0102799791091
 10
2147.550539411691
 20
18.96045345880247
 10
2147.581939275343
 20
18.90933038584944
 10
2147.611269644806
 20
18.85699254626092
 10
2147.638483597743
 20
18.80352366941542
 10
2147.663537597637
 20
18.74900929410972
 10
2147.686391563429
 20
18.69353663171534
 10
2147.707008933653
 20
18.63719442665836
 10
2147.725356724912
 20
18.58007281444821
 10
2147.741405584656
 20
18.52226317747897
 10
2147.755129838131
 20
18.46385799883739
 10
2147.766507529461
 20
18.40495071435066
 10
2147.775520456766
 20
18.3456355631074
 10
2147.782154201285
 20
18.28600743669687
 10
2147.786398150442
 20
18.22616172740066
 10
2147.788245514823
 20
18.16619417558774
 10
2147.788332934478
 20
18.1500000000002
  0
LWPOLYLINE
  5
498
330
71
100
AcDbEntity
  8
0
100
AcDbPolyline
 90
       41
 70
   128
 43
0.0
 10
2147.788332934478
 20
10.34999999999809
 10
2147.78713309447
 20
10.29001599871827
 10
2147.783535493932
 20
10.23012795904452
 10
2147.777545888259
 20
10.17043168906491
 10
2147.769173859542
 20
10.11102269007676
 10
2147.758432801241
 20
10.05199600380552
 10
2147.745339896756
 20
9.993446060357424
 10
2147.729916091944
 20
9.935466527152014
 10
2147.712186061601
 20
9.87815015907415
 10
2147.692178169995
 20
9.821588650085571
 10
2147.669924425484
 20
9.765872486535267
 10
2147.645460429308
 20
9.711090802399267
 10
2147.618825318647
 20
9.657331236686102
 10
2147.590061703995
 20
9.604679793232831
 10
2147.559215600998
 20
9.553220703116775
 10
2147.526336356843
 20
9.503036289905592
 10
2147.491476571305
 20
9.454206837954695
 10
2147.454692012605
 20
9.406810463970712
 10
2147.41604152819
 20
9.36092299204091
 10
2147.37558695059
 20
9.316617832332322
 10
2147.333392998499
 20
9.273965863649094
 10
2147.289527173239
 20
9.233035320041947
 10
2147.244059650776
 20
9.193891681649914
 10
2147.197063169444
 20
9.156597569943754
 10
2147.148612913587
 20
9.121212647546766
 10
2147.09878639328
 20
9.087793522786451
 10
2147.047663320328
 20
9.056393659133386
 10
2146.995325480739
 20
9.027063289670927
 10
2146.941856603893
 20
8.999849336733346
 10
2146.887342228588
 20
8.974795336840596
 10
2146.831869566193
 20
8.951941371047494
 10
2146.775527361137
 20
8.931324000823789
 10
2146.718405748926
 20
8.912976209564359
 10
2146.660596111957
 20
8.896927349820826
 10
2146.602190933315
 20
8.883203096345367
 10
2146.543283648829
 20
8.871825405015611
 10
2146.483968497585
 20
8.862812477710685
 10
2146.424340371175
 20
8.856178733191653
 10
2146.364494661879
 20
8.851934784034879
 10
2146.304527110066
 20
8.850087419653387
 10
2146.288332934478
 20
8.849999999998258
  0
LWPOLYLINE
  5
499
330
71
100
AcDbEntity
  8
0
100
AcDbPolyline
 90
        5
 70
   128
 43
0.0
 10
2147.788332934478
 20
18.1500000000002
 10
2147.788332934478
 20
18.1468804159781
 10
2147.788332934478
 20
18.13752665458054
 10
2147.788332934478
 20
18.12195367983036
 10
2147.788332934478
 20
18.11966692624723
  0
LWPOLYLINE
  5
49A
330
71
100
AcDbEntity
  8
0
100
AcDbPolyline
 90
        5
 70
   128
 43
0.0
 10
2147.788332934478
 20
10.38125048933659
 10
2147.788332934478
 20
10.3701087768963
 10
2147.788332934478
 20
10.35739528882714
 10
2147.788332934478
 20
10.35090913791793
 10
2147.788332934478
 20
10.34999999999809
  0
LWPOLYLINE
  5
49B
330
71
100
AcDbEntity
  8
0
100
AcDbPolyline
 90
       47
 70
   128
 43
0.0
 10
2121.038332934478
 20
15.55299794656446
 10
2121.038332934478
 20
15.43219846228334
 10
2121.038332934478
 20
15.21031435738388
 10
2121.038332934478
 20
14.98689395436832
 10
2121.038332934478
 20
14.76229467822156
 10
2121.038332934478
 20
14.5368758398734
 10
2121.038332934478
 20
14.31099806137825
 10
2121.038332934478
 20
14.0850226989973
 10
2121.038332934478
 20
13.85931126510451
 10
2121.038332934478
 20
13.63422484984516
 10
2121.038332934478
 20
13.41012354346776
 10
2121.038332934478
 20
13.1873658602567
 10
2121.038332934478
 20
12.96630816498589
 10
2121.038332934478
 20
12.74730410281148
 10
2121.038332934478
 20
12.53070403351461
 10
2121.038332934478
 20
12.31685447100045
 10
2121.038332934478
 20
12.10609752895044
 10
2121.038332934478
 20
11.89877037351254
 10
2121.038332934478
 20
11.69520468390828
 10
2121.038332934478
 20
11.49572612181555
 10
2121.038332934478
 20
11.3006538103811
 10
2121.038332934478
 20
11.11029982368967
 10
2121.038332934478
 20
10.92496868751323
 10
2121.038332934478
 20
10.74495689213455
 10
2121.038332934478
 20
10.57055241802584
 10
2121.038332934478
 20
10.40203427514143
 10
2121.038332934478
 20
10.23967205656117
 10
2121.038332934478
 20
10.08372550719946
 10
2121.038332934478
 20
9.934444108268335
 10
2121.038332934478
 20
9.792066678161175
 10
2121.038332934478
 20
9.656820990394122
 10
2121.038332934478
 20
9.528923409216183
 10
2121.038332934478
 20
9.408578543474446
 10
2121.038332934478
 20
9.295978919281363
 10
2121.038332934478
 20
9.191304672016027
 10
2121.038332934478
 20
9.094723258144879
 10
2121.038332934478
 20
9.006389187327043
 10
2121.038332934478
 20
8.926443775231915
 10
2121.038332934478
 20
8.855014917464982
 10
2121.038332934478
 20
8.792216884961531
 10
2121.038332934478
 20
8.738150141177182
 10
2121.038332934478
 20
8.692901181368254
 10
2121.038332934478
 20
8.656542394217693
 10
2121.038332934478
 20
8.629131946029527
 10
2121.038332934478
 20
8.610713687672896
 10
2121.038332934478
 20
8.601317084432363
 10
2121.038332934478
 20
8.600000000010592
  0
LWPOLYLINE
  5
49C
330
71
100
AcDbEntity
  8
0
100
AcDbPolyline
 90
       47
 70
   128
 43
0.0
 10
2126.038332934478
 20
8.600000000010592
 10
2126.038332934478
 20
8.604519397375947
 10
2126.038332934478
 20
8.618070359400631
 10
2126.038332934478
 20
8.640631207435996
 10
2126.038332934478
 20
8.672165848937932
 10
2126.038332934478
 20
8.71262383520718
 10
2126.038332934478
 20
8.761940442096202
 10
2126.038332934478
 20
8.820036773554132
 10
2126.038332934478
 20
8.886819887844067
 10
2126.038332934478
 20
8.962182946229402
 10
2126.038332934478
 20
9.046005383893428
 10
2126.038332934478
 20
9.138153102816712
 10
2126.038332934478
 20
9.238478686306219
 10
2126.038332934478
 20
9.346821634830288
 10
2126.038332934478
 20
9.463008622782977
 10
2126.038332934478
 20
9.586853775768814
 10
2126.038332934478
 20
9.718158967962036
 10
2126.038332934478
 20
9.856714139065216
 10
2126.038332934478
 20
10.00229763036179
 10
2126.038332934478
 20
10.15467653932131
 10
2126.038332934478
 20
10.31360709219558
 10
2126.038332934478
 20
10.47883503400328
 10
2126.038332934478
 20
10.65009603528437
 10
2126.038332934478
 20
10.82711611497046
 10
2126.038332934478
 20
11.00961207869647
 10
2126.038332934478
 20
11.19729197185028
 10
2126.038332934478
 20
11.38985554663975
 10
2126.038332934478
 20
11.58699474242286
 10
2126.038332934478
 20
11.78839417854072
 10
2126.038332934478
 20
11.99373165885828
 10
2126.038332934478
 20
12.20267868721004
 10
2126.038332934478
 20
12.41490099292389
 10
2126.038332934478
 20
12.63005906558197
 10
2126.038332934478
 20
12.8478086981662
 10
2126.038332934478
 20
13.06780153771512
 10
2126.038332934478
 20
13.28968564261475
 10
2126.038332934478
 20
13.51310604563013
 10
2126.038332934478
 20
13.73770532177707
 10
2126.038332934478
 20
13.96312416012523
 10
2126.038332934478
 20
14.1890019386202
 10
2126.038332934478
 20
14.41497730100133
 10
2126.038332934478
 20
14.64068873489395
 10
2126.038332934478
 20
14.86577515015346
 10
2126.038332934478
 20
15.08987645653087
 10
2126.038332934478
 20
15.3126341397421
 10
2126.038332934478
 20
15.53369183501274
 10
2126.038332934478
 20
15.55604223190317
  0
LINE
  5
49D
330
71
100
AcDbEntity
  8
0
100
AcDbLine
 10
2126.038332934478
 20
19.89562789803801
 30
0.0
 11
2126.038332934478
 21
19.89868291556626
 31
0.0
  0
LWPOLYLINE
  5
49E
330
71
100
AcDbEntity
  8
0
100
AcDbPolyline
 90
       80
 70
   128
 43
0.0
 10
2126.038332934478
 20
8.600000000010592
 10
2126.036333201131
 20
8.500026664543836
 10
2126.030337200235
 20
8.400213265087584
 10
2126.020354524113
 20
8.300719481788231
 10
2126.006401142917
 20
8.201704483474939
 10
2125.988499379082
 20
8.103326673022817
 10
2125.966677871609
 20
8.005743433942766
 10
2125.940971530255
 20
7.909110878600187
 10
2125.911421479684
 20
7.813583598470187
 10
2125.878074993673
 20
7.719314416822668
 10
2125.840985419486
 20
7.62645414423872
 10
2125.800212092528
 20
7.535151337345437
 10
2125.755820241427
 20
7.445552061156603
 10
2125.707880883672
 20
7.357799655401035
 10
2125.656470712012
 20
7.272034505208177
 10
2125.601671971752
 20
7.188393816522986
 10
2125.54357232919
 20
7.10701139660449
 10
2125.482264731356
 20
7.028017439964115
 10
2125.417847257331
 20
6.951538320081737
 10
2125.35042296133
 20
6.877696387234037
 10
2125.280099707846
 20
6.806609772761587
 10
2125.206989999082
 20
6.738392200083294
 10
2125.131210794974
 20
6.673152802762955
 10
2125.052883326087
 20
6.610995949919526
 10
2124.972132899659
 20
6.552021079257882
 10
2124.889088699148
 20
6.496322537990693
 10
2124.80388357756
 20
6.443989431902079
 10
2124.716653844913
 20
6.395105482797986
 10
2124.62753905017
 20
6.349748894569299
 10
2124.536681757994
 20
6.30799222808099
 10
2124.44422732067
 20
6.269902285092312
 10
2124.350323645575
 20
6.235540001386537
 10
2124.255120958558
 20
6.204960349287487
 10
2124.158771563609
 20
6.178212249714702
 10
2124.061429599207
 20
6.155338493922156
 10
2123.963250791729
 20
6.136375675039231
 10
2123.864392206324
 20
6.121354129531252
 10
2123.765011995639
 20
6.110297888666422
 10
2123.665269146812
 20
6.103224640071458
 10
2123.565323227124
 20
6.100145699435527
 10
2123.465334128725
 20
6.101065992406742
 10
2123.365461812843
 20
6.105984046712475
 10
2123.265866053879
 20
6.114891994515402
 10
2123.1667061838
 20
6.127775584998627
 10
2123.068140837246
 20
6.144614207166452
 10
2122.970327697746
 20
6.165380922814847
 10
2122.873423245456
 20
6.190042509629222
 10
2122.777582506829
 20
6.218559514331387
 10
2122.682958806601
 20
6.250886315797227
 10
2122.589703522508
 20
6.286971198039902
 10
2122.49796584311
 20
6.326756432946182
 10
2122.407892529126
 20
6.370178372627092
 10
2122.319627678643
 20
6.41716755124156
 10
2122.233312496591
 20
6.467648796128227
 10
2122.149085068852
 20
6.521541348063745
 10
2122.06708014134
 20
6.578758990461436
 10
2121.987428904447
 20
6.639210187299567
 10
2121.910258783159
 20
6.702798229558081
 10
2121.835693233212
 20
6.769421389934902
 10
2121.763851543573
 20
6.838973085584994
 10
2121.694848645625
 20
6.911342048632548
 10
2121.628794929284
 20
6.986412504174547
 10
2121.565796066406
 20
7.064064355496267
 10
2121.505952841729
 20
7.144173376200341
 10
2121.44936099165
 20
7.226611408942571
 10
2121.396111051056
 20
7.311246570456884
 10
2121.346288208493
 20
7.397943462538761
 10
2121.299972169879
 20
7.486563388655837
 10
2121.257237030998
 20
7.576964575830457
 10
2121.218151158955
 20
7.669002401447809
 10
2121.182777082808
 20
7.762529624620639
 10
2121.151171393529
 20
7.85739662174353
 10
2121.123384653484
 20
7.953451625857722
 10
2121.099461315525
 20
8.050540969447636
 10
2121.079439651893
 20
8.148509330274917
 10
2121.063351692977
 20
8.247199979860964
 10
2121.051223176079
 20
8.346455034219102
 10
2121.043073504241
 20
8.446115706435646
 10
2121.038915715196
 20
8.546022560695346
 10
2121.038332934478
 20
8.600000000010592
  0
LWPOLYLINE
  5
49F
330
71
100
AcDbEntity
  8
0
100
AcDbPolyline
 90
        4
 70
   128
 43
0.0
 10
2121.038332934478
 20
8.600000000010592
 10
2121.038332934478
 20
8.604519397375947
 10
2121.038332934478
 20
8.618070359400631
 10
2121.038332934478
 20
8.640631207435996
  0
LINE
  5
4A0
330
71
100
AcDbEntity
  8
0
100
AcDbLine
 10
2121.038332934478
 20
19.89640678802732
 30
0.0
 11
2121.038332934478
 21
19.89868291556626
 31
0.0
  0
LWPOLYLINE
  5
4A1
330
71
100
AcDbEntity
  8
0
100
AcDbPolyline
 90
        5
 70
   128
 43
0.0
 10
2126.038332934478
 20
8.640140031115093
 10
2126.038332934478
 20
8.629131946029527
 10
2126.038332934478
 20
8.610713687672896
 10
2126.038332934478
 20
8.601317084432363
 10
2126.038332934478
 20
8.600000000010592
  0
LINE
  5
4A2
330
71
100
AcDbEntity
  8
0
100
AcDbLine
 10
2126.038332934478
 20
21.70000000000311
 30
0.0
 11
2126.038332934478
 21
34.25000000000005
 31
0.0
  0
LINE
  5
4A3
330
71
100
AcDbEntity
  8
0
100
AcDbLine
 10
2121.038332934478
 20
34.25000000000005
 30
0.0
 11
2121.038332934478
 21
21.70000000000311
 31
0.0
  0
LWPOLYLINE
  5
4A4
330
71
100
AcDbEntity
  8
0
100
AcDbPolyline
 90
       41
 70
   128
 43
0.0
 10
2126.038332934478
 20
34.25000000000005
 10
2126.038332934478
 20
34.40995733674662
 10
2126.038332934478
 20
34.56965877587663
 10
2126.038332934478
 20
34.72884882915559
 10
2126.038332934478
 20
34.88727282645704
 10
2126.038332934478
 20
35.04467732318039
 10
2126.038332934478
 20
35.20081050570854
 10
2126.038332934478
 20
35.35542259425636
 10
2126.038332934478
 20
35.50826624246457
 10
2126.038332934478
 20
35.65909693310032
 10
2126.038332934478
 20
35.80767336923457
 10
2126.038332934478
 20
35.95375786026403
 10
2126.038332934478
 20
36.09711670216603
 10
2126.038332934478
 20
36.23752055137487
 10
2126.038332934478
 20
36.37474479168343
 10
2126.038332934478
 20
36.50856989358015
 10
2126.038332934478
 20
36.63878176544955
 10
2126.038332934478
 20
36.76517209607391
 10
2126.038332934478
 20
36.88753868788591
 10
2126.038332934478
 20
37.00568578044237
 10
2126.038332934478
 20
37.11942436359804
 10
2126.038332934478
 20
37.2285724798835
 10
2126.038332934478
 20
37.33295551559586
 10
2126.038332934478
 20
37.43240648014545
 10
2126.038332934478
 20
37.52676627320408
 10
2126.038332934478
 20
37.6158839392316
 10
2126.038332934478
 20
37.69961690897326
 10
2126.038332934478
 20
37.77783122753981
 10
2126.038332934478
 20
37.85040176870609
 10
2126.038332934478
 20
37.91721243508714
 10
2126.038332934478
 20
37.97815634386893
 10
2126.038332934478
 20
38.03313599779806
 10
2126.038332934478
 20
38.08206344115689
 10
2126.038332934478
 20
38.12486040047303
 10
2126.038332934478
 20
38.16145840974139
 10
2126.038332934478
 20
38.19179891995389
 10
2126.038332934478
 20
38.21583339276662
 10
2126.038332934478
 20
38.23352337815066
 10
2126.038332934478
 20
38.2448405759024
 10
2126.038332934478
 20
38.24976688091981
 10
2126.038332934478
 20
38.24999999999999
  0
LWPOLYLINE
  5
4A5
330
71
100
AcDbEntity
  8
0
100
AcDbPolyline
 90
       41
 70
   128
 43
0.0
 10
2121.038332934478
 20
38.24999999999999
 10
2121.038332934478
 20
38.24680042664408
 10
2121.038332934478
 20
38.23720682521047
 10
2121.038332934478
 20
38.22123454341543
 10
2121.038332934478
 20
38.19890913350258
 10
2121.038332934478
 20
38.17026631136496
 10
2121.038332934478
 20
38.13535189940818
 10
2121.038332934478
 20
38.09422175324311
 10
2121.038332934478
 20
38.04694167232975
 10
2121.038332934478
 20
37.9935872947118
 10
2121.038332934478
 20
37.93424397601165
 10
2121.038332934478
 20
37.86900665287998
 10
2121.038332934478
 20
37.79797969111723
 10
2121.038332934478
 20
37.72127671871067
 10
2121.038332934478
 20
37.63902044405375
 10
2121.038332934478
 20
37.55134245963871
 10
2121.038332934478
 20
37.4583830315372
 10
2121.038332934478
 20
37.36029087500361
 10
2121.038332934478
 20
37.25722291656353
 10
2121.038332934478
 20
37.14934404296366
 10
2121.038332934478
 20
37.03682683738872
 10
2121.038332934478
 20
36.91985130336536
 10
2121.038332934478
 20
36.79860457679444
 10
2121.038332934478
 20
36.67328062657384
 10
2121.038332934478
 20
36.54407994428976
 10
2121.038332934478
 20
36.41120922347255
 10
2121.038332934478
 20
36.27488102893102
 10
2121.038332934478
 20
36.13531345669497
 10
2121.038332934478
 20
35.99272978510691
 10
2121.038332934478
 20
35.84735811762528
 10
2121.038332934478
 20
35.6994310179067
 10
2121.038332934478
 20
35.5491851377551
 10
2121.038332934478
 20
35.39686083852791
 10
2121.038332934478
 20
35.24270180660947
 10
2121.038332934478
 20
35.08695466356562
 10
2121.038332934478
 20
34.92986857160082
 10
2121.038332934478
 20
34.7716948349527
 10
2121.038332934478
 20
34.61268649785722
 10
2121.038332934478
 20
34.45309793973433
 10
2121.038332934478
 20
34.2931844682331
 10
2121.038332934478
 20
34.25000000000005
  0
LINE
  5
4A6
330
71
100
AcDbEntity
  8
0
100
AcDbLine
 10
2126.037994144338
 20
38.23306275166493
 30
0.0
 11
2126.036333201131
 21
38.15002666453341
 31
0.0
  0
LWPOLYLINE
  5
4A7
330
71
100
AcDbEntity
  8
0
100
AcDbPolyline
 90
       37
 70
   128
 43
0.0
 10
2126.038332934478
 20
42.25000000000011
 10
2126.038332934478
 20
42.09004266325353
 10
2126.038332934478
 20
41.93034122412319
 10
2126.038332934478
 20
41.77115117084421
 10
2126.038332934478
 20
41.61272717354314
 10
2126.038332934478
 20
41.45532267681978
 10
2126.038332934478
 20
41.29918949429145
 10
2126.038332934478
 20
41.14457740574343
 10
2126.038332934478
 20
40.9917337575356
 10
2126.038332934478
 20
40.84090306689964
 10
2126.038332934478
 20
40.69232663076539
 10
2126.038332934478
 20
40.54624213973595
 10
2126.038332934478
 20
40.40288329783414
 10
2126.038332934478
 20
40.26247944862495
 10
2126.038332934478
 20
40.12525520831638
 10
2126.038332934478
 20
39.99143010641983
 10
2126.038332934478
 20
39.86121823455043
 10
2126.038332934478
 20
39.73482790392607
 10
2126.038332934478
 20
39.61246131211407
 10
2126.038332934478
 20
39.49431421955779
 10
2126.038332934478
 20
39.38057563640194
 10
2126.038332934478
 20
39.27142752011667
 10
2126.038332934478
 20
39.16704448440429
 10
2126.038332934478
 20
39.06759351985453
 10
2126.038332934478
 20
38.97323372679608
 10
2126.038332934478
 20
38.88411606076857
 10
2126.038332934478
 20
38.80038309102655
 10
2126.038332934478
 20
38.72216877246017
 10
2126.038332934478
 20
38.64959823129407
 10
2126.038332934478
 20
38.58278756491301
 10
2126.038332934478
 20
38.52184365613106
 10
2126.038332934478
 20
38.46686400220175
 10
2126.038332934478
 20
38.4179365588431
 10
2126.038332934478
 20
38.37513959952696
 10
2126.038332934478
 20
38.33854159025878
 10
2126.038332934478
 20
38.30820108004628
 10
2126.038332934478
 20
38.28738597622407
  0
LWPOLYLINE
  5
4A8
330
71
100
AcDbEntity
  8
0
100
AcDbPolyline
 90
       41
 70
   128
 43
0.0
 10
2121.038332934478
 20
38.24999999999999
 10
2121.038332934478
 20
38.25319957335608
 10
2121.038332934478
 20
38.26279317478952
 10
2121.038332934478
 20
38.27876545658437
 10
2121.038332934478
 20
38.30109086649758
 10
2121.038332934478
 20
38.3297336886352
 10
2121.038332934478
 20
38.36464810059197
 10
2121.038332934478
 20
38.40577824675687
 10
2121.038332934478
 20
38.45305832767024
 10
2121.038332934478
 20
38.50641270528836
 10
2121.038332934478
 20
38.56575602398851
 10
2121.038332934478
 20
38.63099334712018
 10
2121.038332934478
 20
38.70202030888293
 10
2121.038332934478
 20
38.7787232812895
 10
2121.038332934478
 20
38.86097955594624
 10
2121.038332934478
 20
38.94865754036129
 10
2121.038332934478
 20
39.04161696846296
 10
2121.038332934478
 20
39.13970912499621
 10
2121.038332934478
 20
39.24277708343664
 10
2121.038332934478
 20
39.35065595703633
 10
2121.038332934478
 20
39.46317316261144
 10
2121.038332934478
 20
39.5801486966348
 10
2121.038332934478
 20
39.70139542320572
 10
2121.038332934478
 20
39.82671937342614
 10
2121.038332934478
 20
39.95592005571006
 10
2121.038332934478
 20
40.08879077652744
 10
2121.038332934478
 20
40.2251189710688
 10
2121.038332934478
 20
40.36468654330517
 10
2121.038332934478
 20
40.50727021489325
 10
2121.038332934478
 20
40.65264188237486
 10
2121.038332934478
 20
40.80056898209329
 10
2121.038332934478
 20
40.95081486224506
 10
2121.038332934478
 20
41.10313916147225
 10
2121.038332934478
 20
41.25729819339047
 10
2121.038332934478
 20
41.41304533643437
 10
2121.038332934478
 20
41.57013142839899
 10
2121.038332934478
 20
41.72830516504745
 10
2121.038332934478
 20
41.88731350214292
 10
2121.038332934478
 20
42.04690206026582
 10
2121.038332934478
 20
42.20681553176688
 10
2121.038332934478
 20
42.25000000000011
  0
LINE
  5
4A9
330
71
100
AcDbEntity
  8
0
100
AcDbLine
 10
2126.038332934478
 20
42.24999999999993
 30
0.0
 11
2126.038332934478
 21
128.8750000000004
 31
0.0
  0
LINE
  5
4AA
330
71
100
AcDbEntity
  8
0
100
AcDbLine
 10
2121.038332934478
 20
128.8750000000004
 30
0.0
 11
2121.038332934478
 21
85.62500000000019
 31
0.0
  0
LINE
  5
4AB
330
71
100
AcDbEntity
  8
0
100
AcDbLine
 10
2121.038332934478
 20
81.62500000000028
 30
0.0
 11
2121.038332934478
 21
42.25000000000011
 31
0.0
  0
LINE
  5
4B0
330
71
100
AcDbEntity
  8
0
100
AcDbLine
 10
2126.038332934478
 20
14.24999999999966
 30
0.0
 11
2126.038332934478
 21
21.69999999999953
 31
0.0
  0
LINE
  5
4B1
330
71
100
AcDbEntity
  8
0
100
AcDbLine
 10
2121.038332934478
 20
21.6999999999997
 30
0.0
 11
2121.038332934478
 21
14.24999999999966
 31
0.0
  0
LINE
  5
4C1
330
71
100
AcDbEntity
  8
0
100
AcDbLine
 10
1874.78833293446
 20
191.4999999999976
 30
0.0
 11
2114.53833293446
 21
191.4999999999976
 31
0.0
  0
LINE
  5
4C2
330
71
100
AcDbEntity
  8
0
100
AcDbLine
 10
2114.53833293446
 20
150.7450353879073
 30
0.0
 11
1874.78833293446
 21
150.7450353879073
 31
0.0
  0
LINE
  5
4C3
330
71
100
AcDbEntity
  8
0
100
AcDbLine
 10
2114.53833293446
 20
191.4999999999976
 30
0.0
 11
2114.53833293446
 21
150.7450353879073
 31
0.0
  0
LINE
  5
4C4
330
71
100
AcDbEntity
  8
0
100
AcDbLine
 10
1874.78833293446
 20
150.7450353879073
 30
0.0
 11
1874.78833293446
 21
191.4999999999976
 31
0.0
  0
LWPOLYLINE
  5
4C5
330
71
100
AcDbEntity
  8
0
100
AcDbPolyline
 90
       41
 70
   128
 43
0.0
 10
1924.913332934479
 20
191.5000000000002
 10
1925.033300937038
 20
191.5023996800173
 10
1925.153077016386
 20
191.5095948810925
 10
1925.272469556345
 20
191.5215740924386
 10
1925.391287554321
 20
191.5383181498732
 10
1925.509340926864
 20
191.5598002664766
 10
1925.62644081376
 20
191.5859860754442
 10
1925.742399880171
 20
191.6168336850679
 10
1925.857032616326
 20
191.652293745753
 10
1925.970155634304
 20
191.6923095289665
 10
1926.081587961405
 20
191.7368170179917
 10
1926.191151329676
 20
191.7857450103404
 10
1926.298670461102
 20
191.8390152316623
 10
1926.40397334801
 20
191.8965424609671
 10
1926.506891528241
 20
191.9582346669599
 10
1926.607260354663
 20
192.0239931552713
 10
1926.704919258566
 20
192.0937127263472
 10
1926.799712006534
 20
192.1672818437476
 10
1926.891486950393
 20
192.2445828125776
 10
1926.98009726981
 20
192.3254919677776
 10
1927.065401207177
 20
192.4098798719588
 10
1927.147262294391
 20
192.4976115224763
 10
1927.225549571176
 20
192.5885465674045
 10
1927.300137794588
 20
192.6825395300699
 10
1927.370907639382
 20
192.779440041783
 10
1927.437745888902
 20
192.8790930823959
 10
1927.500545616208
 20
192.9813392283021
 10
1927.559206355133
 20
193.0860149074791
 10
1927.613634261008
 20
193.19295266117
 10
1927.663742260794
 20
193.3019814117814
 10
1927.70945019238
 20
193.4129267365703
 10
1927.750684932827
 20
193.5256111466839
 10
1927.787380515346
 20
193.6398543711044
 10
1927.819478234833
 20
193.7554736450432
 10
1927.846926741784
 20
193.872284002326
 10
1927.869682124444
 20
193.9900985712997
 10
1927.887707979053
 20
194.1087288737858
 10
1927.900975468091
 20
194.2279851266074
 10
1927.909463366405
 20
194.3476765451995
 10
1927.913158095168
 20
194.4676116488255
 10
1927.913332934479
 20
194.5000000000004
  0
LWPOLYLINE
  5
4C6
330
71
100
AcDbEntity
  8
0
100
AcDbPolyline
 90
       41
 70
   128
 43
0.0
 10
2061.413332934479
 20
194.5000000000004
 10
2061.415732614495
 20
194.3800319974404
 10
2061.422927815571
 20
194.2602559180928
 10
2061.434907026917
 20
194.1408633781335
 10
2061.451651084352
 20
194.0220453801574
 10
2061.473133200955
 20
193.9039920076149
 10
2061.499319009923
 20
193.7868921207187
 10
2061.530166619546
 20
193.6709330543079
 10
2061.565626680231
 20
193.556300318152
 10
2061.605642463446
 20
193.443177300175
 10
2061.65014995247
 20
193.3317449730743
 10
2061.699077944819
 20
193.2221816048021
 10
2061.752348166141
 20
193.1146624733758
 10
2061.809875395446
 20
193.009359586469
 10
2061.871567601438
 20
192.9064414062376
 10
2061.93732608975
 20
192.8060725798151
 10
2062.007045660826
 20
192.7084136759131
 10
2062.080614778226
 20
192.6136209279448
 10
2062.157915747056
 20
192.5218459840859
 10
2062.238824902256
 20
192.4332356646687
 10
2062.323212806437
 20
192.3479317273016
 10
2062.410944456955
 20
192.2660706400876
 10
2062.501879501883
 20
192.1877833633034
 10
2062.595872464549
 20
192.1131951398912
 10
2062.692772976261
 20
192.0424252950974
 10
2062.792426016875
 20
191.9755870455764
 10
2062.89467216278
 20
191.9127873182701
 10
2062.999347841957
 20
191.8541265793454
 10
2063.106285595648
 20
191.7996986734707
 10
2063.21531434626
 20
191.7495906736849
 10
2063.326259671049
 20
191.7038827420985
 10
2063.438944081163
 20
191.6626480016518
 10
2063.553187305583
 20
191.6259524191326
 10
2063.668806579522
 20
191.5938546996455
 10
2063.785616936804
 20
191.5664061926944
 10
2063.903431505778
 20
191.5436508100349
 10
2064.022061808264
 20
191.5256249554253
 10
2064.141318061086
 20
191.5123574663874
 10
2064.261009479678
 20
191.5038695680735
 10
2064.380944583304
 20
191.5001748393105
 10
2064.413332934479
 20
191.5000000000002
  0
LINE
  5
4C7
330
71
100
AcDbEntity
  8
0
100
AcDbLine
 10
2061.413332934479
 20
194.5000000000004
 30
0.0
 11
2061.413332934479
 21
204.125
 31
0.0
  0
LINE
  5
4C8
330
71
100
AcDbEntity
  8
0
100
AcDbLine
 10
1927.913332934479
 20
204.125
 30
0.0
 11
1927.913332934479
 21
194.5000000000004
 31
0.0
  0
LINE
  5
4C9
330
71
100
AcDbEntity
  8
0
100
AcDbLine
 10
2062.913332934479
 20
204.1250000000002
 30
0.0
 11
2062.913332934479
 21
204.3750000000001
 31
0.0
  0
LINE
  5
4CA
330
71
100
AcDbEntity
  8
0
100
AcDbLine
 10
1926.413332934478
 20
204.3750000000001
 30
0.0
 11
1926.413332934478
 21
204.1250000000002
 31
0.0
  0
LINE
  5
4CB
330
71
100
AcDbEntity
  8
0
100
AcDbLine
 10
2062.913332934479
 20
204.3750000000001
 30
0.0
 11
1997.663332934478
 21
215.5000000000002
 31
0.0
  0
LINE
  5
4CC
330
71
100
AcDbEntity
  8
0
100
AcDbLine
 10
1991.663332934479
 20
215.5000000000002
 30
0.0
 11
1926.413332934478
 21
204.3750000000001
 31
0.0
  0
LINE
  5
4CD
330
71
100
AcDbEntity
  8
0
100
AcDbLine
 10
2062.913332934479
 20
204.125
 30
0.0
 11
1926.413332934479
 21
204.125
 31
0.0
  0
LINE
  5
4CE
330
71
100
AcDbEntity
  8
0
100
AcDbLine
 10
2062.913332934479
 20
204.375
 30
0.0
 11
1926.413332934479
 21
204.375
 31
0.0
  0
LINE
  5
4CF
330
71
100
AcDbEntity
  8
0
100
AcDbLine
 10
1997.663332934478
 20
215.5
 30
0.0
 11
1991.663332934479
 21
215.5
 31
0.0
  0
LINE
  5
4D0
330
71
100
AcDbEntity
  8
0
100
AcDbLine
 10
1874.788332934477
 20
150.5
 30
0.0
 11
2114.538332934477
 21
150.5
 31
0.0
  0
LINE
  5
4D1
330
71
100
AcDbEntity
  8
0
100
AcDbLine
 10
2114.538332934477
 20
69.625
 30
0.0
 11
1874.788332934477
 21
69.625
 31
0.0
  0
LINE
  5
4D2
330
71
100
AcDbEntity
  8
0
100
AcDbLine
 10
1874.788332934477
 20
69.625
 30
0.0
 11
1874.788332934477
 21
150.5
 31
0.0
  0
LINE
  5
4D3
330
71
100
AcDbEntity
  8
0
100
AcDbLine
 10
2037.163332934478
 20
127.8750000000036
 30
0.0
 11
2071.663332934478
 21
127.8750000000036
 31
0.0
  0
LINE
  5
4D4
330
71
100
AcDbEntity
  8
0
100
AcDbLine
 10
2071.663332934478
 20
127.8750000000036
 30
0.0
 11
2071.663332934478
 21
90.37500000000319
 31
0.0
  0
LINE
  5
4D5
330
71
100
AcDbEntity
  8
0
100
AcDbLine
 10
2071.663332934478
 20
90.37500000000322
 30
0.0
 11
2037.163332934478
 21
90.37500000000322
 31
0.0
  0
LINE
  5
4D6
330
71
100
AcDbEntity
  8
0
100
AcDbLine
 10
2037.163332934478
 20
90.37500000000322
 30
0.0
 11
2037.163332934478
 21
127.8750000000037
 31
0.0
  0
LINE
  5
4D7
330
71
100
AcDbEntity
  8
0
100
AcDbLine
 10
1917.663332934478
 20
90.37500000000322
 30
0.0
 11
1917.663332934478
 21
127.8750000000036
 31
0.0
  0
LINE
  5
4D8
330
71
100
AcDbEntity
  8
0
100
AcDbLine
 10
1917.663332934478
 20
127.8750000000036
 30
0.0
 11
1952.163332934478
 21
127.8750000000036
 31
0.0
  0
LINE
  5
4D9
330
71
100
AcDbEntity
  8
0
100
AcDbLine
 10
1952.163332934478
 20
127.8750000000036
 30
0.0
 11
1952.163332934478
 21
90.37500000000322
 31
0.0
  0
LINE
  5
4DA
330
71
100
AcDbEntity
  8
0
100
AcDbLine
 10
1952.163332934478
 20
90.37500000000322
 30
0.0
 11
1917.663332934478
 21
90.37500000000322
 31
0.0
  0
LINE
  5
4DB
330
71
100
AcDbEntity
  8
0
100
AcDbLine
 10
1977.413332934478
 20
127.8750000000036
 30
0.0
 11
2011.913332934478
 21
127.8750000000036
 31
0.0
  0
LINE
  5
4DC
330
71
100
AcDbEntity
  8
0
100
AcDbLine
 10
2011.913332934478
 20
127.8750000000036
 30
0.0
 11
2011.913332934478
 21
90.37500000000319
 31
0.0
  0
LINE
  5
4DD
330
71
100
AcDbEntity
  8
0
100
AcDbLine
 10
2011.913332934478
 20
90.37500000000322
 30
0.0
 11
1977.413332934478
 21
90.37500000000322
 31
0.0
  0
LINE
  5
4DE
330
71
100
AcDbEntity
  8
0
100
AcDbLine
 10
1977.413332934478
 20
90.37500000000322
 30
0.0
 11
1977.413332934478
 21
127.8750000000037
 31
0.0
  0
LINE
  5
4DF
330
71
100
AcDbEntity
  8
0
100
AcDbLine
 10
2114.538332934477
 20
69.625
 30
0.0
 11
2114.538332934477
 21
150.5
 31
0.0
  0
LINE
  5
4E3
330
71
100
AcDbEntity
  8
0
100
AcDbLine
 10
1874.788332934481
 20
69.625
 30
0.0
 11
2114.53833293448
 21
69.625
 31
0.0
  0
LINE
  5
4E4
330
71
100
AcDbEntity
  8
0
100
AcDbLine
 10
2114.53833293448
 20
0.0
 30
0.0
 11
1874.788332934481
 21
0.0
 31
0.0
  0
LINE
  5
4E5
330
71
100
AcDbEntity
  8
0
100
AcDbLine
 10
2114.53833293448
 20
69.625
 30
0.0
 11
2114.53833293448
 21
63.75000000000017
 31
0.0
  0
LINE
  5
4E6
330
71
100
AcDbEntity
  8
0
100
AcDbLine
 10
2114.53833293448
 20
21.74999999999974
 30
0.0
 11
2114.53833293448
 21
0.0
 31
0.0
  0
LINE
  5
4E7
330
71
100
AcDbEntity
  8
0
100
AcDbLine
 10
1874.788332934481
 20
63.75000000000087
 30
0.0
 11
1874.788332934481
 21
69.625
 31
0.0
  0
LINE
  5
4E8
102
{ACAD_REACTORS
330
8FE
102
}
330
71
100
AcDbEntity
  8
0
100
AcDbLine
 10
1874.788332934481
 20
63.75000000000087
 30
0.0
 11
2114.53833293448
 21
63.75000000000017
 31
0.0
  0
LINE
  5
4E9
102
{ACAD_REACTORS
330
8FE
102
}
330
71
100
AcDbEntity
  8
0
100
AcDbLine
 10
2114.53833293448
 20
21.74999999999974
 30
0.0
 11
1874.788332934481
 21
21.75000000000045
 31
0.0
  0
LINE
  5
4EA
330
71
100
AcDbEntity
  8
0
100
AcDbLine
 10
1874.788332934481
 20
0.0
 30
0.0
 11
1874.788332934481
 21
21.75000000000045
 31
0.0
  0
LINE
  5
4EB
330
71
100
AcDbEntity
  8
0
100
AcDbLine
 10
2113.538332934481
 20
63.75000000000017
 30
0.0
 11
2113.538332934481
 21
21.74999999999975
 31
0.0
  0
LINE
  5
4EC
330
71
100
AcDbEntity
  8
0
100
AcDbLine
 10
2112.163332934481
 20
63.75000000000017
 30
0.0
 11
2112.163332934481
 21
21.74999999999975
 31
0.0
  0
LINE
  5
4ED
102
{ACAD_REACTORS
330
8FE
102
}
330
71
100
AcDbEntity
  8
0
100
AcDbLine
 10
2108.78833293448
 20
63.75000000000018
 30
0.0
 11
2108.78833293448
 21
21.74999999999976
 31
0.0
  0
LINE
  5
4EE
102
{ACAD_REACTORS
330
8FE
102
}
330
71
100
AcDbEntity
  8
0
100
AcDbLine
 10
2032.413332934481
 20
63.75000000000039
 30
0.0
 11
2032.413332934481
 21
21.74999999999997
 31
0.0
  0
LINE
  5
4F0
102
{ACAD_REACTORS
330
8FE
102
}
330
71
100
AcDbEntity
  8
0
100
AcDbLine
 10
2028.913332934481
 20
21.74999999999998
 30
0.0
 11
2028.913332934481
 21
63.75000000000039
 31
0.0
  0
LINE
  5
4F2
102
{ACAD_REACTORS
330
8FE
102
}
330
71
100
AcDbEntity
  8
0
100
AcDbLine
 10
1960.413332934481
 20
63.75000000000062
 30
0.0
 11
1960.413332934481
 21
21.75000000000021
 31
0.0
  0
LINE
  5
4F3
102
{ACAD_REACTORS
330
8FE
102
}
330
71
100
AcDbEntity
  8
0
100
AcDbLine
 10
1956.913332934481
 20
21.75000000000022
 30
0.0
 11
1956.913332934481
 21
63.75000000000063
 31
0.0
  0
LINE
  5
4F4
102
{ACAD_REACTORS
330
8FE
102
}
330
71
100
AcDbEntity
  8
0
100
AcDbLine
 10
1880.538332934481
 20
63.75000000000085
 30
0.0
 11
1880.53833293448
 21
21.75000000000042
 31
0.0
  0
LINE
  5
4F5
330
71
100
AcDbEntity
  8
0
100
AcDbLine
 10
1877.16333293448
 20
63.75000000000085
 30
0.0
 11
1877.16333293448
 21
21.75000000000043
 31
0.0
  0
LINE
  5
4F6
330
71
100
AcDbEntity
  8
0
100
AcDbLine
 10
1875.788332934481
 20
63.75000000000087
 30
0.0
 11
1875.78833293448
 21
21.75000000000043
 31
0.0
  0
ARC
  5
4F7
330
71
100
AcDbEntity
  8
0
100
AcDbCircle
 10
2078.538332934478
 20
171.0000000000011
 30
0.0
 40
8.250000000000008
100
AcDbArc
 50
179.9999999999998
 51
359.9999999999986
  0
ARC
  5
4F8
330
71
100
AcDbEntity
  8
0
100
AcDbCircle
 10
2078.538332934478
 20
171.0000000000011
 30
0.0
 40
8.249999999999996
100
AcDbArc
 50
359.9999999999995
 51
179.9999999999998
  0
ARC
  5
4F9
330
71
100
AcDbEntity
  8
0
100
AcDbCircle
 10
2078.538332934478
 20
171.0000000000011
 30
0.0
 40
7.687500000000002
100
AcDbArc
 50
0.0000000000006107
 51
180.0000000000002
  0
ARC
  5
4FA
330
71
100
AcDbEntity
  8
0
100
AcDbCircle
 10
2078.538332934478
 20
171.0000000000011
 30
0.0
 40
7.687499999999982
100
AcDbArc
 50
180.0000000000003
 51
359.9999999999996
  0
LINE
  5
4FB
330
71
100
AcDbEntity
  8
0
100
AcDbLine
 10
2083.660833708465
 20
168.5581441512037
 30
0.0
 11
2083.465893232275
 21
168.109235421045
 31
0.0
  0
LINE
  5
4FC
330
71
100
AcDbEntity
  8
0
100
AcDbLine
 10
2083.465893232275
 20
168.109235421045
 30
0.0
 11
2083.015000375132
 21
167.9519933575529
 31
0.0
  0
LINE
  5
4FD
330
71
100
AcDbEntity
  8
0
100
AcDbLine
 10
2083.015000375132
 20
167.9519933575529
 30
0.0
 11
2082.690471605292
 21
168.0162294686641
 31
0.0
  0
LINE
  5
4FE
330
71
100
AcDbEntity
  8
0
100
AcDbLine
 10
2082.690471605292
 20
168.0162294686641
 30
0.0
 11
2082.454980533862
 21
168.2089378019974
 31
0.0
  0
LINE
  5
4FF
330
71
100
AcDbEntity
  8
0
100
AcDbLine
 10
2082.454980533862
 20
168.2089378019974
 30
0.0
 11
2082.26400831164
 21
168.9668743099339
 31
0.0
  0
LINE
  5
500
330
71
100
AcDbEntity
  8
0
100
AcDbLine
 10
2082.26400831164
 20
168.9668743099339
 30
0.0
 11
2082.448036089418
 21
169.7307631988228
 31
0.0
  0
LINE
  5
501
330
71
100
AcDbEntity
  8
0
100
AcDbLine
 10
2082.448036089418
 20
169.7307631988228
 30
0.0
 11
2082.677822795767
 21
169.9204953416799
 31
0.0
  0
LINE
  5
502
330
71
100
AcDbEntity
  8
0
100
AcDbLine
 10
2082.677822795767
 20
169.9204953416799
 30
0.0
 11
2082.999127359259
 21
169.983739389299
 31
0.0
  0
LINE
  5
503
330
71
100
AcDbEntity
  8
0
100
AcDbLine
 10
2082.999127359259
 20
169.983739389299
 30
0.0
 11
2083.467381327513
 21
169.8403862146958
 31
0.0
  0
LINE
  5
504
330
71
100
AcDbEntity
  8
0
100
AcDbLine
 10
2083.467381327513
 20
169.8403862146958
 30
0.0
 11
2083.660833708465
 21
169.4152870083466
 31
0.0
  0
LINE
  5
505
330
71
100
AcDbEntity
  8
0
100
AcDbLine
 10
2083.660833708465
 20
169.4152870083466
 30
0.0
 11
2084.803690851322
 21
169.4152870083466
 31
0.0
  0
LINE
  5
506
330
71
100
AcDbEntity
  8
0
100
AcDbLine
 10
2084.803690851322
 20
169.4152870083466
 30
0.0
 11
2084.643472597354
 21
170.0629804607276
 31
0.0
  0
LINE
  5
507
330
71
100
AcDbEntity
  8
0
100
AcDbLine
 10
2084.643472597354
 20
170.0629804607276
 30
0.0
 11
2084.275913073545
 21
170.5417751035847
 31
0.0
  0
LINE
  5
508
330
71
100
AcDbEntity
  8
0
100
AcDbLine
 10
2084.275913073545
 20
170.5417751035847
 30
0.0
 11
2083.716885295767
 21
170.8375340321561
 31
0.0
  0
LINE
  5
509
330
71
100
AcDbEntity
  8
0
100
AcDbLine
 10
2083.716885295767
 20
170.8375340321561
 30
0.0
 11
2082.982262279895
 21
170.9361203416799
 31
0.0
  0
LINE
  5
50A
330
71
100
AcDbEntity
  8
0
100
AcDbLine
 10
2082.982262279895
 20
170.9361203416799
 30
0.0
 11
2082.184271208465
 21
170.8041758972355
 31
0.0
  0
LINE
  5
50B
330
71
100
AcDbEntity
  8
0
100
AcDbLine
 10
2082.184271208465
 20
170.8041758972355
 30
0.0
 11
2081.57402815291
 21
170.4083425639022
 31
0.0
  0
LINE
  5
50C
330
71
100
AcDbEntity
  8
0
100
AcDbLine
 10
2081.57402815291
 20
170.4083425639022
 30
0.0
 11
2081.186751367196
 21
169.7843346273941
 31
0.0
  0
LINE
  5
50D
330
71
100
AcDbEntity
  8
0
100
AcDbLine
 10
2081.186751367196
 20
169.7843346273941
 30
0.0
 11
2081.057659105292
 21
168.967866373426
 31
0.0
  0
LINE
  5
50E
330
71
100
AcDbEntity
  8
0
100
AcDbLine
 10
2081.057659105292
 20
168.967866373426
 30
0.0
 11
2081.187371406878
 21
168.1495380004101
 31
0.0
  0
LINE
  5
50F
330
71
100
AcDbEntity
  8
0
100
AcDbLine
 10
2081.187371406878
 20
168.1495380004101
 30
0.0
 11
2081.57650831164
 21
167.5259020877117
 31
0.0
  0
LINE
  5
510
330
71
100
AcDbEntity
  8
0
100
AcDbLine
 10
2081.57650831164
 20
167.5259020877117
 30
0.0
 11
2082.191835692592
 21
167.1311848258069
 31
0.0
  0
LINE
  5
511
330
71
100
AcDbEntity
  8
0
100
AcDbLine
 10
2082.191835692592
 20
167.1311848258069
 30
0.0
 11
2083.00011942275
 21
166.999612405172
 31
0.0
  0
LINE
  5
512
330
71
100
AcDbEntity
  8
0
100
AcDbLine
 10
2083.00011942275
 20
166.999612405172
 30
0.0
 11
2083.723209700529
 21
167.1017949448545
 31
0.0
  0
LINE
  5
513
330
71
100
AcDbEntity
  8
0
100
AcDbLine
 10
2083.723209700529
 20
167.1017949448545
 30
0.0
 11
2084.279385295767
 21
167.4083425639021
 31
0.0
  0
LINE
  5
514
330
71
100
AcDbEntity
  8
0
100
AcDbLine
 10
2084.279385295767
 20
167.4083425639021
 30
0.0
 11
2084.64682081164
 21
167.9001580400926
 31
0.0
  0
LINE
  5
515
330
71
100
AcDbEntity
  8
0
100
AcDbLine
 10
2084.64682081164
 20
167.9001580400926
 30
0.0
 11
2084.803690851322
 21
168.5581441512037
 31
0.0
  0
LINE
  5
516
330
71
100
AcDbEntity
  8
0
100
AcDbLine
 10
2084.803690851322
 20
168.5581441512037
 30
0.0
 11
2083.660833708465
 21
168.5581441512037
 31
0.0
  0
LINE
  5
517
330
71
100
AcDbEntity
  8
0
100
AcDbLine
 10
2076.439106330698
 20
169.3322183401269
 30
0.0
 11
2077.616685695777
 21
169.3322183401269
 31
0.0
  0
LINE
  5
518
330
71
100
AcDbEntity
  8
0
100
AcDbLine
 10
2077.616685695777
 20
169.3322183401269
 30
0.0
 11
2077.763511092603
 21
169.8401548480634
 31
0.0
  0
LINE
  5
519
330
71
100
AcDbEntity
  8
0
100
AcDbLine
 10
2077.763511092603
 20
169.8401548480634
 30
0.0
 11
2078.966884108476
 21
169.8401548480634
 31
0.0
  0
LINE
  5
51A
330
71
100
AcDbEntity
  8
0
100
AcDbLine
 10
2078.966884108476
 20
169.8401548480634
 30
0.0
 11
2079.108749187841
 21
169.3322183401269
 31
0.0
  0
LINE
  5
51B
330
71
100
AcDbEntity
  8
0
100
AcDbLine
 10
2079.108749187841
 20
169.3322183401269
 30
0.0
 11
2080.312122203713
 21
169.3322183401269
 31
0.0
  0
LINE
  5
51C
330
71
100
AcDbEntity
  8
0
100
AcDbLine
 10
2080.312122203713
 20
169.3322183401269
 30
0.0
 11
2078.982757124348
 21
173.1417421496508
 31
0.0
  0
LINE
  5
51D
330
71
100
AcDbEntity
  8
0
100
AcDbLine
 10
2078.982757124348
 20
173.1417421496508
 30
0.0
 11
2077.753590457682
 21
173.1417421496508
 31
0.0
  0
LINE
  5
51E
330
71
100
AcDbEntity
  8
0
100
AcDbLine
 10
2077.753590457682
 20
173.1417421496508
 30
0.0
 11
2076.439106330698
 21
169.3322183401269
 31
0.0
  0
LINE
  5
51F
330
71
100
AcDbEntity
  8
0
100
AcDbLine
 10
2077.983749187841
 20
170.6655516734602
 30
0.0
 11
2078.369661886253
 21
171.9691231020316
 31
0.0
  0
LINE
  5
520
330
71
100
AcDbEntity
  8
0
100
AcDbLine
 10
2078.369661886253
 20
171.9691231020316
 30
0.0
 11
2078.746646013238
 21
170.6655516734602
 31
0.0
  0
LINE
  5
521
330
71
100
AcDbEntity
  8
0
100
AcDbLine
 10
2078.746646013238
 20
170.6655516734602
 30
0.0
 11
2077.983749187841
 21
170.6655516734602
 31
0.0
  0
LINE
  5
522
330
71
100
AcDbEntity
  8
0
100
AcDbLine
 10
2072.678375140437
 20
171.0726066493072
 30
0.0
 11
2074.377779902341
 21
171.0726066493072
 31
0.0
  0
LINE
  5
523
330
71
100
AcDbEntity
  8
0
100
AcDbLine
 10
2074.377779902341
 20
171.0726066493072
 30
0.0
 11
2075.145637045198
 21
171.1112971254977
 31
0.0
  0
LINE
  5
524
330
71
100
AcDbEntity
  8
0
100
AcDbLine
 10
2075.145637045198
 20
171.1112971254977
 30
0.0
 11
2075.558335457897
 21
171.2432415699421
 31
0.0
  0
LINE
  5
525
330
71
100
AcDbEntity
  8
0
100
AcDbLine
 10
2075.558335457897
 20
171.2432415699421
 30
0.0
 11
2075.966569584881
 21
171.6261780778786
 31
0.0
  0
LINE
  5
526
330
71
100
AcDbEntity
  8
0
100
AcDbLine
 10
2075.966569584881
 20
171.6261780778786
 30
0.0
 11
2076.106946569007
 21
172.2134796651802
 31
0.0
  0
LINE
  5
527
330
71
100
AcDbEntity
  8
0
100
AcDbLine
 10
2076.106946569007
 20
172.2134796651802
 30
0.0
 11
2075.963097362659
 21
172.7764756969262
 31
0.0
  0
LINE
  5
528
330
71
100
AcDbEntity
  8
0
100
AcDbLine
 10
2075.963097362659
 20
172.7764756969262
 30
0.0
 11
2075.519644981707
 21
173.101376490577
 31
0.0
  0
LINE
  5
529
330
71
100
AcDbEntity
  8
0
100
AcDbLine
 10
2075.519644981707
 20
173.101376490577
 30
0.0
 11
2075.864883076945
 21
173.4188368080373
 31
0.0
  0
LINE
  5
52A
330
71
100
AcDbEntity
  8
0
100
AcDbLine
 10
2075.864883076945
 20
173.4188368080373
 30
0.0
 11
2075.979962442024
 21
173.8712177604183
 31
0.0
  0
LINE
  5
52B
330
71
100
AcDbEntity
  8
0
100
AcDbLine
 10
2075.979962442024
 20
173.8712177604183
 30
0.0
 11
2075.826192600754
 21
174.4312376016881
 31
0.0
  0
LINE
  5
52C
330
71
100
AcDbEntity
  8
0
100
AcDbLine
 10
2075.826192600754
 20
174.4312376016881
 30
0.0
 11
2075.383732283293
 21
174.7710193477199
 31
0.0
  0
LINE
  5
52D
330
71
100
AcDbEntity
  8
0
100
AcDbLine
 10
2075.383732283293
 20
174.7710193477199
 30
0.0
 11
2074.988394981707
 21
174.8563368080374
 31
0.0
  0
LINE
  5
52E
330
71
100
AcDbEntity
  8
0
100
AcDbLine
 10
2074.988394981707
 20
174.8563368080374
 30
0.0
 11
2074.254764029325
 21
174.882130458831
 31
0.0
  0
LINE
  5
52F
330
71
100
AcDbEntity
  8
0
100
AcDbLine
 10
2074.254764029325
 20
174.882130458831
 30
0.0
 11
2072.678375140437
 21
174.882130458831
 31
0.0
  0
LINE
  5
530
330
71
100
AcDbEntity
  8
0
100
AcDbLine
 10
2072.678375140437
 20
174.882130458831
 30
0.0
 11
2072.678375140437
 21
171.0726066493072
 31
0.0
  0
LINE
  5
531
330
71
100
AcDbEntity
  8
0
100
AcDbLine
 10
2073.884724346786
 20
171.9614955381961
 30
0.0
 11
2073.884724346786
 21
172.6599082366088
 31
0.0
  0
LINE
  5
532
330
71
100
AcDbEntity
  8
0
100
AcDbLine
 10
2073.884724346786
 20
172.6599082366088
 30
0.0
 11
2074.433335457896
 21
172.6599082366088
 31
0.0
  0
LINE
  5
533
330
71
100
AcDbEntity
  8
0
100
AcDbLine
 10
2074.433335457896
 20
172.6599082366088
 30
0.0
 11
2074.842561648373
 21
172.5805431572437
 31
0.0
  0
LINE
  5
534
330
71
100
AcDbEntity
  8
0
100
AcDbLine
 10
2074.842561648373
 20
172.5805431572437
 30
0.0
 11
2074.964089426151
 21
172.3136780778786
 31
0.0
  0
LINE
  5
535
330
71
100
AcDbEntity
  8
0
100
AcDbLine
 10
2074.964089426151
 20
172.3136780778786
 30
0.0
 11
2074.845041807103
 21
172.0438368080374
 31
0.0
  0
LINE
  5
536
330
71
100
AcDbEntity
  8
0
100
AcDbLine
 10
2074.845041807103
 20
172.0438368080374
 30
0.0
 11
2074.444248156309
 21
171.9614955381961
 31
0.0
  0
LINE
  5
537
330
71
100
AcDbEntity
  8
0
100
AcDbLine
 10
2074.444248156309
 20
171.9614955381961
 30
0.0
 11
2073.884724346786
 21
171.9614955381961
 31
0.0
  0
LINE
  5
538
330
71
100
AcDbEntity
  8
0
100
AcDbLine
 10
2073.884724346786
 20
173.3583209350214
 30
0.0
 11
2073.884724346786
 21
173.9932415699421
 31
0.0
  0
LINE
  5
539
330
71
100
AcDbEntity
  8
0
100
AcDbLine
 10
2073.884724346786
 20
173.9932415699421
 30
0.0
 11
2074.219049743611
 21
173.9932415699421
 31
0.0
  0
LINE
  5
53A
330
71
100
AcDbEntity
  8
0
100
AcDbLine
 10
2074.219049743611
 20
173.9932415699421
 30
0.0
 11
2074.727482283293
 21
173.9257812524818
 31
0.0
  0
LINE
  5
53B
330
71
100
AcDbEntity
  8
0
100
AcDbLine
 10
2074.727482283293
 20
173.9257812524818
 30
0.0
 11
2074.837105299167
 21
173.6757812524818
 31
0.0
  0
LINE
  5
53C
330
71
100
AcDbEntity
  8
0
100
AcDbLine
 10
2074.837105299167
 20
173.6757812524818
 30
0.0
 11
2074.734922759484
 21
173.4307415699421
 31
0.0
  0
LINE
  5
53D
330
71
100
AcDbEntity
  8
0
100
AcDbLine
 10
2074.734922759484
 20
173.4307415699421
 30
0.0
 11
2074.382740219801
 21
173.3583209350214
 31
0.0
  0
LINE
  5
53E
330
71
100
AcDbEntity
  8
0
100
AcDbLine
 10
2074.382740219801
 20
173.3583209350214
 30
0.0
 11
2073.884724346786
 21
173.3583209350214
 31
0.0
  0
ARC
  5
53F
330
71
100
AcDbEntity
  8
0
100
AcDbCircle
 10
2078.538332934477
 20
171.0000000000018
 30
0.0
 40
9.000000000000017
100
AcDbArc
 50
179.9999999999997
 51
359.9999999999986
  0
ARC
  5
540
330
71
100
AcDbEntity
  8
0
100
AcDbCircle
 10
2078.538332934477
 20
171.0000000000018
 30
0.0
 40
8.999999999999994
100
AcDbArc
 50
359.9999999999995
 51
179.9999999999998
  0
LINE
  5
541
330
71
100
AcDbEntity
  8
0
100
AcDbLine
 10
2114.53833293448
 20
16.75000000000011
 30
0.0
 11
2114.788332934478
 21
16.75000000000011
 31
0.0
  0
LINE
  5
542
330
71
100
AcDbEntity
  8
0
100
AcDbLine
 10
2114.788332934478
 20
19.74999999999994
 30
0.0
 11
2114.53833293448
 21
19.74999999999994
 31
0.0
  0
LINE
  5
543
330
71
100
AcDbEntity
  8
0
100
AcDbLine
 10
2114.53833293448
 20
6.124999999999884
 30
0.0
 11
2114.788332934478
 21
6.124999999999884
 31
0.0
  0
LINE
  5
544
330
71
100
AcDbEntity
  8
0
100
AcDbLine
 10
2114.788332934478
 20
8.12500000000011
 30
0.0
 11
2114.53833293448
 21
8.12500000000011
 31
0.0
  0
LINE
  5
545
330
71
100
AcDbEntity
  8
0
100
AcDbLine
 10
2113.538332934481
 20
26.50000000000011
 30
0.0
 11
2114.788332934478
 21
26.50000000000011
 31
0.0
  0
LINE
  5
546
330
71
100
AcDbEntity
  8
0
100
AcDbLine
 10
2114.788332934478
 20
28.00000000000011
 30
0.0
 11
2113.538332934481
 21
28.00000000000011
 31
0.0
  0
LINE
  5
549
330
71
100
AcDbEntity
  8
0
100
AcDbLine
 10
2114.788332934478
 20
19.75
 30
0.0
 11
2114.788332934478
 21
18.25000000000001
 31
0.0
  0
LINE
  5
54A
330
71
100
AcDbEntity
  8
0
100
AcDbLine
 10
2114.788332934478
 20
18.24999999999999
 30
0.0
 11
2114.788332934478
 21
16.75
 31
0.0
  0
LINE
  5
54B
330
71
100
AcDbEntity
  8
0
100
AcDbLine
 10
2114.788332934478
 20
8.125
 30
0.0
 11
2114.788332934478
 21
7.125000000000007
 31
0.0
  0
LINE
  5
54C
330
71
100
AcDbEntity
  8
0
100
AcDbLine
 10
2114.788332934478
 20
7.124999999999992
 30
0.0
 11
2114.788332934478
 21
6.125
 31
0.0
  0
LINE
  5
54D
330
71
100
AcDbEntity
  8
0
100
AcDbLine
 10
2114.788332934478
 20
28.0
 30
0.0
 11
2114.788332934478
 21
27.25
 31
0.0
  0
LINE
  5
54E
330
71
100
AcDbEntity
  8
0
100
AcDbLine
 10
2114.788332934478
 20
27.25
 30
0.0
 11
2114.788332934478
 21
26.5
 31
0.0
  0
LINE
  5
54F
330
71
100
AcDbEntity
  8
0
100
AcDbLine
 10
2114.538332934478
 20
130.2500000000002
 30
0.0
 11
2123.538332934478
 21
130.2500000000002
 31
0.0
  0
LINE
  5
550
330
71
100
AcDbEntity
  8
0
100
AcDbLine
 10
2123.538332934478
 20
134.2500000000001
 30
0.0
 11
2114.538332934478
 21
134.2500000000001
 31
0.0
  0
LINE
  5
551
330
71
100
AcDbEntity
  8
0
100
AcDbLine
 10
2114.538332934478
 20
81.62500000000028
 30
0.0
 11
2123.538332934478
 21
81.62500000000028
 31
0.0
  0
LINE
  5
552
330
71
100
AcDbEntity
  8
0
100
AcDbLine
 10
2123.538332934478
 20
85.62500000000019
 30
0.0
 11
2114.538332934478
 21
85.62500000000019
 31
0.0
  0
LINE
  5
553
330
71
100
AcDbEntity
  8
0
100
AcDbLine
 10
2123.538332934478
 20
134.25
 30
0.0
 11
2123.538332934478
 21
132.25
 31
0.0
  0
LINE
  5
554
330
71
100
AcDbEntity
  8
0
100
AcDbLine
 10
2123.538332934478
 20
132.25
 30
0.0
 11
2123.538332934478
 21
130.25
 31
0.0
  0
LINE
  5
555
330
71
100
AcDbEntity
  8
0
100
AcDbLine
 10
2123.538332934478
 20
85.625
 30
0.0
 11
2123.538332934478
 21
83.62500000000002
 31
0.0
  0
LINE
  5
556
330
71
100
AcDbEntity
  8
0
100
AcDbLine
 10
2123.538332934478
 20
83.62499999999998
 30
0.0
 11
2123.538332934478
 21
81.62499999999999
 31
0.0
  0
LWPOLYLINE
  5
557
330
71
100
AcDbEntity
  8
0
100
AcDbPolyline
 90
       41
 70
   128
 43
0.0
 10
2314.503435644206
 20
140.8750000000035
 10
2314.503435644206
 20
140.8718004266471
 10
2314.503435644206
 20
140.8622068252138
 10
2314.503435644206
 20
140.8462345434189
 10
2314.503435644206
 20
140.8239091335059
 10
2314.503435644206
 20
140.7952663113683
 10
2314.503435644206
 20
140.7603518994115
 10
2314.503435644206
 20
140.7192217532466
 10
2314.503435644206
 20
140.6719416723331
 10
2314.503435644206
 20
140.6185872947151
 10
2314.503435644206
 20
140.559243976015
 10
2314.503435644206
 20
140.4940066528831
 10
2314.503435644206
 20
140.4229796911204
 10
2314.503435644206
 20
140.3462767187138
 10
2314.503435644206
 20
140.2640204440571
 10
2314.503435644206
 20
140.176342459642
 10
2314.503435644206
 20
140.0833830315405
 10
2314.503435644206
 20
139.9852908750071
 10
2314.503435644206
 20
139.8822229165668
 10
2314.503435644206
 20
139.774344042967
 10
2314.503435644206
 20
139.6618268373918
 10
2314.503435644206
 20
139.5448513033685
 10
2314.503435644206
 20
139.4236045767974
 10
2314.503435644206
 20
139.298280626577
 10
2314.503435644206
 20
139.1690799442931
 10
2314.503435644206
 20
139.0362092234757
 10
2314.503435644206
 20
138.8998810289343
 10
2314.503435644206
 20
138.7603134566979
 10
2314.503435644206
 20
138.6177297851099
 10
2314.503435644206
 20
138.4723581176282
 10
2314.503435644206
 20
138.3244310179097
 10
2314.503435644206
 20
138.1741851377582
 10
2314.503435644206
 20
138.0218608385307
 10
2314.503435644206
 20
137.8677018066124
 10
2314.503435644206
 20
137.7119546635686
 10
2314.503435644206
 20
137.5548685716039
 10
2314.503435644206
 20
137.3966948349555
 10
2314.503435644206
 20
137.2376864978602
 10
2314.503435644206
 20
137.0780979397371
 10
2314.503435644206
 20
136.9181844682359
 10
2314.503435644206
 20
136.8750000000028
  0
LWPOLYLINE
  5
558
330
71
100
AcDbEntity
  8
0
100
AcDbPolyline
 90
       41
 70
   128
 43
0.0
 10
2319.503435644206
 20
136.875000000003
 10
2319.503435644206
 20
137.0349573367494
 10
2319.503435644206
 20
137.1946587758796
 10
2319.503435644206
 20
137.3538488291587
 10
2319.503435644206
 20
137.51227282646
 10
2319.503435644206
 20
137.6696773231834
 10
2319.503435644206
 20
137.8258105057115
 10
2319.503435644206
 20
137.9804225942595
 10
2319.503435644206
 20
138.1332662424675
 10
2319.503435644206
 20
138.2840969331035
 10
2319.503435644206
 20
138.4326733692377
 10
2319.503435644206
 20
138.5787578602672
 10
2319.503435644206
 20
138.722116702169
 10
2319.503435644206
 20
138.8625205513782
 10
2319.503435644206
 20
138.9997447916867
 10
2319.503435644206
 20
139.1335698935833
 10
2319.503435644206
 20
139.2637817654529
 10
2319.503435644206
 20
139.390172096077
 10
2319.503435644206
 20
139.5125386878891
 10
2319.503435644206
 20
139.6306857804455
 10
2319.503435644206
 20
139.7444243636015
 10
2319.503435644206
 20
139.8535724798866
 10
2319.503435644206
 20
139.9579555155992
 10
2319.503435644206
 20
140.0574064801489
 10
2319.503435644206
 20
140.1517662732072
 10
2319.503435644206
 20
140.2408839392351
 10
2319.503435644206
 20
140.3246169089768
 10
2319.503435644206
 20
140.4028312275433
 10
2319.503435644206
 20
140.4754017687096
 10
2319.503435644206
 20
140.5422124350905
 10
2319.503435644206
 20
140.6031563438724
 10
2319.503435644206
 20
140.6581359978015
 10
2319.503435644206
 20
140.7070634411602
 10
2319.503435644206
 20
140.7498604004765
 10
2319.503435644206
 20
140.7864584097449
 10
2319.503435644206
 20
140.8167989199574
 10
2319.503435644206
 20
140.8408333927701
 10
2319.503435644206
 20
140.8585233781541
 10
2319.503435644206
 20
140.8698405759059
 10
2319.503435644206
 20
140.8747668809233
 10
2319.503435644206
 20
140.8750000000035
  0
LINE
  5
559
330
71
100
AcDbEntity
  8
0
100
AcDbLine
 10
2314.503435644206
 20
136.8750000000028
 30
0.0
 11
2314.503435644206
 21
128.8750000000028
 31
0.0
  0
LINE
  5
55A
330
71
100
AcDbEntity
  8
0
100
AcDbLine
 10
2319.503435644206
 20
128.875000000003
 30
0.0
 11
2319.503435644206
 21
136.875000000003
 31
0.0
  0
LINE
  5
55D
330
71
100
AcDbEntity
  8
0
100
AcDbLine
 10
2289.266245413498
 20
16.24989559934299
 30
0.0
 11
2293.653435644208
 21
16.24989559934299
 31
0.0
  0
LINE
  5
55E
330
71
100
AcDbEntity
  8
0
100
AcDbLine
 10
2293.653435644208
 20
12.25010440065591
 30
0.0
 11
2289.266245413498
 21
12.25010440065591
 31
0.0
  0
LINE
  5
55F
330
71
100
AcDbEntity
  8
0
100
AcDbLine
 10
2293.653435644208
 20
16.24989559934299
 30
0.0
 11
2293.653435644208
 21
12.25010440065591
 31
0.0
  0
LWPOLYLINE
  5
560
330
71
100
AcDbEntity
  8
0
100
AcDbPolyline
 90
       80
 70
   128
 43
0.0
 10
2284.253435644208
 20
19.6500000000002
 10
2284.0374932396
 20
19.64568057596972
 10
2283.821896296775
 20
19.63272921403438
 10
2283.606989724848
 20
19.61116663361116
 10
2283.393117328491
 20
19.58102733022866
 10
2283.180621257915
 20
19.54235952034285
 10
2282.969841461501
 20
19.49522506420117
 10
2282.761115141962
 20
19.43969936687841
 10
2282.554776216882
 20
19.37587125764542
 10
2282.351154784523
 20
19.3038428478611
 10
2282.150576595741
 20
19.22372936761587
 10
2281.953362532851
 20
19.13565898138801
 10
2281.759828096284
 20
19.0397725830083
 10
2281.570282899851
 20
18.93622357025947
 10
2281.385030175435
 20
18.82517759947267
 10
2281.204366287874
 20
18.70681232051219
 10
2281.02858026085
 20
18.5813170925753
 10
2280.857953314507
 20
18.44889268125507
 10
2280.692758415562
 20
18.30975093736083
 10
2280.53325984061
 20
18.16411445800082
 10
2280.37971275335
 20
18.01221623047473
 10
2280.232362796365
 20
17.85429925954298
 10
2280.091445698153
 20
17.69061617867231
 10
2279.957186896011
 20
17.52142884587448
 10
2279.829801175382
 20
17.34700792479117
 10
2279.709492326245
 20
17.16763245168783
 10
2279.596452817093
 20
16.98358938905681
 10
2279.490863487029
 20
16.79517316653793
 10
2279.392893256454
 20
16.60268520989386
 10
2279.30269885684
 20
16.40643345879361
 10
2279.220424579984
 20
16.20673187417372
 10
2279.146202047181
 20
16.00389993596911
 10
2279.080149998645
 20
15.79826213201215
 10
2279.022374103568
 20
15.59014743892231
 10
2278.972966791056
 20
15.37988879581314
 10
2278.93200710227
 20
15.16782257166078
 10
2278.899560563972
 20
14.95428802718538
 10
2278.875679083704
 20
14.73962677210676
 10
2278.860400866739
 20
14.5241822186407
 10
2278.853750354965
 20
14.30829903211389
 10
2278.855738187783
 20
14.09232257957222
 10
2278.866361185083
 20
13.87659837726721
 10
2278.885602352338
 20
13.66147153790382
 10
2278.913430907782
 20
13.44728621853392
 10
2278.949802331664
 20
13.23438506997752
 10
2278.994658437465
 20
13.02310868865635
 10
2279.047927464985
 20
12.81379507171044
 10
2279.10952419514
 20
12.60677907627587
 10
2279.179350086306
 20
12.40239188378404
 10
2279.257293431951
 20
12.20096047014283
 10
2279.343229539349
 20
12.00280708264432
 10
2279.437020929059
 20
11.80824872443793
 10
2279.538517554867
 20
11.61759664739332
 10
2279.647557043821
 20
11.43115585416335
 10
2279.763964956002
 20
11.2492246102455
 10
2279.887555063582
 20
11.07209396681975
 10
2280.018129648751
 20
10.90004729513026
 10
2280.15547982003
 20
10.73335983314979
 10
2280.299385846444
 20
10.57229824526012
 10
2280.449617509049
 20
10.41712019564306
 10
2280.605934469231
 20
10.26807393607583
 10
2280.768086653202
 20
10.12539790877843
 10
2280.935814652057
 20
9.989320364958928
 10
2281.108850136777
 20
9.860058999659022
 10
2281.286916287501
 20
9.737820603488898
 10
2281.469728236372
 20
9.62280073180608
 10
2281.656993523269
 20
9.515183391869411
 10
2281.848412563681
 20
9.415140748465091
 10
2282.043679127979
 20
9.322832848481708
 10
2282.242480831312
 20
9.238407364867953
 10
2282.444499633365
 20
9.161999360387483
 10
2282.649412347151
 20
9.093731071548234
 10
2282.856891156038
 20
9.033711713049056
 10
2283.066604138193
 20
8.982037303060394
 10
2283.278215797579
 20
8.938790509614705
 10
2283.491387600685
 20
8.904040518355827
 10
2283.705778518098
 20
8.877842921857334
 10
2283.921045570087
 20
8.860239630684533
 10
2284.136844375287
 20
8.851258806348425
 10
2284.253435644208
 20
8.849999999998258
  0
LWPOLYLINE
  5
561
330
71
100
AcDbEntity
  8
0
100
AcDbPolyline
 90
       80
 70
   128
 43
0.0
 10
2284.253435644208
 20
8.849999999998258
 10
2284.469378048816
 20
8.854319424028911
 10
2284.684974991642
 20
8.86727078596408
 10
2284.899881563568
 20
8.888833366387471
 10
2285.113753959925
 20
8.9189726697698
 10
2285.326250030502
 20
8.957640479655591
 10
2285.537029826915
 20
9.004774935797287
 10
2285.745756146454
 20
9.06030063312005
 10
2285.952095071536
 20
9.124128742353038
 10
2286.155716503894
 20
9.196157152137516
 10
2286.356294692675
 20
9.276270632382759
 10
2286.553508755565
 20
9.364341018610446
 10
2286.747043192133
 20
9.460227416990335
 10
2286.936588388565
 20
9.563776429739164
 10
2287.121841112981
 20
9.674822400525952
 10
2287.302505000542
 20
9.793187679486095
 10
2287.478291027565
 20
9.918682907423146
 10
2287.648917973908
 20
10.05110731874356
 10
2287.814112872855
 20
10.1902490626378
 10
2287.973611447806
 20
10.33588554199764
 10
2288.127158535066
 20
10.48778376952373
 10
2288.274508492051
 20
10.64570074045548
 10
2288.415425590264
 20
10.80938382132632
 10
2288.549684392405
 20
10.97857115412398
 10
2288.677070113034
 20
11.15299207520727
 10
2288.797378962172
 20
11.33236754831079
 10
2288.910418471323
 20
11.51641061094181
 10
2289.016007801388
 20
11.70482683346068
 10
2289.113978031962
 20
11.89731479010458
 10
2289.204172431576
 20
12.093566541205
 10
2289.286446708432
 20
12.29326812582473
 10
2289.360669241236
 20
12.49610006402952
 10
2289.426721289771
 20
12.70173786798631
 10
2289.484497184847
 20
12.90985256107632
 10
2289.533904497361
 20
13.12011120418532
 10
2289.574864186147
 20
13.33217742833767
 10
2289.607310724445
 20
13.54571197281308
 10
2289.631192204712
 20
13.76037322789204
 10
2289.646470421677
 20
13.97581778135793
 10
2289.653120933451
 20
14.19170096788457
 10
2289.651133100633
 20
14.40767742042607
 10
2289.640510103334
 20
14.62340162273125
 10
2289.621268936079
 20
14.83852846209464
 10
2289.593440380634
 20
15.05271378146471
 10
2289.557068956752
 20
15.26561493002111
 10
2289.512212850952
 20
15.47689131134228
 10
2289.458943823432
 20
15.68620492828819
 10
2289.397347093276
 20
15.89322092372276
 10
2289.32752120211
 20
16.09760811621441
 10
2289.249577856466
 20
16.29903952985563
 10
2289.163641749068
 20
16.49719291735431
 10
2289.069850359357
 20
16.69175127556069
 10
2288.96835373355
 20
16.88240335260513
 10
2288.859314244595
 20
17.06884414583527
 10
2288.742906332414
 20
17.25077538975313
 10
2288.619316224835
 20
17.42790603317854
 10
2288.488741639665
 20
17.59995270486837
 10
2288.351391468386
 20
17.76664016684867
 10
2288.207485441972
 20
17.9277017547385
 10
2288.057253779367
 20
18.08287980435556
 10
2287.900936819185
 20
18.23192606392278
 10
2287.738784635215
 20
18.37460209122002
 10
2287.571056636359
 20
18.51067963503936
 10
2287.39802115164
 20
18.63994100033943
 10
2287.219955000915
 20
18.76217939650973
 10
2287.037143052045
 20
18.87719926819238
 10
2286.849877765147
 20
18.98481660812922
 10
2286.658458724735
 20
19.08485925153354
 10
2286.463192160438
 20
19.17716715151675
 10
2286.264390457104
 20
19.26159263513051
 10
2286.06237165505
 20
19.33800063961098
 10
2285.857458941265
 20
19.40626892845022
 10
2285.649980132379
 20
19.46628828694923
 10
2285.440267150224
 20
19.51796269693824
 10
2285.228655490837
 20
19.56120949038393
 10
2285.015483687732
 20
19.59595948164262
 10
2284.801092770317
 20
19.62215707814128
 10
2284.58582571833
 20
19.6397603693141
 10
2284.370026913129
 20
19.64874119365003
 10
2284.253435644208
 20
19.6500000000002
  0
LWPOLYLINE
  5
562
102
{ACAD_REACTORS
330
8FE
102
}
330
71
100
AcDbEntity
  8
0
100
AcDbPolyline
 90
       11
 70
   128
 43
0.0
 10
2284.253435644208
 20
22.39999999998815
 10
2283.927522570587
 20
22.39348086927509
 10
2283.60213088836
 20
22.37393390635441
 10
2283.277781154804
 20
22.34139038219706
 10
2282.954992260304
 20
22.29590235949956
 10
2282.63428059823
 20
22.23754260939443
 10
2282.316159238829
 20
22.16640449503228
 10
2282.001137108414
 20
22.08260182222131
 10
2281.68971817519
 20
21.98626865736037
 10
2281.38240064302
 20
21.87755911296392
 10
2281.096917939769
 20
21.7635336895305
  0
LWPOLYLINE
  5
563
330
71
100
AcDbEntity
  8
0
100
AcDbPolyline
 90
       42
 70
   128
 43
0.0
 10
2276.109953348648
 20
14.5341420670365
 10
2276.103910624345
 20
14.33798835402393
 10
2276.106910779431
 20
14.01202389324419
 10
2276.122943636468
 20
13.68644014346944
 10
2276.151983546304
 20
13.3617579692455
 10
2276.193984051281
 20
13.03849679278931
 10
2276.248877959548
 20
12.71717376302433
 10
2276.316577452561
 20
12.39830292825314
 10
2276.396974225576
 20
12.08239441378913
 10
2276.489939660905
 20
11.76995360586515
 10
2276.595325033683
 20
11.46148034312324
 10
2276.712961749794
 20
11.15746811698
 10
2276.842661615589
 20
10.85840328214465
 10
2276.984217138948
 20
10.56476427855591
 10
2277.137401861232
 20
10.2770208659798
 10
2277.301970719562
 20
9.99563337249441
 10
2277.477660438871
 20
9.721051958063126
 10
2277.664189953087
 20
9.45371589437485
 10
2277.861260854779
 20
9.194052862102919
 10
2278.068557872542
 20
8.942478266707212
 10
2278.28574937537
 20
8.699394573873632
 10
2278.512487903189
 20
8.465190665655825
 10
2278.748410722724
 20
8.240241218346341
 10
2278.99314040779
 20
8.024906103073872
 10
2279.246285443099
 20
7.819529810087487
 10
2279.507440850593
 20
7.624440897644261
 10
2279.776188837333
 20
7.43995146638764
 10
2280.052099463869
 20
7.266356660052053
 10
2280.334731332056
 20
7.103934193295684
 10
2280.623632291197
 20
6.952943907417477
 10
2280.918340161385
 20
6.813627354664903
 10
2281.218383472898
 20
6.686207411803707
 10
2281.523282220441
 20
6.570887923560118
 10
2281.832548631061
 20
6.467853376515847
 10
2282.145687944473
 20
6.37726860396674
 10
2282.462199204577
 20
6.299278522224367
 10
2282.781576060872
 20
6.234007898783032
 10
2283.103307578522
 20
6.181561152716822
 10
2283.426879055729
 20
6.142022187630741
 10
2283.751772847155
 20
6.115454257435146
 10
2284.077469192041
 20
6.101899865150016
 10
2284.253435644208
 20
6.100000000010652
  0
LWPOLYLINE
  5
564
330
71
100
AcDbEntity
  8
0
100
AcDbPolyline
 90
       35
 70
   128
 43
0.0
 10
2284.253435644208
 20
6.100000000010652
 10
2284.579348717828
 20
6.10651913072354
 10
2284.904740400056
 20
6.126066093644054
 10
2285.229090133611
 20
6.158609617801232
 10
2285.551879028113
 20
6.20409764049907
 10
2285.872590690186
 20
6.262457390604196
 10
2286.190712049586
 20
6.333595504966011
 10
2286.505734180003
 20
6.41739817777733
 10
2286.817153113226
 20
6.513731342637925
 10
2287.124470645396
 20
6.622440887034542
 10
2287.42719513402
 20
6.743352898886199
 10
2287.724842284491
 20
6.876273944766691
 10
2288.016935924866
 20
7.020991379358007
 10
2288.303008767629
 20
7.177273685636007
 10
2288.582603157257
 20
7.344870845249544
 10
2288.855271802371
 20
7.523514738494722
 10
2289.120578491305
 20
7.712919573251213
 10
2289.378098789951
 20
7.912782342187994
 10
2289.627420720768
 20
8.12278330750928
 10
2289.868145421852
 20
8.34258651246904
 10
2290.099887785031
 20
8.571840318827637
 10
2290.322277071962
 20
8.810177969399942
 10
2290.534957507226
 20
9.057218174788033
 10
2290.737588847495
 20
9.312565723361782
 10
2290.929846925852
 20
9.575812113515157
 10
2291.111424170383
 20
9.846536207180065
 10
2291.282030096231
 20
10.12430490355768
 10
2291.441391770311
 20
10.40867383198865
 10
2291.589254247937
 20
10.69918806284891
 10
2291.725380980688
 20
10.99538283534275
 10
2291.849554194831
 20
11.29678430101853
 10
2291.961575239712
 20
11.60291028182683
 10
2292.061264905555
 20
11.91327104150195
 10
2292.148463710161
 20
12.2273700690352
 10
2292.153805903046
 20
12.25010440065591
  0
LWPOLYLINE
  5
565
102
{ACAD_REACTORS
330
8FE
102
}
330
71
100
AcDbEntity
  8
0
100
AcDbPolyline
 90
       35
 70
   128
 43
0.0
 10
2292.152578222507
 20
16.24989559934306
 10
2292.109897062839
 20
16.4176055862095
 10
2292.016931627511
 20
16.73004639413363
 10
2291.911546254733
 20
17.03851965687522
 10
2291.793909538621
 20
17.34253188301846
 10
2291.664209672827
 20
17.64159671785381
 10
2291.522654149468
 20
17.93523572144272
 10
2291.369469427184
 20
18.22297913401881
 10
2291.204900568855
 20
18.50436662750422
 10
2291.029210849545
 20
18.7789480419355
 10
2290.842681335329
 20
19.04628410562378
 10
2290.645610433637
 20
19.30594713789571
 10
2290.438313415874
 20
19.55752173329159
 10
2290.221121913047
 20
19.800605426125
 10
2289.994383385227
 20
20.03480933434264
 10
2289.758460565692
 20
20.25975878165212
 10
2289.513730880626
 20
20.47509389692459
 10
2289.260585845318
 20
20.68047018991097
 10
2288.999430437823
 20
20.8755591023542
 10
2288.730682451083
 20
21.06004853361099
 10
2288.454771824547
 20
21.23364333994675
 10
2288.17213995636
 20
21.39606580670278
 10
2287.88323899722
 20
21.54705609258114
 10
2287.588531127031
 20
21.68637264533356
 10
2287.288487815518
 20
21.81379258819493
 10
2286.983589067975
 20
21.92911207643835
 10
2286.674322657356
 20
22.03214662348245
 10
2286.361183343943
 20
22.1227313960319
 10
2286.04467208384
 20
22.20072147777427
 10
2285.725295227544
 20
22.26599210121543
 10
2285.403563709895
 20
22.31843884728181
 10
2285.079992232688
 20
22.35797781236772
 10
2284.755098441261
 20
22.38454574256365
 10
2284.429402096376
 20
22.39810013484845
 10
2284.253435644208
 20
22.39999999998815
  0
LINE
  5
566
102
{ACAD_REACTORS
330
8FE
102
}
330
71
100
AcDbEntity
  8
0
100
AcDbLine
 10
2276.103435644208
 20
34.25000000000006
 30
0.0
 11
2276.103435644208
 21
21.70000000000311
 31
0.0
  0
LINE
  5
567
102
{ACAD_REACTORS
330
8FE
102
}
330
71
100
AcDbEntity
  8
0
100
AcDbLine
 10
2281.103435644208
 20
21.75607111739236
 30
0.0
 11
2281.103435644208
 21
34.25000000000006
 31
0.0
  0
LWPOLYLINE
  5
568
102
{ACAD_REACTORS
330
8FE
102
}
330
71
100
AcDbEntity
  8
0
100
AcDbPolyline
 90
       41
 70
   128
 43
0.0
 10
2282.603435644208
 20
40.75000000000009
 10
2282.343504971995
 20
40.74480069329633
 10
2282.08399013341
 20
40.72921109096704
 10
2281.825306296831
 20
40.70325613305004
 10
2281.567867301216
 20
40.66697734194145
 10
2281.31208499404
 20
40.62043275596812
 10
2281.058368572432
 20
40.56369683653835
 10
2280.807123928541
 20
40.49686034902006
 10
2280.558753000204
 20
40.42003021753589
 10
2280.31365312792
 20
40.33332935390649
 10
2280.072216419202
 20
40.2368964610187
 10
2279.834829121279
 20
40.13088581092964
 10
2279.601871003189
 20
40.0154669980654
 10
2279.373714748224
 20
39.89082466790494
 10
2279.150725357723
 20
39.75715822158718
 10
2278.93325956714
 20
39.61468149691297
 10
2278.721665275353
 20
39.46362242624786
 10
2278.516280988088
 20
39.30422267188118
 10
2278.317435276393
 20
39.13673723941587
 10
2278.125446250991
 20
38.96143406981594
 10
2277.940621053361
 20
38.7785936107565
 10
2277.763255364398
 20
38.58850836796853
 10
2277.593632931365
 20
38.39148243729079
 10
2277.432025113972
 20
38.18783101818251
 10
2277.278690450252
 20
37.97787990947091
 10
2277.133874242957
 20
37.76196498814293
 10
2276.997808167127
 20
37.54043167201309
 10
2276.870709899456
 20
37.31363436712932
 10
2276.752782770061
 20
37.08193590079873
 10
2276.644215437192
 20
36.84570694114081
 10
2276.545181585421
 20
36.60532540409838
 10
2276.455839647786
 20
36.36117584885216
 10
2276.376332552328
 20
36.11364886260775
 10
2276.30678749344
 20
35.86314043574049
 10
2276.247315728379
 20
35.61005132829432
 10
2276.198012399284
 20
35.35478642885147
 10
2276.158956380962
 20
35.09775410679799
 10
2276.130210154713
 20
34.83936555901806
 10
2276.111819708367
 20
34.58003415206832
 10
2276.103814462715
 20
34.32017476087878
 10
2276.103435644208
 20
34.25000000000006
  0
LWPOLYLINE
  5
569
102
{ACAD_REACTORS
330
8FE
102
}
330
71
100
AcDbEntity
  8
0
100
AcDbPolyline
 90
       41
 70
   128
 43
0.0
 10
2281.103435644208
 20
34.25000000000006
 10
2281.104635484217
 20
34.30998400128004
 10
2281.108233084754
 20
34.36987204095379
 10
2281.114222690427
 20
34.42956831093324
 10
2281.122594719144
 20
34.48897730992138
 10
2281.133335777447
 20
34.54800399619261
 10
2281.14642868193
 20
34.60655393964072
 10
2281.161852486742
 20
34.66453347284613
 10
2281.179582517085
 20
34.72184984092417
 10
2281.199590408691
 20
34.77841134991257
 10
2281.221844153204
 20
34.83412751346288
 10
2281.246308149379
 20
34.88890919759905
 10
2281.27294326004
 20
34.94266876331238
 10
2281.301706874693
 20
34.99532020676566
 10
2281.332552977688
 20
35.04677929688137
 10
2281.365432221844
 20
35.09696371009255
 10
2281.400292007382
 20
35.14579316204362
 10
2281.437076566082
 20
35.19318953602777
 10
2281.475727050497
 20
35.23907700795724
 10
2281.516181628097
 20
35.28338216766582
 10
2281.558375580188
 20
35.3260341363494
 10
2281.602241405447
 20
35.36696467995637
 10
2281.64770892791
 20
35.40610831834857
 10
2281.694705409243
 20
35.44340243005456
 10
2281.743155665099
 20
35.47878735245155
 10
2281.792982185407
 20
35.51220647721186
 10
2281.844105258359
 20
35.5436063408651
 10
2281.896443097948
 20
35.57293671032756
 10
2281.949911974793
 20
35.6001506632648
 10
2282.004426350098
 20
35.62520466315755
 10
2282.059899012493
 20
35.64805862895099
 10
2282.11624121755
 20
35.66867599917435
 10
2282.173362829761
 20
35.68702379043378
 10
2282.23117246673
 20
35.7030726501775
 10
2282.289577645371
 20
35.71679690365312
 10
2282.348484929858
 20
35.72817459498287
 10
2282.407800081101
 20
35.73718752228764
 10
2282.467428207512
 20
35.74382126680649
 10
2282.527273916808
 20
35.74806521596328
 10
2282.587241468621
 20
35.7499125803451
 10
2282.603435644208
 20
35.75000000000006
  0
LINE
  5
56A
102
{ACAD_REACTORS
330
8FE
102
}
330
71
100
AcDbEntity
  8
0
100
AcDbLine
 10
2313.003435644208
 20
40.75000000000009
 30
0.0
 11
2282.603435644208
 21
40.75000000000009
 31
0.0
  0
LINE
  5
56B
102
{ACAD_REACTORS
330
8FE
102
}
330
71
100
AcDbEntity
  8
0
100
AcDbLine
 10
2282.603435644208
 20
35.75000000000006
 30
0.0
 11
2313.003435644208
 21
35.75000000000006
 31
0.0
  0
LWPOLYLINE
  5
56C
102
{ACAD_REACTORS
330
8FE
102
}
330
71
100
AcDbEntity
  8
0
100
AcDbPolyline
 90
       41
 70
   128
 43
0.0
 10
2313.003435644208
 20
35.75000000000006
 10
2313.263366316421
 20
35.75519930670367
 10
2313.522881155008
 20
35.77078890903294
 10
2313.781564991586
 20
35.79674386694995
 10
2314.039003987201
 20
35.83302265805837
 10
2314.294786294376
 20
35.87956724403188
 10
2314.548502715984
 20
35.93630316346179
 10
2314.799747359875
 20
36.00313965098008
 10
2315.048118288213
 20
36.07996978246428
 10
2315.293218160496
 20
36.16667064609334
 10
2315.534654869214
 20
36.26310353898129
 10
2315.772042167137
 20
36.36911418907015
 10
2316.005000285228
 20
36.48453300193472
 10
2316.233156540192
 20
36.60917533209522
 10
2316.456145930694
 20
36.7428417784128
 10
2316.673611721276
 20
36.88531850308705
 10
2316.885206013064
 20
37.03637757375214
 10
2317.090590300328
 20
37.19577732811899
 10
2317.289436012023
 20
37.36326276058412
 10
2317.481425037426
 20
37.53856593018424
 10
2317.666250235055
 20
37.7214063892435
 10
2317.843615924019
 20
37.91149163203146
 10
2318.013238357051
 20
38.10851756270937
 10
2318.174846174445
 20
38.31216898181747
 10
2318.328180838165
 20
38.52212009052909
 10
2318.47299704546
 20
38.73803501185721
 10
2318.609063121289
 20
38.95956832798709
 10
2318.73616138896
 20
39.18636563287082
 10
2318.854088518355
 20
39.41806409920145
 10
2318.962655851224
 20
39.65429305885937
 10
2319.061689702995
 20
39.89467459590161
 10
2319.15103164063
 20
40.138824151148
 10
2319.230538736088
 20
40.3863511373922
 10
2319.300083794977
 20
40.63685956425968
 10
2319.359555560037
 20
40.88994867170582
 10
2319.408858889133
 20
41.14521357114853
 10
2319.447914907454
 20
41.402245893202
 10
2319.476661133703
 20
41.6606344409821
 10
2319.49505158005
 20
41.91996584793168
 10
2319.503056825703
 20
42.17982523912136
 10
2319.503435644208
 20
42.25000000000011
  0
LWPOLYLINE
  5
56D
102
{ACAD_REACTORS
330
8FE
102
}
330
71
100
AcDbEntity
  8
0
100
AcDbPolyline
 90
       41
 70
   128
 43
0.0
 10
2314.503435644208
 20
42.25000000000011
 10
2314.5022358042
 20
42.19001599872011
 10
2314.498638203662
 20
42.1301279590462
 10
2314.492648597989
 20
42.07043168906657
 10
2314.484276569272
 20
42.0110226900786
 10
2314.47353551097
 20
41.95199600380735
 10
2314.460442606486
 20
41.89344606035928
 10
2314.445018801674
 20
41.83546652715387
 10
2314.427288771332
 20
41.778150159076
 10
2314.407280879725
 20
41.72158865008724
 10
2314.385027135212
 20
41.66587248653693
 10
2314.360563139038
 20
41.61109080240112
 10
2314.333928028377
 20
41.55733123668778
 10
2314.305164413724
 20
41.5046797932345
 10
2314.274318310728
 20
41.4532207031188
 10
2314.241439066573
 20
41.40303628990743
 10
2314.206579281035
 20
41.35420683795635
 10
2314.169794722334
 20
41.30681046397238
 10
2314.131144237919
 20
41.26092299204294
 10
2314.090689660319
 20
41.21661783233435
 10
2314.048495708229
 20
41.17396586365077
 10
2314.00462988297
 20
41.13303532004379
 10
2313.959162360506
 20
41.0938916816516
 10
2313.912165879173
 20
41.05659756994543
 10
2313.863715623317
 20
41.02121264754845
 10
2313.81388910301
 20
40.98779352278813
 10
2313.762766030057
 20
40.95639365913505
 10
2313.710428190469
 20
40.92706328967262
 10
2313.656959313624
 20
40.89984933673536
 10
2313.602444938318
 20
40.87479533684228
 10
2313.546972275923
 20
40.85194137104918
 10
2313.490630070866
 20
40.83132400082582
 10
2313.433508458656
 20
40.81297620956603
 10
2313.375698821687
 20
40.79692734982268
 10
2313.317293643045
 20
40.78320309634704
 10
2313.258386358558
 20
40.7718254050173
 10
2313.199071207316
 20
40.76281247771254
 10
2313.139443080904
 20
40.75617873319368
 10
2313.079597371609
 20
40.75193478403654
 10
2313.019629819795
 20
40.75008741965507
 10
2313.003435644208
 20
40.75000000000009
  0
LINE
  5
56E
102
{ACAD_REACTORS
330
8FE
102
}
330
71
100
AcDbEntity
  8
0
100
AcDbLine
 10
2314.503435644208
 20
128.8750000000004
 30
0.0
 11
2314.503435644208
 21
42.25000000000011
 31
0.0
  0
LINE
  5
56F
102
{ACAD_REACTORS
330
8FE
102
}
330
71
100
AcDbEntity
  8
0
100
AcDbLine
 10
2319.503435644208
 20
42.25000000000011
 30
0.0
 11
2319.503435644208
 21
128.8750000000004
 31
0.0
  0
LINE
  5
572
330
71
100
AcDbEntity
  8
0
100
AcDbLine
 10
2276.103435644208
 20
21.69999999999953
 30
0.0
 11
2276.103435644208
 21
14.24999999999966
 31
0.0
  0
LINE
  5
57B
330
71
100
AcDbEntity
  8
0
100
AcDbLine
 10
2246.003435644243
 20
191.4999999999976
 30
0.0
 11
2388.003435644243
 21
191.4999999999972
 31
0.0
  0
LINE
  5
57C
330
71
100
AcDbEntity
  8
0
100
AcDbLine
 10
2388.003435644243
 20
150.7450353879068
 30
0.0
 11
2246.003435644243
 21
150.7450353879073
 31
0.0
  0
LINE
  5
57D
330
71
100
AcDbEntity
  8
0
100
AcDbLine
 10
2246.003435644243
 20
191.4999999999976
 30
0.0
 11
2246.003435644243
 21
150.7450353879073
 31
0.0
  0
LINE
  5
57E
330
71
100
AcDbEntity
  8
0
100
AcDbLine
 10
2388.003435644243
 20
150.7450353879068
 30
0.0
 11
2388.003435644243
 21
191.4999999999972
 31
0.0
  0
LWPOLYLINE
  5
57F
330
71
100
AcDbEntity
  8
0
100
AcDbPolyline
 90
       41
 70
   128
 43
0.0
 10
2383.753435644205
 20
194.5000000000013
 10
2383.755835324222
 20
194.3800319974413
 10
2383.763030525297
 20
194.2602559180938
 10
2383.775009736643
 20
194.1408633781344
 10
2383.791753794078
 20
194.0220453801585
 10
2383.813235910681
 20
193.9039920076161
 10
2383.839421719649
 20
193.7868921207199
 10
2383.870269329272
 20
193.6709330543088
 10
2383.905729389957
 20
193.5563003181529
 10
2383.94574517317
 20
193.4431773001759
 10
2383.990252662196
 20
193.3317449730751
 10
2384.039180654545
 20
193.2221816048031
 10
2384.092450875867
 20
193.1146624733768
 10
2384.149978105172
 20
193.0093595864699
 10
2384.211670311165
 20
192.9064414062385
 10
2384.277428799476
 20
192.8060725798161
 10
2384.347148370552
 20
192.708413675914
 10
2384.420717487952
 20
192.6136209279457
 10
2384.498018456782
 20
192.5218459840867
 10
2384.578927611983
 20
192.4332356646696
 10
2384.663315516163
 20
192.3479317273026
 10
2384.75104716668
 20
192.2660706400885
 10
2384.841982211609
 20
192.1877833633044
 10
2384.935975174274
 20
192.113195139892
 10
2385.032875685987
 20
192.0424252950983
 10
2385.1325287266
 20
191.9755870455776
 10
2385.234774872507
 20
191.9127873182711
 10
2385.339450551684
 20
191.8541265793464
 10
2385.446388305375
 20
191.7996986734716
 10
2385.555417055986
 20
191.7495906736859
 10
2385.666362380774
 20
191.7038827420995
 10
2385.779046790888
 20
191.6626480016527
 10
2385.893290015308
 20
191.6259524191336
 10
2386.008909289248
 20
191.5938546996464
 10
2386.12571964653
 20
191.5664061926953
 10
2386.243534215504
 20
191.5436508100358
 10
2386.36216451799
 20
191.5256249554261
 10
2386.481420770812
 20
191.5123574663882
 10
2386.601112189404
 20
191.5038695680745
 10
2386.72104729303
 20
191.5001748393113
 10
2386.753435644205
 20
191.5000000000013
  0
LWPOLYLINE
  5
580
330
71
100
AcDbEntity
  8
0
100
AcDbPolyline
 90
       41
 70
   128
 43
0.0
 10
2247.253435644205
 20
191.4999999999994
 10
2247.373403646764
 20
191.5023996800163
 10
2247.493179726112
 20
191.5095948810915
 10
2247.612572266072
 20
191.5215740924378
 10
2247.731390264047
 20
191.5383181498724
 10
2247.84944363659
 20
191.5598002664755
 10
2247.966543523486
 20
191.5859860754433
 10
2248.082502589896
 20
191.616833685067
 10
2248.197135326053
 20
191.6522937457521
 10
2248.31025834403
 20
191.6923095289656
 10
2248.42169067113
 20
191.7368170179906
 10
2248.531254039403
 20
191.7857450103394
 10
2248.638773170829
 20
191.8390152316615
 10
2248.744076057736
 20
191.8965424609664
 10
2248.846994237968
 20
191.958234666959
 10
2248.94736306439
 20
192.0239931552703
 10
2249.045021968292
 20
192.0937127263464
 10
2249.13981471626
 20
192.1672818437467
 10
2249.231589660119
 20
192.2445828125768
 10
2249.320199979536
 20
192.3254919677765
 10
2249.405503916903
 20
192.4098798719577
 10
2249.487365004117
 20
192.4976115224754
 10
2249.565652280901
 20
192.5885465674036
 10
2249.640240504314
 20
192.682539530069
 10
2249.711010349108
 20
192.7794400417819
 10
2249.777848598629
 20
192.8790930823948
 10
2249.840648325934
 20
192.9813392283011
 10
2249.89930906486
 20
193.0860149074783
 10
2249.953736970734
 20
193.1929526611691
 10
2250.00384497052
 20
193.3019814117805
 10
2250.049552902106
 20
193.4129267365694
 10
2250.090787642553
 20
193.5256111466831
 10
2250.127483225072
 20
193.6398543711035
 10
2250.15958094456
 20
193.7554736450422
 10
2250.187029451511
 20
193.872284002325
 10
2250.20978483417
 20
193.9900985712986
 10
2250.227810688779
 20
194.108728873785
 10
2250.241078177818
 20
194.2279851266064
 10
2250.249566076131
 20
194.3476765451986
 10
2250.253260804894
 20
194.4676116488246
 10
2250.253435644205
 20
194.4999999999992
  0
LINE
  5
581
330
71
100
AcDbEntity
  8
0
100
AcDbLine
 10
2383.753435644205
 20
194.5000000000013
 30
0.0
 11
2383.753435644204
 21
204.1250000000012
 31
0.0
  0
LINE
  5
582
330
71
100
AcDbEntity
  8
0
100
AcDbLine
 10
2250.253435644204
 20
204.1249999999994
 30
0.0
 11
2250.253435644205
 21
194.4999999999992
 31
0.0
  0
LINE
  5
583
330
71
100
AcDbEntity
  8
0
100
AcDbLine
 10
2385.253435644204
 20
204.1250000000012
 30
0.0
 11
2385.253435644204
 21
204.3750000000013
 31
0.0
  0
LINE
  5
584
330
71
100
AcDbEntity
  8
0
100
AcDbLine
 10
2248.753435644204
 20
204.3749999999993
 30
0.0
 11
2248.753435644204
 21
204.1249999999994
 31
0.0
  0
LINE
  5
585
330
71
100
AcDbEntity
  8
0
100
AcDbLine
 10
2385.253435644204
 20
204.3750000000013
 30
0.0
 11
2320.003435644204
 21
215.5000000000005
 31
0.0
  0
LINE
  5
586
330
71
100
AcDbEntity
  8
0
100
AcDbLine
 10
2314.003435644204
 20
215.5000000000002
 30
0.0
 11
2248.753435644204
 21
204.3749999999993
 31
0.0
  0
LINE
  5
587
330
71
100
AcDbEntity
  8
0
100
AcDbLine
 10
2385.191940087674
 20
204.1250000000009
 30
0.0
 11
2317.003435644205
 21
204.125
 31
0.0
  0
LINE
  5
588
330
71
100
AcDbEntity
  8
0
100
AcDbLine
 10
2317.003435644205
 20
204.125
 30
0.0
 11
2248.814931200735
 21
204.124999999999
 31
0.0
  0
LINE
  5
589
330
71
100
AcDbEntity
  8
0
100
AcDbLine
 10
2385.191940087674
 20
204.3750000000009
 30
0.0
 11
2317.003435644205
 21
204.375
 31
0.0
  0
LINE
  5
58A
330
71
100
AcDbEntity
  8
0
100
AcDbLine
 10
2317.003435644205
 20
204.375
 30
0.0
 11
2248.814931200735
 21
204.3749999999991
 31
0.0
  0
LINE
  5
58B
330
71
100
AcDbEntity
  8
0
100
AcDbLine
 10
2320.003435644204
 20
215.5000000000001
 30
0.0
 11
2317.003435644204
 21
215.5
 31
0.0
  0
LINE
  5
58C
330
71
100
AcDbEntity
  8
0
100
AcDbLine
 10
2317.003435644204
 20
215.5
 30
0.0
 11
2314.003435644204
 21
215.5
 31
0.0
  0
LINE
  5
58D
330
71
100
AcDbEntity
  8
0
100
AcDbLine
 10
2246.00343564421
 20
150.5
 30
0.0
 11
2388.00343564421
 21
150.5
 31
0.0
  0
LINE
  5
58E
330
71
100
AcDbEntity
  8
0
100
AcDbLine
 10
2388.00343564421
 20
69.625
 30
0.0
 11
2319.503435644208
 21
69.625
 31
0.0
  0
LINE
  5
58F
330
71
100
AcDbEntity
  8
0
100
AcDbLine
 10
2314.503435644208
 20
69.625
 30
0.0
 11
2246.00343564421
 21
69.625
 31
0.0
  0
LINE
  5
590
330
71
100
AcDbEntity
  8
0
100
AcDbLine
 10
2388.00343564421
 20
150.5
 30
0.0
 11
2388.00343564421
 21
69.625
 31
0.0
  0
LINE
  5
591
330
71
100
AcDbEntity
  8
0
100
AcDbLine
 10
2246.00343564421
 20
69.625
 30
0.0
 11
2246.00343564421
 21
150.5
 31
0.0
  0
LINE
  5
595
330
71
100
AcDbEntity
  8
0
100
AcDbLine
 10
2246.003435644208
 20
69.625
 30
0.0
 11
2314.503435644208
 21
69.625
 31
0.0
  0
LINE
  5
596
330
71
100
AcDbEntity
  8
0
100
AcDbLine
 10
2319.503435644208
 20
69.625
 30
0.0
 11
2388.003435644209
 21
69.625
 31
0.0
  0
LINE
  5
597
330
71
100
AcDbEntity
  8
0
100
AcDbLine
 10
2388.003435644209
 20
0.0
 30
0.0
 11
2246.003435644208
 21
0.0
 31
0.0
  0
LINE
  5
598
330
71
100
AcDbEntity
  8
0
100
AcDbLine
 10
2246.003435644208
 20
69.625
 30
0.0
 11
2246.003435644208
 21
63.75000000000017
 31
0.0
  0
LINE
  5
599
102
{ACAD_REACTORS
330
8FE
102
}
330
71
100
AcDbEntity
  8
0
100
AcDbLine
 10
2246.003435644208
 20
63.75000000000017
 30
0.0
 11
2314.503435644208
 21
63.75000000000017
 31
0.0
  0
LINE
  5
59A
102
{ACAD_REACTORS
330
8FE
102
}
330
71
100
AcDbEntity
  8
0
100
AcDbLine
 10
2319.503435644208
 20
63.75000000000017
 30
0.0
 11
2388.003435644209
 21
63.75000000000017
 31
0.0
  0
LINE
  5
59B
102
{ACAD_REACTORS
330
8FE
102
}
330
71
100
AcDbEntity
  8
0
100
AcDbLine
 10
2388.003435644209
 20
21.74999999999974
 30
0.0
 11
2287.430346514749
 21
21.74999999999974
 31
0.0
  0
LINE
  5
59C
102
{ACAD_REACTORS
330
8FE
102
}
330
71
100
AcDbEntity
  8
0
100
AcDbLine
 10
2276.103473545621
 20
21.74999999999974
 30
0.0
 11
2246.003435644208
 21
21.74999999999974
 31
0.0
  0
LINE
  5
59D
330
71
100
AcDbEntity
  8
0
100
AcDbLine
 10
2246.003435644208
 20
21.74999999999974
 30
0.0
 11
2246.003435644208
 21
0.0
 31
0.0
  0
LINE
  5
59E
330
71
100
AcDbEntity
  8
0
100
AcDbLine
 10
2388.003435644209
 20
63.75000000000017
 30
0.0
 11
2388.003435644209
 21
69.625
 31
0.0
  0
LINE
  5
59F
330
71
100
AcDbEntity
  8
0
100
AcDbLine
 10
2388.003435644209
 20
0.0
 30
0.0
 11
2388.003435644209
 21
21.74999999999975
 31
0.0
  0
LINE
  5
5A0
330
71
100
AcDbEntity
  8
0
100
AcDbLine
 10
2387.003435644208
 20
21.74999999999976
 30
0.0
 11
2387.003435644208
 21
63.75000000000018
 31
0.0
  0
LINE
  5
5A1
330
71
100
AcDbEntity
  8
0
100
AcDbLine
 10
2385.628435644209
 20
63.75000000000017
 30
0.0
 11
2385.628435644209
 21
21.74999999999975
 31
0.0
  0
LINE
  5
5A2
102
{ACAD_REACTORS
330
8FE
102
}
330
71
100
AcDbEntity
  8
0
100
AcDbLine
 10
2382.253435644209
 20
63.75000000000017
 30
0.0
 11
2382.253435644209
 21
21.74999999999975
 31
0.0
  0
LINE
  5
5A3
102
{ACAD_REACTORS
330
8FE
102
}
330
71
100
AcDbEntity
  8
0
100
AcDbLine
 10
2318.753435644208
 20
39.2321216359604
 30
0.0
 11
2318.753435644208
 21
21.74999999999975
 31
0.0
  0
LINE
  5
5A4
102
{ACAD_REACTORS
330
8FE
102
}
330
71
100
AcDbEntity
  8
0
100
AcDbLine
 10
2315.253435644208
 20
21.74999999999975
 30
0.0
 11
2315.253435644208
 21
36.15312749742418
 31
0.0
  0
LINE
  5
5A5
102
{ACAD_REACTORS
330
8FE
102
}
330
71
100
AcDbEntity
  8
0
100
AcDbLine
 10
2251.753435644209
 20
63.75000000000017
 30
0.0
 11
2251.753435644209
 21
21.74999999999975
 31
0.0
  0
LINE
  5
5A6
330
71
100
AcDbEntity
  8
0
100
AcDbLine
 10
2248.378435644208
 20
63.75000000000017
 30
0.0
 11
2248.378435644208
 21
21.74999999999975
 31
0.0
  0
LINE
  5
5A7
330
71
100
AcDbEntity
  8
0
100
AcDbLine
 10
2247.003435644209
 20
63.75000000000018
 30
0.0
 11
2247.003435644209
 21
21.74999999999976
 31
0.0
  0
ARC
  5
5A8
330
71
100
AcDbEntity
  8
0
100
AcDbCircle
 10
2329.128435644207
 20
18.25
 30
0.0
 40
1.500000000000024
100
AcDbArc
 50
359.9999999999984
 51
179.9999999999984
  0
ARC
  5
5A9
330
71
100
AcDbEntity
  8
0
100
AcDbCircle
 10
2329.128435644207
 20
18.25
 30
0.0
 40
1.499999999999974
100
AcDbArc
 50
180.0000000000012
 51
0.0000000000008142
  0
ARC
  5
5AA
330
71
100
AcDbEntity
  8
0
100
AcDbCircle
 10
2254.253435644208
 20
7.125
 30
0.0
 40
0.9999999999999978
100
AcDbArc
 50
359.9999999999996
 51
179.9999999999996
  0
ARC
  5
5AB
330
71
100
AcDbEntity
  8
0
100
AcDbCircle
 10
2254.253435644208
 20
7.125
 30
0.0
 40
1.0
100
AcDbArc
 50
180.0
 51
359.9999999999992
  0
ARC
  5
5AC
102
{ACAD_REACTORS
330
8FE
102
}
330
71
100
AcDbEntity
  8
0
100
AcDbCircle
 10
2377.503435644207
 20
27.25
 30
0.0
 40
0.7499999999999984
100
AcDbArc
 50
359.9999999999996
 51
179.9999999999996
  0
ARC
  5
5AD
102
{ACAD_REACTORS
330
8FE
102
}
330
71
100
AcDbEntity
  8
0
100
AcDbCircle
 10
2377.503435644207
 20
27.25
 30
0.0
 40
0.7500000000000018
100
AcDbArc
 50
180.0
 51
359.9999999999992
  0
ARC
  5
5AE
330
71
100
AcDbEntity
  8
0
100
AcDbCircle
 10
2282.628435644208
 20
132.25
 30
0.0
 40
2.000000000000014
100
AcDbArc
 50
359.9999999999992
 51
179.9999999999988
  0
ARC
  5
5AF
330
71
100
AcDbEntity
  8
0
100
AcDbCircle
 10
2282.628435644208
 20
132.25
 30
0.0
 40
1.999999999999956
100
AcDbArc
 50
180.0000000000004
 51
0.0000000000004071
  0
ARC
  5
5B0
330
71
100
AcDbEntity
  8
0
100
AcDbCircle
 10
2282.628435644208
 20
83.625
 30
0.0
 40
2.000000000000014
100
AcDbArc
 50
359.9999999999992
 51
179.9999999999992
  0
ARC
  5
5B1
330
71
100
AcDbEntity
  8
0
100
AcDbCircle
 10
2282.628435644208
 20
83.625
 30
0.0
 40
1.999999999999968
100
AcDbArc
 50
180.0000000000004
 51
0.0000000000004071
  0
ARC
  5
5B2
330
71
100
AcDbEntity
  8
0
100
AcDbCircle
 10
2351.378435644208
 20
132.25
 30
0.0
 40
2.0
100
AcDbArc
 50
0.0
 51
179.9999999999992
  0
ARC
  5
5B3
330
71
100
AcDbEntity
  8
0
100
AcDbCircle
 10
2351.378435644208
 20
132.25
 30
0.0
 40
2.000000000000024
100
AcDbArc
 50
180.0
 51
0.0
  0
ARC
  5
5B4
330
71
100
AcDbEntity
  8
0
100
AcDbCircle
 10
2351.378435644208
 20
83.625
 30
0.0
 40
2.0
100
AcDbArc
 50
0.0
 51
179.9999999999996
  0
ARC
  5
5B5
330
71
100
AcDbEntity
  8
0
100
AcDbCircle
 10
2351.378435644208
 20
83.625
 30
0.0
 40
2.00000000000003
100
AcDbArc
 50
180.0
 51
359.9999999999992
  0
ARC
  5
5BD
330
71
100
AcDbEntity
  8
0
100
AcDbCircle
 10
2317.003435644206
 20
140.8750000000035
 30
0.0
 40
2.5
100
AcDbArc
 50
0.0
 51
180.0
  0
ARC
  5
5BE
330
71
100
AcDbEntity
  8
0
100
AcDbCircle
 10
2123.538332934481
 20
447.8348351414799
 30
0.0
 40
2.5
100
AcDbArc
 50
270.0
 51
90.0
  0
HATCH
  5
8FE
330
71
100
AcDbEntity
  8
0
100
AcDbHatch
 10
0.0
 20
0.0
 30
0.0
210
0.0
220
0.0
230
1.0
  2
HONEY
 70
     0
 71
     1
 91
        9
 92
        7
 72
     0
 73
     1
 93
        4
 10
1671.020183530033
 20
63.75000000000087
 10
1607.520183530033
 20
63.75000000000087
 10
1607.520183530033
 20
21.75000000000045
 10
1671.020183530033
 20
21.75000000000045
 97
        4
330
476
330
480
330
477
330
47F
 92
        7
 72
     0
 73
     1
 93
        4
 10
1738.020183530032
 20
63.75000000000087
 10
1674.520183530033
 20
63.75000000000087
 10
1674.520183530033
 20
21.75000000000045
 10
1738.020183530032
 20
21.75000000000045
 97
        4
330
476
330
47E
330
477
330
47D
 92
        7
 72
     0
 73
     1
 93
        4
 10
1956.913332934481
 20
63.75000000000063
 10
1880.538332934481
 20
63.75000000000085
 10
1880.53833293448
 20
21.75000000000043
 10
1956.913332934481
 20
21.75000000000021
 97
        4
330
4E8
330
4F4
330
4E9
330
4F3
 92
        7
 72
     0
 73
     1
 93
        4
 10
2028.913332934481
 20
63.75000000000042
 10
1960.413332934481
 20
63.75000000000062
 10
1960.413332934481
 20
21.75000000000019
 10
2028.913332934481
 20
21.74999999999999
 97
        4
330
4E8
330
4F2
330
4E9
330
4F0
 92
        7
 72
     0
 73
     1
 93
        4
 10
2108.78833293448
 20
63.75000000000018
 10
2032.413332934481
 20
63.75000000000041
 10
2032.413332934481
 20
21.74999999999998
 10
2108.78833293448
 20
21.74999999999975
 97
        4
330
4E8
330
4EE
330
4E9
330
4ED
 92
        7
 72
     0
 73
     1
 93
       55
 10
2314.503435644208
 20
63.75000000000017
 10
2251.753435644209
 20
63.75000000000017
 10
2251.753435644209
 20
21.74999999999974
 10
2276.103435644208
 20
21.74999999999974
 10
2276.103435644208
 20
34.73236550593345
 10
2276.256753055993
 20
35.74136570757709
 10
2276.575419144126
 20
36.73345900389914
 10
2277.048073525387
 20
37.66211126402219
 10
2277.662642038841
 20
38.50359966363542
 10
2278.403425265526
 20
39.23642801695175
 10
2279.251499576966
 20
39.84187590620848
 10
2280.18520054749
 20
40.30447690278021
 10
2281.180676381246
 20
40.61241366377308
 10
2282.157006824634
 20
40.75000000000009
 10
2313.003435644208
 20
40.75000000000009
 10
2313.019629819795
 20
40.75008741965507
 10
2313.079597371609
 20
40.75193478403654
 10
2313.139443080904
 20
40.75617873319365
 10
2313.199071207316
 20
40.76281247771254
 10
2313.258386358558
 20
40.77182540501728
 10
2313.317293643045
 20
40.783203096347
 10
2313.375698821687
 20
40.79692734982261
 10
2313.433508458656
 20
40.81297620956592
 10
2313.490630070866
 20
40.83132400082557
 10
2313.546972275924
 20
40.85194137104918
 10
2313.602444938318
 20
40.87479533684219
 10
2313.656959313625
 20
40.89984933673554
 10
2313.710428190471
 20
40.92706328967303
 10
2313.762766030056
 20
40.9563936591349
 10
2313.813889103009
 20
40.98779352278671
 10
2313.863715623316
 20
41.02121264754828
 10
2313.912165879173
 20
41.05659756994597
 10
2313.959162360506
 20
41.09389168165131
 10
2314.00462988297
 20
41.13303532004309
 10
2314.048495708227
 20
41.17396586364997
 10
2314.090689660319
 20
41.21661783233302
 10
2314.13114423792
 20
41.26092299204373
 10
2314.169794722333
 20
41.30681046397208
 10
2314.206579281035
 20
41.35420683795663
 10
2314.241439066572
 20
41.40303628990677
 10
2314.274318310729
 20
41.45322070311965
 10
2314.305164413725
 20
41.50467979323418
 10
2314.333928028377
 20
41.55733123668949
 10
2314.36056313904
 20
41.61109080240385
 10
2314.385027135212
 20
41.66587248653439
 10
2314.407280879724
 20
41.7215886500889
 10
2314.427288771332
 20
41.77815015907601
 10
2314.445018801673
 20
41.83546652715092
 10
2314.460442606485
 20
41.89344606035548
 10
2314.47353551097
 20
41.95199600380498
 10
2314.484276569272
 20
42.01102269007932
 10
2314.492648597989
 20
42.07043168906657
 10
2314.498638203662
 20
42.13012795904577
 10
2314.5022358042
 20
42.19001599871957
 10
2314.503435644208
 20
42.2499999999991
 97
        8
330
599
330
5A5
330
59C
330
566
330
568
330
56A
330
56D
330
56E
 92
        7
 72
     0
 73
     1
 93
       74
 10
2315.253435644208
 20
36.15259810298103
 10
2315.048118288213
 20
36.07996978246433
 10
2314.799747359875
 20
36.00313965098017
 10
2314.548502715984
 20
35.93630316346173
 10
2314.294786294377
 20
35.87956724403195
 10
2314.039003987201
 20
35.83302265805824
 10
2313.781564991586
 20
35.79674386694998
 10
2313.522881155008
 20
35.77078890903294
 10
2313.263366316421
 20
35.75519930670367
 10
2313.003435644208
 20
35.75000000000006
 10
2282.603435644208
 20
35.75000000000006
 10
2282.587241468621
 20
35.7499125803451
 10
2282.527273916808
 20
35.74806521596328
 10
2282.467428207512
 20
35.74382126680649
 10
2282.407800081101
 20
35.73718752228767
 10
2282.348484929858
 20
35.72817459498296
 10
2282.289577645371
 20
35.71679690365311
 10
2282.23117246673
 20
35.70307265017742
 10
2282.173362829762
 20
35.68702379043374
 10
2282.116241217551
 20
35.66867599917448
 10
2282.059899012494
 20
35.64805862895105
 10
2282.0044263501
 20
35.62520466315792
 10
2281.949911974793
 20
35.60015066326498
 10
2281.896443097948
 20
35.57293671032776
 10
2281.844105258359
 20
35.54360634086521
 10
2281.792982185409
 20
35.512206477213
 10
2281.743155665099
 20
35.47878735245248
 10
2281.694705409243
 20
35.443402430055
 10
2281.647708927911
 20
35.40610831834802
 10
2281.602241405444
 20
35.36696467995543
 10
2281.558375580187
 20
35.32603413635064
 10
2281.516181628099
 20
35.28338216766648
 10
2281.475727050498
 20
35.23907700795792
 10
2281.437076566081
 20
35.19318953602831
 10
2281.400292007384
 20
35.14579316204487
 10
2281.365432221845
 20
35.09696371009152
 10
2281.332552977687
 20
35.04677929687947
 10
2281.301706874695
 20
34.99532020676765
 10
2281.27294326004
 20
34.9426687633112
 10
2281.24630814938
 20
34.88890919760066
 10
2281.221844153204
 20
34.83412751346324
 10
2281.199590408691
 20
34.77841134991178
 10
2281.179582517084
 20
34.72184984092247
 10
2281.161852486742
 20
34.66453347284761
 10
2281.14642868193
 20
34.60655393964015
 10
2281.133335777447
 20
34.54800399619197
 10
2281.122594719144
 20
34.48897730992167
 10
2281.114222690427
 20
34.42956831093095
 10
2281.108233084754
 20
34.36987204095375
 10
2281.104635484217
 20
34.30998400128014
 10
2281.103435644208
 20
34.25000000000721
 10
2281.103435644208
 20
21.76613694359825
 10
2281.382400643021
 20
21.8775591129636
 10
2281.689718175188
 20
21.98626865736031
 10
2282.001137108413
 20
22.08260182222112
 10
2282.316159238829
 20
22.16640449503223
 10
2282.63428059823
 20
22.23754260939442
 10
2282.954992260305
 20
22.29590235949967
 10
2283.277781154804
 20
22.34139038219702
 10
2283.60213088836
 20
22.37393390635439
 10
2283.927522570587
 20
22.39348086927509
 10
2284.253435644208
 20
22.39999999998815
 10
2284.429402096376
 20
22.39810013484845
 10
2284.755098441261
 20
22.38454574256365
 10
2285.079992232688
 20
22.35797781236772
 10
2285.403563709895
 20
22.3184388472818
 10
2285.725295227544
 20
22.26599210121541
 10
2286.04467208384
 20
22.20072147777431
 10
2286.361183343943
 20
22.12273139603183
 10
2286.674322657357
 20
22.03214662348218
 10
2286.983589067975
 20
21.92911207643794
 10
2287.288487815519
 20
21.81379258819488
 10
2287.43870401388
 20
21.74999999999974
 10
2315.253435644208
 20
21.74999999999974
 97
        8
330
56C
330
56B
330
569
330
567
330
562
330
565
330
59B
330
5A4
 92
        7
 72
     0
 73
     1
 93
       17
 10
2382.253435644209
 20
63.75000000000017
 10
2319.503435644208
 20
63.75000000000017
 10
2319.503435644208
 20
42.19212211923742
 10
2319.49505158005
 20
41.9199658479314
 10
2319.476661133703
 20
41.6606344409803
 10
2319.447914907454
 20
41.40224589320191
 10
2319.408858889134
 20
41.14521357114962
 10
2319.359555560037
 20
40.88994867170749
 10
2319.300083794978
 20
40.63685956426133
 10
2319.230538736087
 20
40.38635113739229
 10
2319.151031640631
 20
40.13882415114723
 10
2319.061689702996
 20
39.89467459590404
 10
2318.962655851224
 20
39.65429305885935
 10
2318.854088518355
 20
39.41806409920159
 10
2318.753435644208
 20
39.22030539269051
 10
2318.753435644208
 20
21.74999999999974
 10
2382.253435644209
 20
21.74999999999974
 97
        6
330
59A
330
56F
330
56C
330
5A3
330
59B
330
5A2
 92
       22
 72
     1
 73
     1
 93
        2
 10
2378.253435644207
 20
27.25
 42
-1.0
 10
2376.753435644207
 20
27.25
 42
-1.0
 97
        2
330
5AD
330
5AC
 75
     1
 76
     1
 52
0.0
 41
8.0
 77
     0
 78
     3
 53
0.0
 43
0.0
 44
0.0
 45
1.5
 46
0.8660254037844385
 79
     2
 49
1.0
 49
-2.0
 53
120.0
 43
0.0
 44
0.0
 45
-1.499999999999999
 46
0.8660254037844389
 79
     2
 49
0.9999999999999998
 49
-1.999999999999999
 53
60.0
 43
0.0
 44
0.0
 45
0.0000000000000003
 46
1.732050807568877
 79
     2
 49
-2.0
 49
1.0
 47
0.1469248409746026
 98
        9
 10
1645.948888571168
 20
46.20621712291177
 10
1694.512763487507
 20
48.10991337805922
 10
1915.430775632484
 20
38.59142847154408
 10
1973.516977500509
 20
40.49512472669175
 10
2050.647836257001
 20
39.54327659911792
 10
2268.709151809022
 20
48.10991337805922
 10
2291.961730605842
 20
28.38881804067546
 10
2331.941423097633
 20
45.28517613813346
 10
2331.941423097633
 20
45.28517613813346
1001
GradientColor1ACI
1070
     5
1001
GradientColor2ACI
1070
     2
1001
ACAD
1010
0.0
1020
0.0
1030
0.0
  0
VIEWPORT
  5
39E
102
{ACAD_XDICTIONARY
360
98B
102
}
330
6D
100
AcDbEntity
 67
     1
  8
0
100
AcDbViewport
 10
1062.103023275114
 20
110.9484142308463
 30
0.0
 40
7546.642522079324
 41
3077.769091250106
 68
     1
 69
     1
 12
1062.103023275114
 22
110.9484142308463
 13
0.0
 23
0.0
 14
0.0
 24
0.0
 15
0.0
 25
0.0
 16
0.0
 26
0.0
 36
1.0
 17
0.0
 27
0.0
 37
0.0
 42
50.0
 43
0.0
 44
0.0
 45
3077.769091250106
 50
0.0
 51
0.0
 72
   100
 90
    32800
  1

281
     0
 71
     1
 74
     1
110
0.0
120
0.0
130
0.0
111
1.0
121
0.0
131
0.0
112
0.0
122
1.0
132
0.0
 79
     0
146
0.0
  0
ENDSEC
  0
SECTION
  2
OBJECTS
  0
DICTIONARY
  5
C
330
0
100
AcDbDictionary
281
     1
  3
ACAD_CIP_PREVIOUS_PRODUCT_INFO
350
7A
  3
ACAD_COLOR
350
63
  3
ACAD_DETAILVIEWSTYLE
350
6B
  3
ACAD_GROUP
350
D
  3
ACAD_IMAGE_VARS
350
7B
  3
ACAD_LAYOUT
350
62
  3
ACAD_MATERIAL
350
10
  3
ACAD_MLEADERSTYLE
350
66
  3
ACAD_MLINESTYLE
350
5F
  3
ACAD_PLOTSETTINGS
350
61
  3
ACAD_PLOTSTYLENAME
350
E
  3
ACAD_SCALELIST
350
42
  3
ACAD_SECTIONVIEWSTYLE
350
68
  3
ACAD_TABLESTYLE
350
64
  3
ACAD_VISUALSTYLE
350
29
  3
ACDB_RECOMPOSE_DATA
350
94F
  3
AcDbVariableDictionary
350
7C
  3
DWGPROPS
350
950
  3
REVIT_DICTIONARY
350
3C1
  0
DICTIONARY
  5
902
330
8
100
AcDbDictionary
280
     1
281
     1
  0
DICTIONARY
  5
3DE
330
2
100
AcDbDictionary
280
     1
281
     1
  3
ACAD_LAYERSTATES
360
3DF
  0
DICTIONARY
  5
3C5
330
71
100
AcDbDictionary
280
     1
281
     1
  3
ACAD_SORTENTS
360
3C6
  0
DICTIONARY
  5
98B
330
39E
100
AcDbDictionary
280
     1
281
     1
  3
ACAD_XREC_ROUNDTRIP
360
98C
  0
XRECORD
  5
7A
102
{ACAD_REACTORS
330
C
102
}
330
C
100
AcDbXrecord
280
     1
300
ACD
300
2013
300
85946BDSPRM_2013_0F
  0
DICTIONARY
  5
63
102
{ACAD_REACTORS
330
C
102
}
330
C
100
AcDbDictionary
281
     1
  0
DICTIONARY
  5
6B
102
{ACAD_REACTORS
330
C
102
}
330
C
100
AcDbDictionary
281
     1
  3
Imperial24
350
6C
  0
DICTIONARY
  5
D
102
{ACAD_REACTORS
330
C
102
}
330
C
100
AcDbDictionary
281
     1
  0
RASTERVARIABLES
  5
7B
102
{ACAD_REACTORS
330
C
102
}
330
C
100
AcDbRasterVariables
 90
        0
 70
     0
 71
     1
 72
     5
  0
DICTIONARY
  5
62
102
{ACAD_REACTORS
330
C
102
}
330
C
100
AcDbDictionary
281
     1
  3
Layout1
350
70
  3
Model
350
74
  0
DICTIONARY
  5
10
102
{ACAD_REACTORS
330
C
102
}
330
C
100
AcDbDictionary
281
     1
  3
ByBlock
350
19
  3
ByLayer
350
11
  3
Global
350
21
  0
DICTIONARY
  5
66
102
{ACAD_REACTORS
330
C
102
}
330
C
100
AcDbDictionary
281
     1
  3
Standard
350
67
  0
DICTIONARY
  5
5F
102
{ACAD_REACTORS
330
C
102
}
330
C
100
AcDbDictionary
281
     1
  3
Standard
350
60
  0
DICTIONARY
  5
61
102
{ACAD_REACTORS
330
C
102
}
330
C
100
AcDbDictionary
281
     1
  0
ACDBDICTIONARYWDFLT
  5
E
102
{ACAD_REACTORS
330
C
102
}
330
C
100
AcDbDictionary
281
     1
  3
Normal
350
F
100
AcDbDictionaryWithDefault
340
F
  0
DICTIONARY
  5
42
102
{ACAD_REACTORS
330
C
102
}
330
C
100
AcDbDictionary
281
     1
  3
A0
350
43
  3
A1
350
44
  3
A2
350
45
  3
A3
350
46
  3
A4
350
47
  3
A5
350
48
  3
A6
350
49
  3
A7
350
4A
  3
A8
350
4B
  3
A9
350
4C
  3
B0
350
4D
  3
B1
350
4E
  3
B2
350
4F
  3
B3
350
50
  3
B4
350
51
  3
B5
350
52
  3
B6
350
53
  0
DICTIONARY
  5
68
102
{ACAD_REACTORS
330
C
102
}
330
C
100
AcDbDictionary
281
     1
  3
Imperial24
350
6A
  0
DICTIONARY
  5
64
102
{ACAD_REACTORS
330
C
102
}
330
C
100
AcDbDictionary
281
     1
  3
Standard
350
65
  0
DICTIONARY
  5
29
102
{ACAD_REACTORS
330
C
102
}
330
C
100
AcDbDictionary
281
     1
  3
2dWireframe
350
2F
  3
Basic
350
2E
  3
Brighten
350
35
  3
ColorChange
350
39
  3
Conceptual
350
32
  3
Dim
350
34
  3
EdgeColorOff
350
41
  3
Facepattern
350
38
  3
Flat
350
2A
  3
FlatWithEdges
350
2B
  3
Gouraud
350
2C
  3
GouraudWithEdges
350
2D
  3
Hidden
350
31
  3
JitterOff
350
3F
  3
Linepattern
350
37
  3
OverhangOff
350
40
  3
Realistic
350
33
  3
Shaded
350
3E
  3
Shaded with edges
350
3D
  3
Shades of Gray
350
3A
  3
Sketchy
350
3B
  3
Thicken
350
36
  3
Wireframe
350
30
  3
X-Ray
350
3C
  0
XRECORD
  5
94F
102
{ACAD_REACTORS
330
C
102
}
330
C
100
AcDbXrecord
280
     1
 90
        1
330
65
  0
DICTIONARY
  5
7C
102
{ACAD_REACTORS
330
C
102
}
330
C
100
AcDbDictionary
281
     1
  3
CANNOSCALE
350
81
  3
CMLEADERSTYLE
350
7E
  3
CTABLESTYLE
350
7D
  3
CVIEWDETAILSTYLE
350
7F
  3
CVIEWSECTIONSTYLE
350
80
  3
DIMASSOC
350
6EB
  3
HIDETEXT
350
6EA
  3
INDEXCTL
350
6E9
  3
LATITUDE
350
94A
  3
LAYEREVAL
350
6E6
  3
LAYERNOTIFY
350
6E7
  3
LIGHTINGUNITS
350
6E5
  3
LOFTANG1
350
948
  3
LOFTANG2
350
949
  3
LONGITUDE
350
94B
  3
MSLTSCALE
350
6E4
  3
SORTENTS
350
6E8
  3
TIMEZONE
350
94C
  3
XCLIPFRAME
350
94D
  0
XRECORD
  5
950
102
{ACAD_REACTORS
330
C
102
}
330
C
100
AcDbXrecord
280
     1
  1
DWGPROPS COOKIE
  2

  3

  4

  6

  7

  8
jcl
  9

300
=
301
=
302
=
303
=
304
=
305
=
306
=
307
=
308
=
309
=
 40
0.01131625
 41
2457120.750518936
 42
2457210.708872292
  1

 90
        0
  0
DICTIONARY
  5
3C1
102
{ACAD_REACTORS
330
C
102
}
330
C
100
AcDbDictionary
281
     1
  3
REVIT_CATEGORY_MAPPING
350
3C3
  3
REVIT_SUB_CATEGORY_MAPPING
350
3C4
  3
REVIT_TYPE_MAPPING
350
3C2
  0
DICTIONARY
  5
3DF
102
{ACAD_REACTORS
330
3DE
102
}
330
3DE
100
AcDbDictionary
281
     1
  0
SORTENTSTABLE
  5
3C6
102
{ACAD_REACTORS
330
3C5
102
}
330
3C5
100
AcDbSortentsTable
330
71
331
47D
  5
576
331
479
  5
572
331
475
  5
56E
331
43A
  5
5AB
331
4B0
  5
4B3
331
4FF
  5
4F8
331
4FB
  5
4F4
331
4F7
  5
4F0
331
536
  5
52F
331
4F3
  5
4EC
331
56D
  5
436
331
5AC
  5
46D
331
532
  5
52B
331
569
  5
427
331
5A8
  5
468
331
436
  5
5A7
331
46D
  5
569
331
432
  5
5A3
331
4A8
  5
4AF
331
469
  5
563
331
42E
  5
59F
331
4A4
  5
49C
331
465
  5
55E
331
42A
  5
59B
331
4A0
  5
494
331
52E
  5
527
331
461
  5
557
331
4EB
  5
4E6
331
565
  5
422
331
5A4
  5
463
331
52A
  5
523
331
4E7
  5
4E2
331
561
  5
41B
331
5A0
  5
45F
331
526
  5
51F
331
4E3
  5
4DE
331
55D
  5
415
331
59C
  5
45B
331
522
  5
51B
331
559
  5
411
331
598
  5
457
331
426
  5
593
331
49C
  5
490
331
45D
  5
553
331
422
  5
58F
331
498
  5
48C
331
459
  5
839
331
41E
  5
58B
331
494
  5
488
331
41A
  5
587
331
490
  5
484
331
4DF
  5
4D9
331
51E
  5
517
331
555
  5
54E
331
4DB
  5
4D2
331
51A
  5
513
331
4D7
  5
4CE
331
551
  5
54A
331
590
  5
452
331
516
  5
50F
331
4D3
  5
4C7
331
54D
  5
546
331
58C
  5
44E
331
512
  5
50B
331
549
  5
542
331
588
  5
447
331
8FE
  5
41D
331
5B3
  5
474
331
416
  5
583
331
48C
  5
480
331
44D
  5
5C4
331
412
  5
57F
331
488
  5
47D
331
449
  5
5BD
331
484
  5
479
331
445
  5
5B2
331
480
  5
579
331
4CF
  5
4C3
331
50E
  5
507
331
441
  5
5AE
331
4CB
  5
4BF
331
545
  5
540
331
584
  5
443
331
50A
  5
503
331
506
  5
4FF
331
541
  5
53C
331
580
  5
43F
331
4C7
  5
4BB
331
502
  5
4FB
331
57C
  5
43B
331
4C3
  5
4B7
331
53D
  5
538
331
539
  5
534
331
47C
  5
575
331
478
  5
571
331
474
  5
56D
331
439
  5
5AA
331
4FE
  5
4F7
331
4FA
  5
4F3
331
4F6
  5
4EF
331
5AF
  5
470
331
535
  5
52E
331
4F2
  5
4EB
331
56C
  5
435
331
5AB
  5
46C
331
531
  5
52A
331
568
  5
426
331
435
  5
5A6
331
431
  5
5A2
331
46C
  5
568
331
4AB
  5
4B2
331
42D
  5
59E
331
468
  5
562
331
4A7
  5
4AE
331
429
  5
596
331
464
  5
55D
331
4A3
  5
49B
331
460
  5
556
331
4EE
  5
4E9
331
5A7
  5
467
331
52D
  5
526
331
4EA
  5
4E5
331
564
  5
421
331
5A3
  5
462
331
529
  5
522
331
4E6
  5
4E1
331
560
  5
419
331
59F
  5
45E
331
525
  5
51E
331
59B
  5
45A
331
521
  5
51A
331
558
  5
410
331
425
  5
592
331
49F
  5
493
331
421
  5
58E
331
45C
  5
552
331
49B
  5
48F
331
41D
  5
58A
331
458
  5
83D
331
497
  5
48B
331
419
  5
586
331
493
  5
487
331
450
  5
838
331
4DE
  5
4D6
331
597
  5
456
331
51D
  5
516
331
554
  5
54D
331
4DA
  5
4D1
331
519
  5
512
331
4D6
  5
4CA
331
550
  5
549
331
58F
  5
451
331
515
  5
50E
331
4D2
  5
4C6
331
54C
  5
545
331
58B
  5
44D
331
511
  5
50A
331
5BE
  5
844
331
5B2
  5
473
331
415
  5
582
331
48F
  5
483
331
411
  5
57E
331
44C
  5
5C3
331
48B
  5
47F
331
448
  5
5B5
331
487
  5
47C
331
444
  5
5B1
331
483
  5
478
331
440
  5
5AD
331
4CE
  5
4C2
331
587
  5
446
331
50D
  5
506
331
4CA
  5
4BE
331
544
  5
53F
331
583
  5
442
331
509
  5
502
331
4C6
  5
4BA
331
540
  5
53B
331
57F
  5
43E
331
505
  5
4FE
331
4C2
  5
4B6
331
53C
  5
537
331
57B
  5
43A
331
501
  5
4FA
331
538
  5
531
331
47F
  5
578
331
47B
  5
574
331
477
  5
570
331
473
  5
56C
331
438
  5
5A9
331
4FD
  5
4F6
331
4F9
  5
4F2
331
4F5
  5
4EE
331
56F
  5
438
331
5AE
  5
46F
331
534
  5
52D
331
56B
  5
433
331
5AA
  5
46A
331
530
  5
529
331
46F
  5
56B
331
434
  5
5A5
331
430
  5
5A1
331
46B
  5
567
331
4AA
  5
4B1
331
42C
  5
59D
331
467
  5
561
331
4A6
  5
4AD
331
428
  5
595
331
463
  5
55C
331
4A2
  5
496
331
4ED
  5
4E8
331
567
  5
424
331
5A6
  5
466
331
52C
  5
525
331
4E9
  5
4E4
331
563
  5
420
331
5A2
  5
461
331
528
  5
521
331
4E5
  5
4E0
331
55F
  5
417
331
59E
  5
45D
331
524
  5
51D
331
59A
  5
459
331
520
  5
519
331
424
  5
591
331
45F
  5
555
331
49E
  5
492
331
420
  5
58D
331
45B
  5
551
331
49A
  5
48E
331
41C
  5
589
331
496
  5
48A
331
418
  5
585
331
492
  5
486
331
4DD
  5
4D5
331
557
  5
40F
331
596
  5
455
331
51C
  5
515
331
553
  5
54C
331
4D9
  5
4D0
331
518
  5
511
331
4D5
  5
4C9
331
54F
  5
548
331
58E
  5
450
331
514
  5
50D
331
4D1
  5
4C5
331
54B
  5
544
331
58A
  5
449
331
510
  5
509
331
5BD
  5
83E
331
5B5
  5
477
331
5B1
  5
472
331
414
  5
581
331
44F
  5
5C6
331
48E
  5
482
331
44B
  5
5C0
331
410
  5
57D
331
447
  5
5B4
331
486
  5
47B
331
443
  5
5B0
331
482
  5
57B
331
4CD
  5
4C1
331
586
  5
445
331
50C
  5
505
331
4C9
  5
4BD
331
543
  5
53E
331
582
  5
441
331
508
  5
501
331
4C5
  5
4B9
331
53F
  5
53A
331
57E
  5
43D
331
504
  5
4FD
331
4C1
  5
4B5
331
53B
  5
536
331
500
  5
4F9
331
47E
  5
577
331
47A
  5
573
331
43F
  5
5AC
331
476
  5
56F
331
4B1
  5
4B4
331
4FC
  5
4F5
331
572
  5
439
331
4F8
  5
4F1
331
537
  5
530
331
4F4
  5
4ED
331
56E
  5
437
331
5AD
  5
46E
331
533
  5
52C
331
4F0
  5
4EA
331
56A
  5
42A
331
5A9
  5
469
331
437
  5
5A8
331
46E
  5
56A
331
433
  5
5A4
331
42F
  5
5A0
331
46A
  5
565
331
4A9
  5
4B0
331
42B
  5
59C
331
466
  5
560
331
4A5
  5
4AC
331
462
  5
55B
331
4A1
  5
495
331
52F
  5
528
331
4EC
  5
4E7
331
566
  5
423
331
5A5
  5
464
331
52B
  5
524
331
4E8
  5
4E3
331
562
  5
41E
331
5A1
  5
460
331
527
  5
520
331
4E4
  5
4DF
331
55E
  5
416
331
59D
  5
45C
331
523
  5
51C
331
55A
  5
412
331
599
  5
458
331
427
  5
594
331
423
  5
590
331
45E
  5
554
331
49D
  5
491
331
41F
  5
58C
331
45A
  5
550
331
499
  5
48D
331
41B
  5
588
331
495
  5
489
331
491
  5
485
331
51F
  5
518
331
4DC
  5
4D3
331
556
  5
54F
331
595
  5
454
331
51B
  5
514
331
4D8
  5
4CF
331
552
  5
54B
331
591
  5
453
331
517
  5
510
331
4D4
  5
4C8
331
54E
  5
547
331
58D
  5
44F
331
513
  5
50C
331
4D0
  5
4C4
331
54A
  5
543
331
589
  5
448
331
5B4
  5
476
331
417
  5
584
331
5B0
  5
471
331
413
  5
580
331
44E
  5
5C5
331
48D
  5
481
331
44A
  5
5BE
331
489
  5
47E
331
40F
  5
57C
331
485
  5
47A
331
446
  5
5B3
331
481
  5
57A
331
50F
  5
508
331
442
  5
5AF
331
4CC
  5
4C0
331
546
  5
541
331
585
  5
444
331
50B
  5
504
331
4C8
  5
4BC
331
542
  5
53D
331
581
  5
440
331
507
  5
500
331
4C4
  5
4B8
331
53E
  5
539
331
57D
  5
43C
331
503
  5
4FC
331
53A
  5
535
  0
XRECORD
  5
98C
102
{ACAD_REACTORS
330
98B
102
}
330
98B
100
AcDbXrecord
280
     1
102
SHADEPLOT
 70
     0
  0
ACDBDETAILVIEWSTYLE
  5
6C
102
{ACAD_REACTORS
330
6B
102
}
330
6B
100
AcDbModelDocViewStyle
 70
     0
  3
Imperial24
290
     0
100
AcDbDetailViewStyle
 70
     0
 71
     0
 90
        3
 71
     1
340
55
 40
0.24
340
0
 40
0.24
300

 40
0.36
280
     3
 71
     2
340
5D
 90
       25
 71
     3
340
55
 40
0.24
 90
        1
 40
0.75
 90
        1
300
%<\AcVar ViewType \f "%tc1">% %<\AcVar ViewDetailId>%\PSCALE %<\AcVar ViewScale \f "%sn">%
 71
     4
340
5D
 90
       25
340
5D
 90
       25
280
     0
  0
LAYOUT
  5
70
102
{ACAD_XDICTIONARY
360
987
102
}
102
{ACAD_REACTORS
330
62
102
}
330
62
100
AcDbPlotSettings
  1

  2
\\USJESR-FS01\MD_ENGR_Copier
  4
Letter
  6

 40
7.143749713897705
 41
5.027099609375
 42
7.14373779296875
 43
5.027069091796875
 44
215.8999938964844
 45
279.3999938964844
 46
0.0
 47
0.0
 48
0.0
 49
0.0
140
0.0
141
0.0
142
1.0
143
240.5772734560848
 70
   688
 72
     0
 73
     1
 74
     1
  7

 75
     0
147
0.004156668606449
148
-12818.62022486862
149
22065.4239850904
100
AcDbLayout
  1
Layout1
 70
     1
 71
     1
 10
457.0559704444398
 20
-936.3798351776614
 11
3103.405920651643
 21
1108.526931389329
 12
0.0
 22
0.0
 32
0.0
 14
1.000000000000000E+20
 24
1.000000000000000E+20
 34
1.000000000000000E+20
 15
-1.000000000000000E+20
 25
-1.000000000000000E+20
 35
-1.000000000000000E+20
146
0.0
 13
0.0
 23
0.0
 33
0.0
 16
1.0
 26
0.0
 36
0.0
 17
0.0
 27
1.0
 37
0.0
 76
     0
330
6D
331
39E
1001
ACAD_PSEXT
1000
\\USJESR-FS01\MD_ENGR_Copier
1000
SAVIN C6055 PCL 5c
1000
2nd Floor Left Rear - near room 230
1000

1070
     0
  0
LAYOUT
  5
74
102
{ACAD_XDICTIONARY
360
989
102
}
102
{ACAD_REACTORS
330
62
102
}
330
62
100
AcDbPlotSettings
  1

  2

  4

  6

 40
0.0
 41
0.0
 42
0.0
 43
0.0
 44
0.0
 45
0.0
 46
0.0
 47
0.0
 48
0.0
 49
0.0
140
0.0
141
0.0
142
1.0
143
1.0
 70
  1712
 72
     0
 73
     0
 74
     0
  7

 75
     0
147
1.0
148
0.0
149
0.0
100
AcDbLayout
  1
Model
 70
     1
 71
     0
 10
0.0
 20
0.0
 11
12.0
 21
9.0
 12
0.0
 22
0.0
 32
0.0
 14
0.0
 24
0.0
 34
0.0
 15
0.0
 25
0.0
 35
0.0
146
0.0
 13
0.0
 23
0.0
 33
0.0
 16
1.0
 26
0.0
 36
0.0
 17
0.0
 27
1.0
 37
0.0
 76
     0
330
71
331
57
  0
MATERIAL
  5
19
102
{ACAD_XDICTIONARY
360
1A
102
}
102
{ACAD_REACTORS
330
10
102
}
330
10
100
AcDbMaterial
  1
ByBlock
 72
     0
 43
0.0208333333333333
 43
0.0
 43
0.0
 43
0.0
 43
0.0
 43
0.0208333333333333
 43
0.0
 43
0.0
 43
0.0
 43
0.0
 43
1.0
 43
0.0
 43
0.0
 43
0.0
 43
0.0
 43
1.0
 77
     0
 47
0.0208333333333333
 47
0.0
 47
0.0
 47
0.0
 47
0.0
 47
0.0208333333333333
 47
0.0
 47
0.0
 47
0.0
 47
0.0
 47
1.0
 47
0.0
 47
0.0
 47
0.0
 47
0.0
 47
1.0
171
     0
 49
0.0208333333333333
 49
0.0
 49
0.0
 49
0.0
 49
0.0
 49
0.0208333333333333
 49
0.0
 49
0.0
 49
0.0
 49
0.0
 49
1.0
 49
0.0
 49
0.0
 49
0.0
 49
0.0
 49
1.0
175
     0
142
0.0208333333333333
142
0.0
142
0.0
142
0.0
142
0.0
142
0.0208333333333333
142
0.0
142
0.0
142
0.0
142
0.0
142
1.0
142
0.0
142
0.0
142
0.0
142
0.0
142
1.0
179
     0
144
0.0208333333333333
144
0.0
144
0.0
144
0.0
144
0.0
144
0.0208333333333333
144
0.0
144
0.0
144
0.0
144
0.0
144
1.0
144
0.0
144
0.0
144
0.0
144
0.0
144
1.0
147
0.0208333333333333
147
0.0
147
0.0
147
0.0
147
0.0
147
0.0208333333333333
147
0.0
147
0.0
147
0.0
147
0.0
147
1.0
147
0.0
147
0.0
147
0.0
147
0.0
147
1.0
  0
MATERIAL
  5
11
102
{ACAD_XDICTIONARY
360
12
102
}
102
{ACAD_REACTORS
330
10
102
}
330
10
100
AcDbMaterial
  1
ByLayer
 72
     0
 43
0.0208333333333333
 43
0.0
 43
0.0
 43
0.0
 43
0.0
 43
0.0208333333333333
 43
0.0
 43
0.0
 43
0.0
 43
0.0
 43
1.0
 43
0.0
 43
0.0
 43
0.0
 43
0.0
 43
1.0
 77
     0
 47
0.0208333333333333
 47
0.0
 47
0.0
 47
0.0
 47
0.0
 47
0.0208333333333333
 47
0.0
 47
0.0
 47
0.0
 47
0.0
 47
1.0
 47
0.0
 47
0.0
 47
0.0
 47
0.0
 47
1.0
171
     0
 49
0.0208333333333333
 49
0.0
 49
0.0
 49
0.0
 49
0.0
 49
0.0208333333333333
 49
0.0
 49
0.0
 49
0.0
 49
0.0
 49
1.0
 49
0.0
 49
0.0
 49
0.0
 49
0.0
 49
1.0
175
     0
142
0.0208333333333333
142
0.0
142
0.0
142
0.0
142
0.0
142
0.0208333333333333
142
0.0
142
0.0
142
0.0
142
0.0
142
1.0
142
0.0
142
0.0
142
0.0
142
0.0
142
1.0
179
     0
144
0.0208333333333333
144
0.0
144
0.0
144
0.0
144
0.0
144
0.0208333333333333
144
0.0
144
0.0
144
0.0
144
0.0
144
1.0
144
0.0
144
0.0
144
0.0
144
0.0
144
1.0
147
0.0208333333333333
147
0.0
147
0.0
147
0.0
147
0.0
147
0.0208333333333333
147
0.0
147
0.0
147
0.0
147
0.0
147
1.0
147
0.0
147
0.0
147
0.0
147
0.0
147
1.0
  0
MATERIAL
  5
21
102
{ACAD_XDICTIONARY
360
22
102
}
102
{ACAD_REACTORS
330
10
102
}
330
10
100
AcDbMaterial
  1
Global
 72
     0
 43
0.0208333333333333
 43
0.0
 43
0.0
 43
0.0
 43
0.0
 43
0.0208333333333333
 43
0.0
 43
0.0
 43
0.0
 43
0.0
 43
1.0
 43
0.0
 43
0.0
 43
0.0
 43
0.0
 43
1.0
 77
     0
 47
0.0208333333333333
 47
0.0
 47
0.0
 47
0.0
 47
0.0
 47
0.0208333333333333
 47
0.0
 47
0.0
 47
0.0
 47
0.0
 47
1.0
 47
0.0
 47
0.0
 47
0.0
 47
0.0
 47
1.0
171
     0
 49
0.0208333333333333
 49
0.0
 49
0.0
 49
0.0
 49
0.0
 49
0.0208333333333333
 49
0.0
 49
0.0
 49
0.0
 49
0.0
 49
1.0
 49
0.0
 49
0.0
 49
0.0
 49
0.0
 49
1.0
175
     0
142
0.0208333333333333
142
0.0
142
0.0
142
0.0
142
0.0
142
0.0208333333333333
142
0.0
142
0.0
142
0.0
142
0.0
142
1.0
142
0.0
142
0.0
142
0.0
142
0.0
142
1.0
179
     0
144
0.0208333333333333
144
0.0
144
0.0
144
0.0
144
0.0
144
0.0208333333333333
144
0.0
144
0.0
144
0.0
144
0.0
144
1.0
144
0.0
144
0.0
144
0.0
144
0.0
144
1.0
147
0.0208333333333333
147
0.0
147
0.0
147
0.0
147
0.0
147
0.0208333333333333
147
0.0
147
0.0
147
0.0
147
0.0
147
1.0
147
0.0
147
0.0
147
0.0
147
0.0
147
1.0
  0
MLEADERSTYLE
  5
67
102
{ACAD_XDICTIONARY
360
985
102
}
102
{ACAD_REACTORS
330
66
102
}
330
66
100
AcDbMLeaderStyle
170
     2
171
     1
172
     0
 90
        2
 40
0.0
 41
0.0
173
     1
 91
-1056964608
340
5B
 92
       -2
290
     1
 42
0.09
291
     1
 43
0.36
  3
Standard
 44
0.18
300

342
55
174
     1
178
     6
175
     1
176
     0
 93
-1056964608
 45
0.18
292
     0
297
     0
 46
0.18
 94
-1056964608
 47
1.0
 49
1.0
140
1.0
293
     1
141
0.0
294
     1
177
     0
142
1.0
295
     0
296
     0
143
0.125
1001
ACAD_MLEADERVER
1070
     2
  0
MLINESTYLE
  5
60
102
{ACAD_REACTORS
330
5F
102
}
330
5F
100
AcDbMlineStyle
  2
STANDARD
 70
     0
  3

 62
   256
 51
90.0
 52
90.0
 71
     2
 49
0.5
 62
   256
  6
BYLAYER
 49
-0.5
 62
   256
  6
BYLAYER
  0
ACDBPLACEHOLDER
  5
F
102
{ACAD_REACTORS
330
E
102
}
330
E
  0
SCALE
  5
43
102
{ACAD_REACTORS
330
42
102
}
330
42
100
AcDbScale
 70
     0
300
1:1
140
1.0
141
1.0
290
     1
  0
SCALE
  5
44
102
{ACAD_REACTORS
330
42
102
}
330
42
100
AcDbScale
 70
     0
300
1/128" = 1'-0"
140
0.0078125
141
12.0
290
     0
  0
SCALE
  5
45
102
{ACAD_REACTORS
330
42
102
}
330
42
100
AcDbScale
 70
     0
300
1/64" = 1'-0"
140
0.015625
141
12.0
290
     0
  0
SCALE
  5
46
102
{ACAD_REACTORS
330
42
102
}
330
42
100
AcDbScale
 70
     0
300
1/32" = 1'-0"
140
0.03125
141
12.0
290
     0
  0
SCALE
  5
47
102
{ACAD_REACTORS
330
42
102
}
330
42
100
AcDbScale
 70
     0
300
1/16" = 1'-0"
140
0.0625
141
12.0
290
     0
  0
SCALE
  5
48
102
{ACAD_REACTORS
330
42
102
}
330
42
100
AcDbScale
 70
     0
300
3/32" = 1'-0"
140
0.09375
141
12.0
290
     0
  0
SCALE
  5
49
102
{ACAD_REACTORS
330
42
102
}
330
42
100
AcDbScale
 70
     0
300
1/8" = 1'-0"
140
0.125
141
12.0
290
     0
  0
SCALE
  5
4A
102
{ACAD_REACTORS
330
42
102
}
330
42
100
AcDbScale
 70
     0
300
3/16" = 1'-0"
140
0.1875
141
12.0
290
     0
  0
SCALE
  5
4B
102
{ACAD_REACTORS
330
42
102
}
330
42
100
AcDbScale
 70
     0
300
1/4" = 1'-0"
140
0.25
141
12.0
290
     0
  0
SCALE
  5
4C
102
{ACAD_REACTORS
330
42
102
}
330
42
100
AcDbScale
 70
     0
300
3/8" = 1'-0"
140
0.375
141
12.0
290
     0
  0
SCALE
  5
4D
102
{ACAD_REACTORS
330
42
102
}
330
42
100
AcDbScale
 70
     0
300
1/2" = 1'-0"
140
0.5
141
12.0
290
     0
  0
SCALE
  5
4E
102
{ACAD_REACTORS
330
42
102
}
330
42
100
AcDbScale
 70
     0
300
3/4" = 1'-0"
140
0.75
141
12.0
290
     0
  0
SCALE
  5
4F
102
{ACAD_REACTORS
330
42
102
}
330
42
100
AcDbScale
 70
     0
300
1" = 1'-0"
140
1.0
141
12.0
290
     0
  0
SCALE
  5
50
102
{ACAD_REACTORS
330
42
102
}
330
42
100
AcDbScale
 70
     0
300
1-1/2" = 1'-0"
140
1.5
141
12.0
290
     0
  0
SCALE
  5
51
102
{ACAD_REACTORS
330
42
102
}
330
42
100
AcDbScale
 70
     0
300
3" = 1'-0"
140
3.0
141
12.0
290
     0
  0
SCALE
  5
52
102
{ACAD_REACTORS
330
42
102
}
330
42
100
AcDbScale
 70
     0
300
6" = 1'-0"
140
6.0
141
12.0
290
     0
  0
SCALE
  5
53
102
{ACAD_REACTORS
330
42
102
}
330
42
100
AcDbScale
 70
     0
300
1'-0" = 1'-0"
140
12.0
141
12.0
290
     0
  0
ACDBSECTIONVIEWSTYLE
  5
6A
102
{ACAD_REACTORS
330
68
102
}
330
68
100
AcDbModelDocViewStyle
 70
     0
  3
Imperial24
290
     0
100
AcDbSectionViewStyle
 70
     0
 71
     0
 90
       78
 71
     1
340
55
 40
0.24
340
0
340
0
 40
0.24
300
I, O, Q, S, X, Z
 40
0.48
 90
        3
 40
0.18
 90
        1
 71
     2
340
69
 90
       25
340
5D
 90
       50
 40
0.24
 40
0.0
 40
0.24
 71
     3
340
55
 40
0.24
 90
        1
 40
0.75
 90
        1
300
%<\AcVar ViewType \f "%tc1">% %<\AcVar ViewSectionStartId>%-%<\AcVar ViewSectionEndId>%\PSCALE %<\AcVar ViewScale \f "%sn">%
 71
     4
300
ANSI31
 40
1.0
 90
        0
290
     0
290
     0
 90
        6
 40
0.0
 40
1.570796326794896
 40
0.2617993877991494
 40
1.308996938995747
 40
-0.2617993877991494
 40
1.832595714594044
  0
TABLESTYLE
  5
65
102
{ACAD_XDICTIONARY
360
3C8
102
}
102
{ACAD_REACTORS
330
64
102
}
330
64
100
AcDbTableStyle
  3
Standard
 70
     0
 71
     0
 40
0.06
 41
0.06
280
     0
281
     0
  7
Standard
140
0.18
170
     2
 62
     0
 63
     7
283
     0
274
    -2
284
     1
 64
     0
275
    -2
285
     1
 65
     0
276
    -2
286
     1
 66
     0
277
    -2
287
     1
 67
     0
278
    -2
288
     1
 68
     0
279
    -2
289
     1
 69
     0
  7
Standard
140
0.25
170
     5
 62
     0
 63
     7
283
     0
274
    -2
284
     1
 64
     0
275
    -2
285
     1
 65
     0
276
    -2
286
     1
 66
     0
277
    -2
287
     1
 67
     0
278
    -2
288
     1
 68
     0
279
    -2
289
     1
 69
     0
  7
Standard
140
0.18
170
     5
 62
     0
 63
     7
283
     0
274
    -2
284
     1
 64
     0
275
    -2
285
     1
 65
     0
276
    -2
286
     1
 66
     0
277
    -2
287
     1
 67
     0
278
    -2
288
     1
 68
     0
279
    -2
289
     1
 69
     0
  0
VISUALSTYLE
  5
2F
102
{ACAD_XDICTIONARY
360
95E
102
}
102
{ACAD_REACTORS
330
29
102
}
330
29
100
AcDbVisualStyle
  2

 70
     4
 71
     0
 72
     2
 73
     0
 90
        0
 40
-0.6
 41
-30.0
 62
     5
 63
     7
 74
     1
 91
        4
 64
     7
 65
   257
 75
     1
175
     1
 42
1.0
 92
        0
 66
   257
 43
1.0
 76
     1
 77
     6
 78
     2
 67
     7
 79
     5
170
     0
171
     0
290
     0
174
     0
 93
        1
 44
0.0
173
     0
291
     0
 45
0.0
1001
ACAD
1000
AcDbSavedByObjectVersion
1070
     0
  0
VISUALSTYLE
  5
2E
102
{ACAD_XDICTIONARY
360
95C
102
}
102
{ACAD_REACTORS
330
29
102
}
330
29
100
AcDbVisualStyle
  2

 70
     7
 71
     1
 72
     0
 73
     1
 90
        0
 40
-0.6
 41
-30.0
 62
     5
 63
     7
 74
     0
 91
        4
 64
     7
 65
   257
 75
     1
175
     1
 42
1.0
 92
        8
 66
     7
 43
1.0
 76
     1
 77
     6
 78
     2
 67
     7
 79
     5
170
     0
171
     0
290
     0
174
     0
 93
        1
 44
0.0
173
     0
291
     1
 45
0.0
1001
ACAD
1000
AcDbSavedByObjectVersion
1070
     0
  0
VISUALSTYLE
  5
35
102
{ACAD_XDICTIONARY
360
96A
102
}
102
{ACAD_REACTORS
330
29
102
}
330
29
100
AcDbVisualStyle
  2

 70
    12
 71
     2
 72
     2
 73
     0
 90
        0
 40
-0.6
 41
-30.0
 62
     5
 63
     7
 74
     1
 91
        4
 64
     7
 65
   257
 75
     1
175
     1
 42
1.0
 92
        8
 66
     7
 43
1.0
 76
     1
 77
     6
 78
     2
 67
     7
 79
     5
170
     0
171
     0
290
     0
174
     0
 93
        1
 44
50.0
173
     0
291
     1
 45
0.0
1001
ACAD
1000
AcDbSavedByObjectVersion
1070
     0
  0
VISUALSTYLE
  5
39
102
{ACAD_XDICTIONARY
360
972
102
}
102
{ACAD_REACTORS
330
29
102
}
330
29
100
AcDbVisualStyle
  2

 70
    16
 71
     2
 72
     2
 73
     3
 90
        0
 40
-0.6
 41
-30.0
 62
     5
 63
     8
 74
     1
 91
        4
 64
     7
 65
   257
 75
     1
175
     1
 42
1.0
 92
        8
 66
     8
 43
1.0
 76
     1
 77
     6
 78
     2
 67
     7
 79
     5
170
     0
171
     0
290
     0
174
     0
 93
        1
 44
0.0
173
     0
291
     1
 45
0.0
1001
ACAD
1000
AcDbSavedByObjectVersion
1070
     0
  0
VISUALSTYLE
  5
32
102
{ACAD_XDICTIONARY
360
964
102
}
102
{ACAD_REACTORS
330
29
102
}
330
29
100
AcDbVisualStyle
  2

 70
     9
 71
     3
 72
     2
 73
     0
 90
        0
 40
-0.6
 41
-30.0
 62
     5
 63
     7
 74
     2
 91
        2
 64
     7
 65
   257
 75
     1
175
     1
 42
179.0
 92
        8
 66
     7
 43
1.0
 76
     1
 77
     6
 78
     2
 67
     7
 79
     3
170
     0
171
     0
290
     0
174
     0
 93
        1
 44
0.0
173
     0
291
     0
 45
0.0
1001
ACAD
1000
AcDbSavedByObjectVersion
1070
     0
  0
VISUALSTYLE
  5
34
102
{ACAD_XDICTIONARY
360
968
102
}
102
{ACAD_REACTORS
330
29
102
}
330
29
100
AcDbVisualStyle
  2

 70
    11
 71
     2
 72
     2
 73
     0
 90
        0
 40
-0.6
 41
-30.0
 62
     5
 63
     7
 74
     1
 91
        4
 64
     7
 65
   257
 75
     1
175
     1
 42
1.0
 92
        8
 66
     7
 43
1.0
 76
     1
 77
     6
 78
     2
 67
     7
 79
     5
170
     0
171
     0
290
     0
174
     0
 93
        1
 44
-50.0
173
     0
291
     1
 45
0.0
1001
ACAD
1000
AcDbSavedByObjectVersion
1070
     0
  0
VISUALSTYLE
  5
41
102
{ACAD_XDICTIONARY
360
982
102
}
102
{ACAD_REACTORS
330
29
102
}
330
29
100
AcDbVisualStyle
  2

 70
    22
 71
     2
 72
     2
 73
     0
 90
        0
 40
-0.6
 41
-30.0
 62
     5
 63
     7
 74
     1
 91
        4
 64
     7
 65
   257
 75
     1
175
     1
 42
1.0
 92
        8
 66
     7
 43
1.0
 76
     1
 77
     6
 78
     2
 67
     7
 79
     5
170
     0
171
     0
290
     0
174
     0
 93
        1
 44
0.0
173
     0
291
     1
 45
0.0
1001
ACAD
1000
AcDbSavedByObjectVersion
1070
     0
  0
VISUALSTYLE
  5
38
102
{ACAD_XDICTIONARY
360
970
102
}
102
{ACAD_REACTORS
330
29
102
}
330
29
100
AcDbVisualStyle
  2

 70
    15
 71
     2
 72
     2
 73
     0
 90
        0
 40
-0.6
 41
-30.0
 62
     5
 63
     7
 74
     1
 91
        4
 64
     7
 65
   257
 75
     1
175
     1
 42
1.0
 92
        8
 66
     7
 43
1.0
 76
     1
 77
     6
 78
     2
 67
     7
 79
     5
170
     0
171
     0
290
     0
174
     0
 93
        1
 44
0.0
173
     0
291
     1
 45
0.0
1001
ACAD
1000
AcDbSavedByObjectVersion
1070
     0
  0
VISUALSTYLE
  5
2A
102
{ACAD_XDICTIONARY
360
954
102
}
102
{ACAD_REACTORS
330
29
102
}
330
29
100
AcDbVisualStyle
  2

 70
     0
 71
     2
 72
     1
 73
     1
 90
        2
 40
-0.6
 41
30.0
 62
     5
 63
     7
 74
     0
 91
        0
 64
     7
 65
   257
 75
     1
175
     1
 42
1.0
 92
        8
 66
     7
 43
1.0
 76
     1
 77
     6
 78
     2
 67
     7
 79
     5
170
     0
171
     0
290
     0
174
     0
 93
       13
 44
0.0
173
     0
291
     1
 45
0.0
1001
ACAD
1000
AcDbSavedByObjectVersion
1070
     0
  0
VISUALSTYLE
  5
2B
102
{ACAD_XDICTIONARY
360
956
102
}
102
{ACAD_REACTORS
330
29
102
}
330
29
100
AcDbVisualStyle
  2

 70
     1
 71
     2
 72
     1
 73
     1
 90
        2
 40
-0.6
 41
30.0
 62
     5
 63
     7
 74
     1
 91
        0
 64
     7
 65
   257
 75
     1
175
     1
 42
1.0
 92
        0
 66
   257
 43
1.0
 76
     1
 77
     6
 78
     2
 67
     7
 79
     5
170
     0
171
     0
290
     0
174
     0
 93
       13
 44
0.0
173
     0
291
     1
 45
0.0
1001
ACAD
1000
AcDbSavedByObjectVersion
1070
     0
  0
VISUALSTYLE
  5
2C
102
{ACAD_XDICTIONARY
360
958
102
}
102
{ACAD_REACTORS
330
29
102
}
330
29
100
AcDbVisualStyle
  2

 70
     2
 71
     2
 72
     2
 73
     1
 90
        2
 40
-0.6
 41
30.0
 62
     5
 63
     7
 74
     0
 91
        0
 64
     7
 65
   257
 75
     1
175
     1
 42
1.0
 92
        0
 66
     7
 43
1.0
 76
     1
 77
     6
 78
     2
 67
     7
 79
     5
170
     0
171
     0
290
     0
174
     0
 93
       13
 44
0.0
173
     0
291
     1
 45
0.0
1001
ACAD
1000
AcDbSavedByObjectVersion
1070
     0
  0
VISUALSTYLE
  5
2D
102
{ACAD_XDICTIONARY
360
95A
102
}
102
{ACAD_REACTORS
330
29
102
}
330
29
100
AcDbVisualStyle
  2

 70
     3
 71
     2
 72
     2
 73
     1
 90
        2
 40
-0.6
 41
30.0
 62
     5
 63
     7
 74
     1
 91
        0
 64
     7
 65
   257
 75
     1
175
     1
 42
1.0
 92
        0
 66
   257
 43
1.0
 76
     1
 77
     6
 78
     2
 67
     7
 79
     5
170
     0
171
     0
290
     0
174
     0
 93
       13
 44
0.0
173
     0
291
     1
 45
0.0
1001
ACAD
1000
AcDbSavedByObjectVersion
1070
     0
  0
VISUALSTYLE
  5
31
102
{ACAD_XDICTIONARY
360
962
102
}
102
{ACAD_REACTORS
330
29
102
}
330
29
100
AcDbVisualStyle
  2

 70
     6
 71
     1
 72
     2
 73
     2
 90
        0
 40
-0.6
 41
-30.0
 62
     5
 63
     7
 74
     2
 91
        2
 64
     7
 65
   257
 75
     2
175
     1
 42
40.0
 92
        0
 66
   257
 43
1.0
 76
     1
 77
     6
 78
     2
 67
     7
 79
     3
170
     0
171
     0
290
     0
174
     0
 93
        1
 44
0.0
173
     0
291
     0
 45
0.0
1001
ACAD
1000
AcDbSavedByObjectVersion
1070
     0
  0
VISUALSTYLE
  5
3F
102
{ACAD_XDICTIONARY
360
97E
102
}
102
{ACAD_REACTORS
330
29
102
}
330
29
100
AcDbVisualStyle
  2

 70
    20
 71
     2
 72
     2
 73
     0
 90
        0
 40
-0.6
 41
-30.0
 62
     5
 63
     7
 74
     1
 91
        4
 64
     7
 65
   257
 75
     1
175
     1
 42
1.0
 92
       10
 66
     7
 43
1.0
 76
     1
 77
     6
 78
     2
 67
     7
 79
     5
170
     0
171
     0
290
     0
174
     0
 93
        1
 44
0.0
173
     0
291
     1
 45
0.0
1001
ACAD
1000
AcDbSavedByObjectVersion
1070
     0
  0
VISUALSTYLE
  5
37
102
{ACAD_XDICTIONARY
360
96E
102
}
102
{ACAD_REACTORS
330
29
102
}
330
29
100
AcDbVisualStyle
  2

 70
    14
 71
     2
 72
     2
 73
     0
 90
        0
 40
-0.6
 41
-30.0
 62
     5
 63
     7
 74
     1
 91
        4
 64
     7
 65
   257
 75
     7
175
     7
 42
1.0
 92
        8
 66
     7
 43
1.0
 76
     1
 77
     6
 78
     2
 67
     7
 79
     5
170
     0
171
     0
290
     0
174
     0
 93
        1
 44
0.0
173
     0
291
     1
 45
0.0
1001
ACAD
1000
AcDbSavedByObjectVersion
1070
     0
  0
VISUALSTYLE
  5
40
102
{ACAD_XDICTIONARY
360
980
102
}
102
{ACAD_REACTORS
330
29
102
}
330
29
100
AcDbVisualStyle
  2

 70
    21
 71
     2
 72
     2
 73
     0
 90
        0
 40
-0.6
 41
-30.0
 62
     5
 63
     7
 74
     1
 91
        4
 64
     7
 65
   257
 75
     1
175
     1
 42
1.0
 92
        9
 66
     7
 43
1.0
 76
     1
 77
     6
 78
     2
 67
     7
 79
     5
170
     0
171
     0
290
     0
174
     0
 93
        1
 44
0.0
173
     0
291
     1
 45
0.0
1001
ACAD
1000
AcDbSavedByObjectVersion
1070
     0
  0
VISUALSTYLE
  5
33
102
{ACAD_XDICTIONARY
360
966
102
}
102
{ACAD_REACTORS
330
29
102
}
330
29
100
AcDbVisualStyle
  2

 70
     8
 71
     2
 72
     2
 73
     0
 90
        2
 40
-0.6
 41
30.0
 62
     5
 63
     7
 74
     0
 91
        0
 64
     7
 65
   257
 75
     1
175
     1
 42
1.0
 92
        8
 66
   257
 43
1.0
 76
     1
 77
     6
 78
     2
 67
     7
 79
     3
170
     0
171
     0
290
     0
174
     0
 93
       13
 44
0.0
173
     0
291
     0
 45
0.0
1001
ACAD
1000
AcDbSavedByObjectVersion
1070
     0
  0
VISUALSTYLE
  5
3E
102
{ACAD_XDICTIONARY
360
97C
102
}
102
{ACAD_REACTORS
330
29
102
}
330
29
100
AcDbVisualStyle
  2

 70
    27
 71
     2
 72
     2
 73
     1
 90
        2
 40
-0.6
 41
30.0
 62
     5
 63
     7
 74
     0
 91
        4
 64
     7
 65
   257
 75
     1
175
     1
 42
1.0
 92
        8
 66
   257
 43
1.0
 76
     1
 77
     6
 78
     2
 67
     8
 79
     3
170
     0
171
     0
290
     0
174
     0
 93
        5
 44
0.0
173
     0
291
     0
 45
0.0
1001
ACAD
1000
AcDbSavedByObjectVersion
1070
     0
  0
VISUALSTYLE
  5
3D
102
{ACAD_XDICTIONARY
360
97A
102
}
102
{ACAD_REACTORS
330
29
102
}
330
29
100
AcDbVisualStyle
  2

 70
    26
 71
     2
 72
     2
 73
     1
 90
        2
 40
-0.6
 41
30.0
 62
     5
 63
     7
 74
     1
 91
       10
 64
     7
 65
   257
 75
     2
175
     1
 42
1.0
 92
        8
 66
   257
 43
1.0
 76
     1
 77
     6
 78
     2
 67
     7
 79
     3
170
     0
171
     0
290
     0
174
     0
 93
        5
 44
0.0
173
     0
291
     0
 45
0.0
1001
ACAD
1000
AcDbSavedByObjectVersion
1070
     0
  0
VISUALSTYLE
  5
3A
102
{ACAD_XDICTIONARY
360
974
102
}
102
{ACAD_REACTORS
330
29
102
}
330
29
100
AcDbVisualStyle
  2

 70
    23
 71
     2
 72
     2
 73
     3
 90
        0
 40
-0.6
 41
-30.0
 62
     5
 63
     7
 74
     2
 91
        2
 64
     7
 65
     7
 75
     1
175
     1
 42
40.0
 92
        8
 66
     7
 43
1.0
 76
     1
 77
     6
 78
     2
 67
     7
 79
     3
170
     0
171
     0
290
     0
174
     0
 93
        1
 44
0.0
173
     0
291
     0
 45
0.0
1001
ACAD
1000
AcDbSavedByObjectVersion
1070
     0
  0
VISUALSTYLE
  5
3B
102
{ACAD_XDICTIONARY
360
976
102
}
102
{ACAD_REACTORS
330
29
102
}
330
29
100
AcDbVisualStyle
  2

 70
    24
 71
     1
 72
     2
 73
     2
 90
        0
 40
-0.6
 41
-30.0
 62
     5
 63
     7
 74
     2
 91
        2
 64
     7
 65
     7
 75
     1
175
     1
 42
40.0
 92
       11
 66
     7
 43
1.0
 76
     1
 77
     6
 78
     2
 67
     7
 79
     6
170
     0
171
     0
290
     0
174
     0
 93
        1
 44
0.0
173
     0
291
     0
 45
0.0
1001
ACAD
1000
AcDbSavedByObjectVersion
1070
     0
  0
VISUALSTYLE
  5
36
102
{ACAD_XDICTIONARY
360
96C
102
}
102
{ACAD_REACTORS
330
29
102
}
330
29
100
AcDbVisualStyle
  2

 70
    13
 71
     2
 72
     2
 73
     0
 90
        0
 40
-0.6
 41
-30.0
 62
     5
 63
     7
 74
     1
 91
        4
 64
     7
 65
   257
 75
     1
175
     1
 42
1.0
 92
       12
 66
     7
 43
1.0
 76
     1
 77
     6
 78
     2
 67
     7
 79
     5
170
     0
171
     0
290
     0
174
     0
 93
        1
 44
0.0
173
     0
291
     1
 45
0.0
1001
ACAD
1000
AcDbSavedByObjectVersion
1070
     0
  0
VISUALSTYLE
  5
30
102
{ACAD_XDICTIONARY
360
960
102
}
102
{ACAD_REACTORS
330
29
102
}
330
29
100
AcDbVisualStyle
  2

 70
     5
 71
     0
 72
     2
 73
     0
 90
        0
 40
-0.6
 41
-30.0
 62
     5
 63
     7
 74
     1
 91
        4
 64
     7
 65
   257
 75
     1
175
     1
 42
1.0
 92
        0
 66
   257
 43
1.0
 76
     1
 77
     6
 78
     2
 67
     7
 79
     3
170
     0
171
     0
290
     0
174
     0
 93
        1
 44
0.0
173
     0
291
     0
 45
0.0
1001
ACAD
1000
AcDbSavedByObjectVersion
1070
     0
  0
VISUALSTYLE
  5
3C
102
{ACAD_XDICTIONARY
360
978
102
}
102
{ACAD_REACTORS
330
29
102
}
330
29
100
AcDbVisualStyle
  2

 70
    25
 71
     2
 72
     2
 73
     1
 90
        1
 40
0.5
 41
-30.0
 62
     5
 63
     7
 74
     1
 91
        0
 64
     7
 65
   257
 75
     1
175
     1
 42
1.0
 92
        8
 66
     7
 43
1.0
 76
     1
 77
     6
 78
     2
 67
     7
 79
     3
170
     0
171
     0
290
     0
174
     0
 93
       13
 44
0.0
173
     0
291
     0
 45
0.0
1001
ACAD
1000
AcDbSavedByObjectVersion
1070
     0
  0
DICTIONARYVAR
  5
81
102
{ACAD_REACTORS
330
7C
102
}
330
7C
100
DictionaryVariables
280
     0
  1
1:1
  0
DICTIONARYVAR
  5
7E
102
{ACAD_REACTORS
330
7C
102
}
330
7C
100
DictionaryVariables
280
     0
  1
STANDARD
  0
DICTIONARYVAR
  5
7D
102
{ACAD_REACTORS
330
7C
102
}
330
7C
100
DictionaryVariables
280
     0
  1
STANDARD
  0
DICTIONARYVAR
  5
7F
102
{ACAD_REACTORS
330
7C
102
}
330
7C
100
DictionaryVariables
280
     0
  1
Imperial24
  0
DICTIONARYVAR
  5
80
102
{ACAD_REACTORS
330
7C
102
}
330
7C
100
DictionaryVariables
280
     0
  1
Imperial24
  0
DICTIONARYVAR
  5
6EB
102
{ACAD_REACTORS
330
7C
102
}
330
7C
100
DictionaryVariables
280
     0
  1
2
  0
DICTIONARYVAR
  5
6EA
102
{ACAD_REACTORS
330
7C
102
}
330
7C
100
DictionaryVariables
280
     0
  1
1
  0
DICTIONARYVAR
  5
6E9
102
{ACAD_REACTORS
330
7C
102
}
330
7C
100
DictionaryVariables
280
     0
  1
0
  0
DICTIONARYVAR
  5
94A
102
{ACAD_REACTORS
330
7C
102
}
330
7C
100
DictionaryVariables
280
     0
  1
0.000000
  0
DICTIONARYVAR
  5
6E6
102
{ACAD_REACTORS
330
7C
102
}
330
7C
100
DictionaryVariables
280
     0
  1
0
  0
DICTIONARYVAR
  5
6E7
102
{ACAD_REACTORS
330
7C
102
}
330
7C
100
DictionaryVariables
280
     0
  1
0
  0
DICTIONARYVAR
  5
6E5
102
{ACAD_REACTORS
330
7C
102
}
330
7C
100
DictionaryVariables
280
     0
  1
2
  0
DICTIONARYVAR
  5
948
102
{ACAD_REACTORS
330
7C
102
}
330
7C
100
DictionaryVariables
280
     0
  1
1.570796
  0
DICTIONARYVAR
  5
949
102
{ACAD_REACTORS
330
7C
102
}
330
7C
100
DictionaryVariables
280
     0
  1
1.570796
  0
DICTIONARYVAR
  5
94B
102
{ACAD_REACTORS
330
7C
102
}
330
7C
100
DictionaryVariables
280
     0
  1
0.000000
  0
DICTIONARYVAR
  5
6E4
102
{ACAD_REACTORS
330
7C
102
}
330
7C
100
DictionaryVariables
280
     0
  1
1
  0
DICTIONARYVAR
  5
6E8
102
{ACAD_REACTORS
330
7C
102
}
330
7C
100
DictionaryVariables
280
     0
  1
127
  0
DICTIONARYVAR
  5
94C
102
{ACAD_REACTORS
330
7C
102
}
330
7C
100
DictionaryVariables
280
     0
  1
0
  0
DICTIONARYVAR
  5
94D
102
{ACAD_REACTORS
330
7C
102
}
330
7C
100
DictionaryVariables
280
     0
  1
2
  0
XRECORD
  5
3C3
102
{ACAD_REACTORS
330
3C1
102
}
330
3C1
100
AcDbXrecord
280
     1
  1
-2000051
  1
Lines
  1
-2000240
  1
Levels
  1
-2000260
  1
Dimensions
  1
-2000510
  1
Viewports
  1
-2000515
  1
View Titles
  1
-2000535
  1
Elevations
  1
-2001140
  1
Mechanical Equipment
  1
-2006020
  1
Level Heads
  0
XRECORD
  5
3C4
102
{ACAD_REACTORS
330
3C1
102
}
330
3C1
100
AcDbXrecord
280
     1
  1
161512
  1
MEP Hidden
  0
XRECORD
  5
3C2
102
{ACAD_REACTORS
330
3C1
102
}
330
3C1
100
AcDbXrecord
280
     1
  1
16
  1
Linear Dimension Style : Linear - 3/32" Arial
  1
27
  1
Level : 1/4" Head
  1
661160
  1
CCCT_-_BAC_-_PFI_-_1_Cell_-_S-Double_Connection_-_RH : PFI-1218N-2D1DS-N1
  1
75910
  1
Elevation : Building Elevation
  1
9835
  1
Viewport : Viewport 1
  0
DICTIONARY
  5
987
330
70
100
AcDbDictionary
280
     1
281
     1
  3
ACAD_XREC_ROUNDTRIP
360
988
  0
DICTIONARY
  5
989
330
74
100
AcDbDictionary
280
     1
281
     1
  3
ACAD_XREC_ROUNDTRIP
360
98A
  0
DICTIONARY
  5
1A
330
19
100
AcDbDictionary
280
     1
281
     1
  3
ACAD_XREC_ROUNDTRIP
360
952
  3
BUMPTILE
360
1C
  3
DIFFUSETILE
360
1B
  3
OPACITYTILE
360
1F
  3
REFLECTIONTILE
360
1E
  3
REFRACTIONTILE
360
20
  3
SPECULARTILE
360
1D
  0
DICTIONARY
  5
12
330
11
100
AcDbDictionary
280
     1
281
     1
  3
ACAD_XREC_ROUNDTRIP
360
951
  3
BUMPTILE
360
14
  3
DIFFUSETILE
360
13
  3
OPACITYTILE
360
17
  3
REFLECTIONTILE
360
16
  3
REFRACTIONTILE
360
18
  3
SPECULARTILE
360
15
  0
DICTIONARY
  5
22
330
21
100
AcDbDictionary
280
     1
281
     1
  3
ACAD_XREC_ROUNDTRIP
360
953
  3
BUMPTILE
360
24
  3
DIFFUSETILE
360
23
  3
OPACITYTILE
360
27
  3
REFLECTIONTILE
360
26
  3
REFRACTIONTILE
360
28
  3
SPECULARTILE
360
25
  0
DICTIONARY
  5
985
330
67
100
AcDbDictionary
280
     1
281
     1
  3
ACAD_XREC_ROUNDTRIP
360
986
  0
DICTIONARY
  5
3C8
330
65
100
AcDbDictionary
280
     1
281
     1
  3
ACAD_ROUNDTRIP_2008_TABLESTYLE_CELLSTYLEMAP
360
94E
  3
ACAD_XREC_ROUNDTRIP
360
984
  0
DICTIONARY
  5
95E
330
2F
100
AcDbDictionary
280
     1
281
     1
  3
ACAD_XREC_ROUNDTRIP
360
95F
  0
DICTIONARY
  5
95C
330
2E
100
AcDbDictionary
280
     1
281
     1
  3
ACAD_XREC_ROUNDTRIP
360
95D
  0
DICTIONARY
  5
96A
330
35
100
AcDbDictionary
280
     1
281
     1
  3
ACAD_XREC_ROUNDTRIP
360
96B
  0
DICTIONARY
  5
972
330
39
100
AcDbDictionary
280
     1
281
     1
  3
ACAD_XREC_ROUNDTRIP
360
973
  0
DICTIONARY
  5
964
330
32
100
AcDbDictionary
280
     1
281
     1
  3
ACAD_XREC_ROUNDTRIP
360
965
  0
DICTIONARY
  5
968
330
34
100
AcDbDictionary
280
     1
281
     1
  3
ACAD_XREC_ROUNDTRIP
360
969
  0
DICTIONARY
  5
982
330
41
100
AcDbDictionary
280
     1
281
     1
  3
ACAD_XREC_ROUNDTRIP
360
983
  0
DICTIONARY
  5
970
330
38
100
AcDbDictionary
280
     1
281
     1
  3
ACAD_XREC_ROUNDTRIP
360
971
  0
DICTIONARY
  5
954
330
2A
100
AcDbDictionary
280
     1
281
     1
  3
ACAD_XREC_ROUNDTRIP
360
955
  0
DICTIONARY
  5
956
330
2B
100
AcDbDictionary
280
     1
281
     1
  3
ACAD_XREC_ROUNDTRIP
360
957
  0
DICTIONARY
  5
958
330
2C
100
AcDbDictionary
280
     1
281
     1
  3
ACAD_XREC_ROUNDTRIP
360
959
  0
DICTIONARY
  5
95A
330
2D
100
AcDbDictionary
280
     1
281
     1
  3
ACAD_XREC_ROUNDTRIP
360
95B
  0
DICTIONARY
  5
962
330
31
100
AcDbDictionary
280
     1
281
     1
  3
ACAD_XREC_ROUNDTRIP
360
963
  0
DICTIONARY
  5
97E
330
3F
100
AcDbDictionary
280
     1
281
     1
  3
ACAD_XREC_ROUNDTRIP
360
97F
  0
DICTIONARY
  5
96E
330
37
100
AcDbDictionary
280
     1
281
     1
  3
ACAD_XREC_ROUNDTRIP
360
96F
  0
DICTIONARY
  5
980
330
40
100
AcDbDictionary
280
     1
281
     1
  3
ACAD_XREC_ROUNDTRIP
360
981
  0
DICTIONARY
  5
966
330
33
100
AcDbDictionary
280
     1
281
     1
  3
ACAD_XREC_ROUNDTRIP
360
967
  0
DICTIONARY
  5
97C
330
3E
100
AcDbDictionary
280
     1
281
     1
  3
ACAD_XREC_ROUNDTRIP
360
97D
  0
DICTIONARY
  5
97A
330
3D
100
AcDbDictionary
280
     1
281
     1
  3
ACAD_XREC_ROUNDTRIP
360
97B
  0
DICTIONARY
  5
974
330
3A
100
AcDbDictionary
280
     1
281
     1
  3
ACAD_XREC_ROUNDTRIP
360
975
  0
DICTIONARY
  5
976
330
3B
100
AcDbDictionary
280
     1
281
     1
  3
ACAD_XREC_ROUNDTRIP
360
977
  0
DICTIONARY
  5
96C
330
36
100
AcDbDictionary
280
     1
281
     1
  3
ACAD_XREC_ROUNDTRIP
360
96D
  0
DICTIONARY
  5
960
330
30
100
AcDbDictionary
280
     1
281
     1
  3
ACAD_XREC_ROUNDTRIP
360
961
  0
DICTIONARY
  5
978
330
3C
100
AcDbDictionary
280
     1
281
     1
  3
ACAD_XREC_ROUNDTRIP
360
979
  0
XRECORD
  5
988
102
{ACAD_REACTORS
330
987
102
}
330
987
100
AcDbXrecord
280
     1
102
SHADEPLOT
 70
     0
102
SHADEPLOTRESLEVEL
 70
     2
102
SHADEPLOTCUSTOMDPI
 70
   300
  0
XRECORD
  5
98A
102
{ACAD_REACTORS
330
989
102
}
330
989
100
AcDbXrecord
280
     1
102
SHADEPLOT
 70
     0
102
SHADEPLOTRESLEVEL
 70
     2
102
SHADEPLOTCUSTOMDPI
 70
   300
  0
XRECORD
  5
952
102
{ACAD_REACTORS
330
1A
102
}
330
1A
100
AcDbXrecord
280
     1
102
MATERIAL
148
0.0
149
0.0
149
0.0
 93
        0
 94
      127
282
     0
 72
     0
 77
     0
171
     0
175
     0
179
     0
273
     0
  0
XRECORD
  5
1C
102
{ACAD_REACTORS
330
1A
102
}
330
1A
100
AcDbXrecord
280
     1
270
     1
271
     1
  0
XRECORD
  5
1B
102
{ACAD_REACTORS
330
1A
102
}
330
1A
100
AcDbXrecord
280
     1
270
     1
271
     1
  0
XRECORD
  5
1F
102
{ACAD_REACTORS
330
1A
102
}
330
1A
100
AcDbXrecord
280
     1
270
     1
271
     1
  0
XRECORD
  5
1E
102
{ACAD_REACTORS
330
1A
102
}
330
1A
100
AcDbXrecord
280
     1
270
     1
271
     1
  0
XRECORD
  5
20
102
{ACAD_REACTORS
330
1A
102
}
330
1A
100
AcDbXrecord
280
     1
270
     1
271
     1
  0
XRECORD
  5
1D
102
{ACAD_REACTORS
330
1A
102
}
330
1A
100
AcDbXrecord
280
     1
270
     1
271
     1
  0
XRECORD
  5
951
102
{ACAD_REACTORS
330
12
102
}
330
12
100
AcDbXrecord
280
     1
102
MATERIAL
148
0.0
149
0.0
149
0.0
 93
        0
 94
      127
282
     0
 72
     0
 77
     0
171
     0
175
     0
179
     0
273
     0
  0
XRECORD
  5
14
102
{ACAD_REACTORS
330
12
102
}
330
12
100
AcDbXrecord
280
     1
270
     1
271
     1
  0
XRECORD
  5
13
102
{ACAD_REACTORS
330
12
102
}
330
12
100
AcDbXrecord
280
     1
270
     1
271
     1
  0
XRECORD
  5
17
102
{ACAD_REACTORS
330
12
102
}
330
12
100
AcDbXrecord
280
     1
270
     1
271
     1
  0
XRECORD
  5
16
102
{ACAD_REACTORS
330
12
102
}
330
12
100
AcDbXrecord
280
     1
270
     1
271
     1
  0
XRECORD
  5
18
102
{ACAD_REACTORS
330
12
102
}
330
12
100
AcDbXrecord
280
     1
270
     1
271
     1
  0
XRECORD
  5
15
102
{ACAD_REACTORS
330
12
102
}
330
12
100
AcDbXrecord
280
     1
270
     1
271
     1
  0
XRECORD
  5
953
102
{ACAD_REACTORS
330
22
102
}
330
22
100
AcDbXrecord
280
     1
102
MATERIAL
148
0.0
149
0.0
149
0.0
 93
        0
 94
      127
282
     0
 72
     0
 77
     0
171
     0
175
     0
179
     0
273
     0
  0
XRECORD
  5
24
102
{ACAD_REACTORS
330
22
102
}
330
22
100
AcDbXrecord
280
     1
270
     1
271
     1
  0
XRECORD
  5
23
102
{ACAD_REACTORS
330
22
102
}
330
22
100
AcDbXrecord
280
     1
270
     1
271
     1
  0
XRECORD
  5
27
102
{ACAD_REACTORS
330
22
102
}
330
22
100
AcDbXrecord
280
     1
270
     1
271
     1
  0
XRECORD
  5
26
102
{ACAD_REACTORS
330
22
102
}
330
22
100
AcDbXrecord
280
     1
270
     1
271
     1
  0
XRECORD
  5
28
102
{ACAD_REACTORS
330
22
102
}
330
22
100
AcDbXrecord
280
     1
270
     1
271
     1
  0
XRECORD
  5
25
102
{ACAD_REACTORS
330
22
102
}
330
22
100
AcDbXrecord
280
     1
270
     1
271
     1
  0
XRECORD
  5
986
102
{ACAD_REACTORS
330
985
102
}
330
985
100
AcDbXrecord
280
     1
102
ACAD_ROUNDTRIP_2012_MLEADER_STYLE
298
     1
  0
CELLSTYLEMAP
  5
94E
102
{ACAD_REACTORS
330
3C8
102
}
330
3C8
100
AcDbCellStyleMap
 90
        3
300
CELLSTYLE
  1
TABLEFORMAT_BEGIN
 90
        5
170
     1
 91
        0
 92
    32768
 62
   257
 93
        1
300
CONTENTFORMAT
  1
CONTENTFORMAT_BEGIN
 90
        0
 91
        0
 92
      512
 93
        0
300

 40
0.0
140
1.0
 94
        5
 62
     0
340
55
144
0.25
309
CONTENTFORMAT_END
171
     1
301
MARGIN
  1
CELLMARGIN_BEGIN
 40
0.06
 40
0.06
 40
0.06
 40
0.06
 40
0.18
 40
0.18
309
CELLMARGIN_END
 94
        6
 95
        1
302
GRIDFORMAT
  1
GRIDFORMAT_BEGIN
 90
        0
 91
        1
 62
     0
 92
       -2
340
0
 93
        0
 40
0.045
309
GRIDFORMAT_END
 95
        2
302
GRIDFORMAT
  1
GRIDFORMAT_BEGIN
 90
        0
 91
        1
 62
     0
 92
       -2
340
0
 93
        0
 40
0.045
309
GRIDFORMAT_END
 95
        4
302
GRIDFORMAT
  1
GRIDFORMAT_BEGIN
 90
        0
 91
        1
 62
     0
 92
       -2
340
0
 93
        0
 40
0.045
309
GRIDFORMAT_END
 95
        8
302
GRIDFORMAT
  1
GRIDFORMAT_BEGIN
 90
        0
 91
        1
 62
     0
 92
       -2
340
0
 93
        0
 40
0.045
309
GRIDFORMAT_END
 95
       16
302
GRIDFORMAT
  1
GRIDFORMAT_BEGIN
 90
        0
 91
        1
 62
     0
 92
       -2
340
0
 93
        0
 40
0.045
309
GRIDFORMAT_END
 95
       32
302
GRIDFORMAT
  1
GRIDFORMAT_BEGIN
 90
        0
 91
        1
 62
     0
 92
       -2
340
0
 93
        0
 40
0.045
309
GRIDFORMAT_END
309
TABLEFORMAT_END
  1
CELLSTYLE_BEGIN
 90
        1
 91
        1
300
_TITLE
309
CELLSTYLE_END
300
CELLSTYLE
  1
TABLEFORMAT_BEGIN
 90
        5
170
     1
 91
        0
 92
        0
 62
   257
 93
        1
300
CONTENTFORMAT
  1
CONTENTFORMAT_BEGIN
 90
        0
 91
        0
 92
      512
 93
        0
300

 40
0.0
140
1.0
 94
        5
 62
     0
340
55
144
0.18
309
CONTENTFORMAT_END
171
     1
301
MARGIN
  1
CELLMARGIN_BEGIN
 40
0.06
 40
0.06
 40
0.06
 40
0.06
 40
0.18
 40
0.18
309
CELLMARGIN_END
 94
        6
 95
        1
302
GRIDFORMAT
  1
GRIDFORMAT_BEGIN
 90
        0
 91
        1
 62
     0
 92
       -2
340
0
 93
        0
 40
0.045
309
GRIDFORMAT_END
 95
        2
302
GRIDFORMAT
  1
GRIDFORMAT_BEGIN
 90
        0
 91
        1
 62
     0
 92
       -2
340
0
 93
        0
 40
0.045
309
GRIDFORMAT_END
 95
        4
302
GRIDFORMAT
  1
GRIDFORMAT_BEGIN
 90
        0
 91
        1
 62
     0
 92
       -2
340
0
 93
        0
 40
0.045
309
GRIDFORMAT_END
 95
        8
302
GRIDFORMAT
  1
GRIDFORMAT_BEGIN
 90
        0
 91
        1
 62
     0
 92
       -2
340
0
 93
        0
 40
0.045
309
GRIDFORMAT_END
 95
       16
302
GRIDFORMAT
  1
GRIDFORMAT_BEGIN
 90
        0
 91
        1
 62
     0
 92
       -2
340
0
 93
        0
 40
0.045
309
GRIDFORMAT_END
 95
       32
302
GRIDFORMAT
  1
GRIDFORMAT_BEGIN
 90
        0
 91
        1
 62
     0
 92
       -2
340
0
 93
        0
 40
0.045
309
GRIDFORMAT_END
309
TABLEFORMAT_END
  1
CELLSTYLE_BEGIN
 90
        2
 91
        1
300
_HEADER
309
CELLSTYLE_END
300
CELLSTYLE
  1
TABLEFORMAT_BEGIN
 90
        5
170
     1
 91
        0
 92
        0
 62
   257
 93
        1
300
CONTENTFORMAT
  1
CONTENTFORMAT_BEGIN
 90
        0
 91
        0
 92
      512
 93
        0
300

 40
0.0
140
1.0
 94
        2
 62
     0
340
55
144
0.18
309
CONTENTFORMAT_END
171
     1
301
MARGIN
  1
CELLMARGIN_BEGIN
 40
0.06
 40
0.06
 40
0.06
 40
0.06
 40
0.18
 40
0.18
309
CELLMARGIN_END
 94
        6
 95
        1
302
GRIDFORMAT
  1
GRIDFORMAT_BEGIN
 90
        0
 91
        1
 62
     0
 92
       -2
340
0
 93
        0
 40
0.045
309
GRIDFORMAT_END
 95
        2
302
GRIDFORMAT
  1
GRIDFORMAT_BEGIN
 90
        0
 91
        1
 62
     0
 92
       -2
340
0
 93
        0
 40
0.045
309
GRIDFORMAT_END
 95
        4
302
GRIDFORMAT
  1
GRIDFORMAT_BEGIN
 90
        0
 91
        1
 62
     0
 92
       -2
340
0
 93
        0
 40
0.045
309
GRIDFORMAT_END
 95
        8
302
GRIDFORMAT
  1
GRIDFORMAT_BEGIN
 90
        0
 91
        1
 62
     0
 92
       -2
340
0
 93
        0
 40
0.045
309
GRIDFORMAT_END
 95
       16
302
GRIDFORMAT
  1
GRIDFORMAT_BEGIN
 90
        0
 91
        1
 62
     0
 92
       -2
340
0
 93
        0
 40
0.045
309
GRIDFORMAT_END
 95
       32
302
GRIDFORMAT
  1
GRIDFORMAT_BEGIN
 90
        0
 91
        1
 62
     0
 92
       -2
340
0
 93
        0
 40
0.045
309
GRIDFORMAT_END
309
TABLEFORMAT_END
  1
CELLSTYLE_BEGIN
 90
        3
 91
        2
300
_DATA
309
CELLSTYLE_END
  0
XRECORD
  5
984
102
{ACAD_REACTORS
330
3C8
102
}
330
3C8
100
AcDbXrecord
280
     1
102
ACAD_ROUNDTRIP_PRE2007_TABLESTYLE
 90
      512
 91
        0
  1

 92
      512
 93
        0
  2

 94
      512
 95
        0
  3

  0
XRECORD
  5
95F
102
{ACAD_REACTORS
330
95E
102
}
330
95E
100
AcDbXrecord
280
     1
102
RTVSPost2010Prop28
280
     1
102
RTVSPost2010PropOp28
 70
     1
102
RTVSPost2010Prop29
280
     1
102
RTVSPost2010PropOp29
 70
     1
102
RTVSPost2010Prop30
280
     0
102
RTVSPost2010PropOp30
 70
     1
102
RTVSPost2010Prop31
280
     0
102
RTVSPost2010PropOp31
 70
     1
102
RTVSPost2010Prop32
280
     0
102
RTVSPost2010PropOp32
 70
     1
102
RTVSPost2010Prop33
280
     0
102
RTVSPost2010PropOp33
 70
     1
102
RTVSPost2010Prop34
280
     0
102
RTVSPost2010PropOp34
 70
     1
102
RTVSPost2010Prop35
280
     0
102
RTVSPost2010PropOp35
 70
     1
102
RTVSPost2010Prop36
280
     0
102
RTVSPost2010PropOp36
 70
     1
102
RTVSPost2010Prop37
 90
       50
102
RTVSPost2010PropOp37
 70
     1
102
RTVSPost2010Prop38
140
0.0
102
RTVSPost2010PropOp38
 70
     1
102
RTVSPost2010Prop39
140
1.0
102
RTVSPost2010PropOp39
 70
     1
102
RTVSPost2010Prop40
 90
        0
102
RTVSPost2010PropOp40
 70
     1
102
RTVSPost2010Prop41ColorIndex
 90
       18
102
RTVSPost2010Prop41ColorRGB
 90
-16777216
102
RTVSPost2010PropOp41
 70
     1
102
RTVSPost2010Prop42
 90
       50
102
RTVSPost2010PropOp42
 70
     1
102
RTVSPost2010Prop43
 90
        3
102
RTVSPost2010PropOp43
 70
     1
102
RTVSPost2010Prop44ColorIndex
 90
        5
102
RTVSPost2010Prop44ColorRGB
 90
      255
102
RTVSPost2010PropOp44
 70
     1
102
RTVSPost2010Prop45
280
     0
102
RTVSPost2010PropOp45
 70
     1
102
RTVSPost2010Prop46
 90
       50
102
RTVSPost2010PropOp46
 70
     1
102
RTVSPost2010Prop47
 90
       50
102
RTVSPost2010PropOp47
 70
     1
102
RTVSPost2010Prop48
 90
       50
102
RTVSPost2010PropOp48
 70
     1
102
RTVSPost2010Prop49
280
     0
102
RTVSPost2010PropOp49
 70
     1
102
RTVSPost2010Prop50
 90
       50
102
RTVSPost2010PropOp50
 70
     1
102
RTVSPost2010Prop51ColorIndex
 90
      256
102
RTVSPost2010Prop51ColorRGB
 90
-16777216
102
RTVSPost2010PropOp51
 70
     0
102
RTVSPost2010Prop52
140
1.0
102
RTVSPost2010PropOp52
 70
     0
102
RTVSPost2010Prop53
 90
        2
102
RTVSPost2010PropOp53
 70
     1
102
RTVSPost2010Prop54
  1
strokes_ogs.tif
102
RTVSPost2010PropOp54
 70
     1
102
RTVSPost2010Prop55
280
     0
102
RTVSPost2010PropOp55
 70
     1
102
RTVSPost2010Prop56
140
1.0
102
RTVSPost2010PropOp56
 70
     1
102
RTVSPost2010Prop57
140
1.0
102
RTVSPost2010PropOp57
 70
     1
102
RTVSPropertyOp0
 70
     1
102
RTVSPropertyOp1
 70
     1
102
RTVSPropertyOp2
 70
     1
102
RTVSPropertyOp3
 70
     1
102
RTVSPropertyOp4
 70
     1
102
RTVSPropertyOp5
 70
     1
102
RTVSPropertyOp6
 70
     1
102
RTVSPropertyOp7
 70
     1
102
RTVSPropertyOp8
 70
     1
102
RTVSPropertyOp9
 70
     1
102
RTVSPropertyOp10
 70
     1
102
RTVSPropertyOp11
 70
     1
102
RTVSPropertyOp12
 70
     1
102
RTVSPropertyOp13
 70
     1
102
RTVSPropertyOp14
 70
     1
102
RTVSPropertyOp15
 70
     1
102
RTVSPropertyOp16
 70
     1
102
RTVSPropertyOp17
 70
     1
102
RTVSPropertyOp18
 70
     1
102
RTVSPropertyOp19
 70
     1
102
RTVSPropertyOp20
 70
     1
102
RTVSPropertyOp21
 70
     1
102
RTVSPropertyOp22
 70
     1
102
RTVSPropertyOp23
 70
     1
102
RTVSPropertyOp24
 70
     1
102
RTVSPropertyOp25
 70
     1
102
RTVSPropertyOp26
 70
     1
102
RTVSPropertyOp27
 70
     1
102
RTVSPropertyOp28
 70
     1
102
RTVSPropertyOp29
 70
     1
102
RTVSPropertyOp30
 70
     1
102
RTVSPropertyOp31
 70
     1
102
RTVSPropertyOp32
 70
     1
102
RTVSPropertyOp33
 70
     1
102
RTVSPropertyOp34
 70
     1
102
RTVSPropertyOp35
 70
     1
102
RTVSPropertyOp36
 70
     1
102
RTVSPropertyOp37
 70
     1
102
RTVSPropertyOp38
 70
     1
102
RTVSPropertyOp39
 70
     1
102
RTVSPropertyOp40
 70
     1
102
RTVSPropertyOp41
 70
     1
102
RTVSPropertyOp42
 70
     1
102
RTVSPropertyOp43
 70
     1
102
RTVSPropertyOp44
 70
     1
102
RTVSPropertyOp45
 70
     1
102
RTVSPropertyOp46
 70
     1
102
RTVSPropertyOp47
 70
     1
102
RTVSPropertyOp48
 70
     1
102
RTVSPropertyOp49
 70
     1
102
RTVSPropertyOp50
 70
     1
102
RTVSPropertyOp51
 70
     0
102
RTVSPropertyOp52
 70
     0
102
RTVSPropertyOp53
 70
     1
102
RTVSPropertyOp54
 70
     1
102
RTVSPropertyOp55
 70
     1
102
RTVSPropertyOp56
 70
     1
102
RTVSPropertyOp57
 70
     1
102
RTVSPropertyOp58
 70
     1
102
RTVSPropertyOp59
 70
     1
102
RTVSPropertyOp60
 70
     1
102
RTVSPropertyOp61
 70
     1
102
RTVSPropertyOp62
 70
     1
  0
XRECORD
  5
95D
102
{ACAD_REACTORS
330
95C
102
}
330
95C
100
AcDbXrecord
280
     1
102
RTVSPost2010Prop28
280
     0
102
RTVSPost2010PropOp28
 70
     1
102
RTVSPost2010Prop29
280
     1
102
RTVSPost2010PropOp29
 70
     1
102
RTVSPost2010Prop30
280
     1
102
RTVSPost2010PropOp30
 70
     1
102
RTVSPost2010Prop31
280
     0
102
RTVSPost2010PropOp31
 70
     1
102
RTVSPost2010Prop32
280
     0
102
RTVSPost2010PropOp32
 70
     1
102
RTVSPost2010Prop33
280
     0
102
RTVSPost2010PropOp33
 70
     1
102
RTVSPost2010Prop34
280
     0
102
RTVSPost2010PropOp34
 70
     1
102
RTVSPost2010Prop35
280
     0
102
RTVSPost2010PropOp35
 70
     1
102
RTVSPost2010Prop36
280
     0
102
RTVSPost2010PropOp36
 70
     1
102
RTVSPost2010Prop37
 90
       50
102
RTVSPost2010PropOp37
 70
     1
102
RTVSPost2010Prop38
140
0.0
102
RTVSPost2010PropOp38
 70
     1
102
RTVSPost2010Prop39
140
1.0
102
RTVSPost2010PropOp39
 70
     1
102
RTVSPost2010Prop40
 90
        0
102
RTVSPost2010PropOp40
 70
     1
102
RTVSPost2010Prop41ColorIndex
 90
       18
102
RTVSPost2010Prop41ColorRGB
 90
-16777216
102
RTVSPost2010PropOp41
 70
     1
102
RTVSPost2010Prop42
 90
       50
102
RTVSPost2010PropOp42
 70
     1
102
RTVSPost2010Prop43
 90
        3
102
RTVSPost2010PropOp43
 70
     1
102
RTVSPost2010Prop44ColorIndex
 90
        5
102
RTVSPost2010Prop44ColorRGB
 90
      255
102
RTVSPost2010PropOp44
 70
     1
102
RTVSPost2010Prop45
280
     0
102
RTVSPost2010PropOp45
 70
     1
102
RTVSPost2010Prop46
 90
       50
102
RTVSPost2010PropOp46
 70
     1
102
RTVSPost2010Prop47
 90
       50
102
RTVSPost2010PropOp47
 70
     1
102
RTVSPost2010Prop48
 90
       50
102
RTVSPost2010PropOp48
 70
     1
102
RTVSPost2010Prop49
280
     0
102
RTVSPost2010PropOp49
 70
     1
102
RTVSPost2010Prop50
 90
       50
102
RTVSPost2010PropOp50
 70
     1
102
RTVSPost2010Prop51ColorIndex
 90
      256
102
RTVSPost2010Prop51ColorRGB
 90
-16777216
102
RTVSPost2010PropOp51
 70
     0
102
RTVSPost2010Prop52
140
1.0
102
RTVSPost2010PropOp52
 70
     0
102
RTVSPost2010Prop53
 90
        2
102
RTVSPost2010PropOp53
 70
     1
102
RTVSPost2010Prop54
  1
strokes_ogs.tif
102
RTVSPost2010PropOp54
 70
     1
102
RTVSPost2010Prop55
280
     0
102
RTVSPost2010PropOp55
 70
     1
102
RTVSPost2010Prop56
140
1.0
102
RTVSPost2010PropOp56
 70
     1
102
RTVSPost2010Prop57
140
1.0
102
RTVSPost2010PropOp57
 70
     1
102
RTVSPropertyOp0
 70
     1
102
RTVSPropertyOp1
 70
     1
102
RTVSPropertyOp2
 70
     1
102
RTVSPropertyOp3
 70
     1
102
RTVSPropertyOp4
 70
     1
102
RTVSPropertyOp5
 70
     1
102
RTVSPropertyOp6
 70
     1
102
RTVSPropertyOp7
 70
     1
102
RTVSPropertyOp8
 70
     1
102
RTVSPropertyOp9
 70
     1
102
RTVSPropertyOp10
 70
     1
102
RTVSPropertyOp11
 70
     1
102
RTVSPropertyOp12
 70
     1
102
RTVSPropertyOp13
 70
     1
102
RTVSPropertyOp14
 70
     1
102
RTVSPropertyOp15
 70
     1
102
RTVSPropertyOp16
 70
     1
102
RTVSPropertyOp17
 70
     1
102
RTVSPropertyOp18
 70
     1
102
RTVSPropertyOp19
 70
     1
102
RTVSPropertyOp20
 70
     1
102
RTVSPropertyOp21
 70
     1
102
RTVSPropertyOp22
 70
     1
102
RTVSPropertyOp23
 70
     1
102
RTVSPropertyOp24
 70
     1
102
RTVSPropertyOp25
 70
     1
102
RTVSPropertyOp26
 70
     1
102
RTVSPropertyOp27
 70
     1
102
RTVSPropertyOp28
 70
     1
102
RTVSPropertyOp29
 70
     1
102
RTVSPropertyOp30
 70
     1
102
RTVSPropertyOp31
 70
     1
102
RTVSPropertyOp32
 70
     1
102
RTVSPropertyOp33
 70
     1
102
RTVSPropertyOp34
 70
     1
102
RTVSPropertyOp35
 70
     1
102
RTVSPropertyOp36
 70
     1
102
RTVSPropertyOp37
 70
     1
102
RTVSPropertyOp38
 70
     1
102
RTVSPropertyOp39
 70
     1
102
RTVSPropertyOp40
 70
     1
102
RTVSPropertyOp41
 70
     1
102
RTVSPropertyOp42
 70
     1
102
RTVSPropertyOp43
 70
     1
102
RTVSPropertyOp44
 70
     1
102
RTVSPropertyOp45
 70
     1
102
RTVSPropertyOp46
 70
     1
102
RTVSPropertyOp47
 70
     1
102
RTVSPropertyOp48
 70
     1
102
RTVSPropertyOp49
 70
     1
102
RTVSPropertyOp50
 70
     1
102
RTVSPropertyOp51
 70
     0
102
RTVSPropertyOp52
 70
     0
102
RTVSPropertyOp53
 70
     1
102
RTVSPropertyOp54
 70
     1
102
RTVSPropertyOp55
 70
     1
102
RTVSPropertyOp56
 70
     1
102
RTVSPropertyOp57
 70
     1
102
RTVSPropertyOp58
 70
     1
102
RTVSPropertyOp59
 70
     1
102
RTVSPropertyOp60
 70
     1
102
RTVSPropertyOp61
 70
     1
102
RTVSPropertyOp62
 70
     1
  0
XRECORD
  5
96B
102
{ACAD_REACTORS
330
96A
102
}
330
96A
100
AcDbXrecord
280
     1
102
RTVSPost2010Prop28
280
     0
102
RTVSPost2010PropOp28
 70
     1
102
RTVSPost2010Prop29
280
     1
102
RTVSPost2010PropOp29
 70
     1
102
RTVSPost2010Prop30
280
     1
102
RTVSPost2010PropOp30
 70
     1
102
RTVSPost2010Prop31
280
     0
102
RTVSPost2010PropOp31
 70
     1
102
RTVSPost2010Prop32
280
     0
102
RTVSPost2010PropOp32
 70
     1
102
RTVSPost2010Prop33
280
     0
102
RTVSPost2010PropOp33
 70
     1
102
RTVSPost2010Prop34
280
     0
102
RTVSPost2010PropOp34
 70
     1
102
RTVSPost2010Prop35
280
     0
102
RTVSPost2010PropOp35
 70
     1
102
RTVSPost2010Prop36
280
     0
102
RTVSPost2010PropOp36
 70
     1
102
RTVSPost2010Prop37
 90
       50
102
RTVSPost2010PropOp37
 70
     1
102
RTVSPost2010Prop38
140
0.0
102
RTVSPost2010PropOp38
 70
     1
102
RTVSPost2010Prop39
140
1.0
102
RTVSPost2010PropOp39
 70
     1
102
RTVSPost2010Prop40
 90
        0
102
RTVSPost2010PropOp40
 70
     1
102
RTVSPost2010Prop41ColorIndex
 90
       18
102
RTVSPost2010Prop41ColorRGB
 90
-16777216
102
RTVSPost2010PropOp41
 70
     1
102
RTVSPost2010Prop42
 90
       50
102
RTVSPost2010PropOp42
 70
     1
102
RTVSPost2010Prop43
 90
        3
102
RTVSPost2010PropOp43
 70
     1
102
RTVSPost2010Prop44ColorIndex
 90
        5
102
RTVSPost2010Prop44ColorRGB
 90
      255
102
RTVSPost2010PropOp44
 70
     1
102
RTVSPost2010Prop45
280
     0
102
RTVSPost2010PropOp45
 70
     1
102
RTVSPost2010Prop46
 90
       50
102
RTVSPost2010PropOp46
 70
     1
102
RTVSPost2010Prop47
 90
       50
102
RTVSPost2010PropOp47
 70
     1
102
RTVSPost2010Prop48
 90
       50
102
RTVSPost2010PropOp48
 70
     1
102
RTVSPost2010Prop49
280
     0
102
RTVSPost2010PropOp49
 70
     1
102
RTVSPost2010Prop50
 90
       50
102
RTVSPost2010PropOp50
 70
     1
102
RTVSPost2010Prop51ColorIndex
 90
      256
102
RTVSPost2010Prop51ColorRGB
 90
-16777216
102
RTVSPost2010PropOp51
 70
     0
102
RTVSPost2010Prop52
140
1.0
102
RTVSPost2010PropOp52
 70
     0
102
RTVSPost2010Prop53
 90
        2
102
RTVSPost2010PropOp53
 70
     1
102
RTVSPost2010Prop54
  1
strokes_ogs.tif
102
RTVSPost2010PropOp54
 70
     1
102
RTVSPost2010Prop55
280
     0
102
RTVSPost2010PropOp55
 70
     1
102
RTVSPost2010Prop56
140
1.0
102
RTVSPost2010PropOp56
 70
     1
102
RTVSPost2010Prop57
140
1.0
102
RTVSPost2010PropOp57
 70
     1
102
RTVSPropertyOp0
 70
     1
102
RTVSPropertyOp1
 70
     1
102
RTVSPropertyOp2
 70
     1
102
RTVSPropertyOp3
 70
     1
102
RTVSPropertyOp4
 70
     1
102
RTVSPropertyOp5
 70
     1
102
RTVSPropertyOp6
 70
     1
102
RTVSPropertyOp7
 70
     1
102
RTVSPropertyOp8
 70
     1
102
RTVSPropertyOp9
 70
     1
102
RTVSPropertyOp10
 70
     1
102
RTVSPropertyOp11
 70
     1
102
RTVSPropertyOp12
 70
     1
102
RTVSPropertyOp13
 70
     1
102
RTVSPropertyOp14
 70
     1
102
RTVSPropertyOp15
 70
     1
102
RTVSPropertyOp16
 70
     1
102
RTVSPropertyOp17
 70
     1
102
RTVSPropertyOp18
 70
     1
102
RTVSPropertyOp19
 70
     1
102
RTVSPropertyOp20
 70
     1
102
RTVSPropertyOp21
 70
     1
102
RTVSPropertyOp22
 70
     1
102
RTVSPropertyOp23
 70
     1
102
RTVSPropertyOp24
 70
     1
102
RTVSPropertyOp25
 70
     1
102
RTVSPropertyOp26
 70
     1
102
RTVSPropertyOp27
 70
     1
102
RTVSPropertyOp28
 70
     1
102
RTVSPropertyOp29
 70
     1
102
RTVSPropertyOp30
 70
     1
102
RTVSPropertyOp31
 70
     1
102
RTVSPropertyOp32
 70
     1
102
RTVSPropertyOp33
 70
     1
102
RTVSPropertyOp34
 70
     1
102
RTVSPropertyOp35
 70
     1
102
RTVSPropertyOp36
 70
     1
102
RTVSPropertyOp37
 70
     1
102
RTVSPropertyOp38
 70
     1
102
RTVSPropertyOp39
 70
     1
102
RTVSPropertyOp40
 70
     1
102
RTVSPropertyOp41
 70
     1
102
RTVSPropertyOp42
 70
     1
102
RTVSPropertyOp43
 70
     1
102
RTVSPropertyOp44
 70
     1
102
RTVSPropertyOp45
 70
     1
102
RTVSPropertyOp46
 70
     1
102
RTVSPropertyOp47
 70
     1
102
RTVSPropertyOp48
 70
     1
102
RTVSPropertyOp49
 70
     1
102
RTVSPropertyOp50
 70
     1
102
RTVSPropertyOp51
 70
     0
102
RTVSPropertyOp52
 70
     0
102
RTVSPropertyOp53
 70
     1
102
RTVSPropertyOp54
 70
     1
102
RTVSPropertyOp55
 70
     1
102
RTVSPropertyOp56
 70
     1
102
RTVSPropertyOp57
 70
     1
102
RTVSPropertyOp58
 70
     1
102
RTVSPropertyOp59
 70
     1
102
RTVSPropertyOp60
 70
     1
102
RTVSPropertyOp61
 70
     1
102
RTVSPropertyOp62
 70
     1
  0
XRECORD
  5
973
102
{ACAD_REACTORS
330
972
102
}
330
972
100
AcDbXrecord
280
     1
102
RTVSPost2010Prop28
280
     0
102
RTVSPost2010PropOp28
 70
     1
102
RTVSPost2010Prop29
280
     1
102
RTVSPost2010PropOp29
 70
     1
102
RTVSPost2010Prop30
280
     1
102
RTVSPost2010PropOp30
 70
     1
102
RTVSPost2010Prop31
280
     0
102
RTVSPost2010PropOp31
 70
     1
102
RTVSPost2010Prop32
280
     0
102
RTVSPost2010PropOp32
 70
     1
102
RTVSPost2010Prop33
280
     0
102
RTVSPost2010PropOp33
 70
     1
102
RTVSPost2010Prop34
280
     0
102
RTVSPost2010PropOp34
 70
     1
102
RTVSPost2010Prop35
280
     0
102
RTVSPost2010PropOp35
 70
     1
102
RTVSPost2010Prop36
280
     0
102
RTVSPost2010PropOp36
 70
     1
102
RTVSPost2010Prop37
 90
       50
102
RTVSPost2010PropOp37
 70
     1
102
RTVSPost2010Prop38
140
0.0
102
RTVSPost2010PropOp38
 70
     1
102
RTVSPost2010Prop39
140
1.0
102
RTVSPost2010PropOp39
 70
     1
102
RTVSPost2010Prop40
 90
        0
102
RTVSPost2010PropOp40
 70
     1
102
RTVSPost2010Prop41ColorIndex
 90
       18
102
RTVSPost2010Prop41ColorRGB
 90
-16777216
102
RTVSPost2010PropOp41
 70
     1
102
RTVSPost2010Prop42
 90
       50
102
RTVSPost2010PropOp42
 70
     1
102
RTVSPost2010Prop43
 90
        3
102
RTVSPost2010PropOp43
 70
     1
102
RTVSPost2010Prop44ColorIndex
 90
        5
102
RTVSPost2010Prop44ColorRGB
 90
      255
102
RTVSPost2010PropOp44
 70
     1
102
RTVSPost2010Prop45
280
     0
102
RTVSPost2010PropOp45
 70
     1
102
RTVSPost2010Prop46
 90
       50
102
RTVSPost2010PropOp46
 70
     1
102
RTVSPost2010Prop47
 90
       50
102
RTVSPost2010PropOp47
 70
     1
102
RTVSPost2010Prop48
 90
       50
102
RTVSPost2010PropOp48
 70
     1
102
RTVSPost2010Prop49
280
     0
102
RTVSPost2010PropOp49
 70
     1
102
RTVSPost2010Prop50
 90
       50
102
RTVSPost2010PropOp50
 70
     1
102
RTVSPost2010Prop51ColorIndex
 90
      256
102
RTVSPost2010Prop51ColorRGB
 90
-16777216
102
RTVSPost2010PropOp51
 70
     0
102
RTVSPost2010Prop52
140
1.0
102
RTVSPost2010PropOp52
 70
     0
102
RTVSPost2010Prop53
 90
        2
102
RTVSPost2010PropOp53
 70
     1
102
RTVSPost2010Prop54
  1
strokes_ogs.tif
102
RTVSPost2010PropOp54
 70
     1
102
RTVSPost2010Prop55
280
     0
102
RTVSPost2010PropOp55
 70
     1
102
RTVSPost2010Prop56
140
1.0
102
RTVSPost2010PropOp56
 70
     1
102
RTVSPost2010Prop57
140
1.0
102
RTVSPost2010PropOp57
 70
     1
102
RTVSPropertyOp0
 70
     1
102
RTVSPropertyOp1
 70
     1
102
RTVSPropertyOp2
 70
     1
102
RTVSPropertyOp3
 70
     1
102
RTVSPropertyOp4
 70
     1
102
RTVSPropertyOp5
 70
     1
102
RTVSPropertyOp6
 70
     1
102
RTVSPropertyOp7
 70
     1
102
RTVSPropertyOp8
 70
     1
102
RTVSPropertyOp9
 70
     1
102
RTVSPropertyOp10
 70
     1
102
RTVSPropertyOp11
 70
     1
102
RTVSPropertyOp12
 70
     1
102
RTVSPropertyOp13
 70
     1
102
RTVSPropertyOp14
 70
     1
102
RTVSPropertyOp15
 70
     1
102
RTVSPropertyOp16
 70
     1
102
RTVSPropertyOp17
 70
     1
102
RTVSPropertyOp18
 70
     1
102
RTVSPropertyOp19
 70
     1
102
RTVSPropertyOp20
 70
     1
102
RTVSPropertyOp21
 70
     1
102
RTVSPropertyOp22
 70
     1
102
RTVSPropertyOp23
 70
     1
102
RTVSPropertyOp24
 70
     1
102
RTVSPropertyOp25
 70
     1
102
RTVSPropertyOp26
 70
     1
102
RTVSPropertyOp27
 70
     1
102
RTVSPropertyOp28
 70
     1
102
RTVSPropertyOp29
 70
     1
102
RTVSPropertyOp30
 70
     1
102
RTVSPropertyOp31
 70
     1
102
RTVSPropertyOp32
 70
     1
102
RTVSPropertyOp33
 70
     1
102
RTVSPropertyOp34
 70
     1
102
RTVSPropertyOp35
 70
     1
102
RTVSPropertyOp36
 70
     1
102
RTVSPropertyOp37
 70
     1
102
RTVSPropertyOp38
 70
     1
102
RTVSPropertyOp39
 70
     1
102
RTVSPropertyOp40
 70
     1
102
RTVSPropertyOp41
 70
     1
102
RTVSPropertyOp42
 70
     1
102
RTVSPropertyOp43
 70
     1
102
RTVSPropertyOp44
 70
     1
102
RTVSPropertyOp45
 70
     1
102
RTVSPropertyOp46
 70
     1
102
RTVSPropertyOp47
 70
     1
102
RTVSPropertyOp48
 70
     1
102
RTVSPropertyOp49
 70
     1
102
RTVSPropertyOp50
 70
     1
102
RTVSPropertyOp51
 70
     0
102
RTVSPropertyOp52
 70
     0
102
RTVSPropertyOp53
 70
     1
102
RTVSPropertyOp54
 70
     1
102
RTVSPropertyOp55
 70
     1
102
RTVSPropertyOp56
 70
     1
102
RTVSPropertyOp57
 70
     1
102
RTVSPropertyOp58
 70
     1
102
RTVSPropertyOp59
 70
     1
102
RTVSPropertyOp60
 70
     1
102
RTVSPropertyOp61
 70
     1
102
RTVSPropertyOp62
 70
     1
  0
XRECORD
  5
965
102
{ACAD_REACTORS
330
964
102
}
330
964
100
AcDbXrecord
280
     1
102
RTVSPost2010Prop28
280
     0
102
RTVSPost2010PropOp28
 70
     1
102
RTVSPost2010Prop29
280
     1
102
RTVSPost2010PropOp29
 70
     1
102
RTVSPost2010Prop30
280
     1
102
RTVSPost2010PropOp30
 70
     1
102
RTVSPost2010Prop31
280
     0
102
RTVSPost2010PropOp31
 70
     1
102
RTVSPost2010Prop32
280
     0
102
RTVSPost2010PropOp32
 70
     1
102
RTVSPost2010Prop33
280
     0
102
RTVSPost2010PropOp33
 70
     1
102
RTVSPost2010Prop34
280
     0
102
RTVSPost2010PropOp34
 70
     1
102
RTVSPost2010Prop35
280
     0
102
RTVSPost2010PropOp35
 70
     1
102
RTVSPost2010Prop36
280
     0
102
RTVSPost2010PropOp36
 70
     1
102
RTVSPost2010Prop37
 90
       50
102
RTVSPost2010PropOp37
 70
     1
102
RTVSPost2010Prop38
140
0.0
102
RTVSPost2010PropOp38
 70
     1
102
RTVSPost2010Prop39
140
1.0
102
RTVSPost2010PropOp39
 70
     1
102
RTVSPost2010Prop40
 90
        0
102
RTVSPost2010PropOp40
 70
     1
102
RTVSPost2010Prop41ColorIndex
 90
       18
102
RTVSPost2010Prop41ColorRGB
 90
-16777216
102
RTVSPost2010PropOp41
 70
     1
102
RTVSPost2010Prop42
 90
       50
102
RTVSPost2010PropOp42
 70
     1
102
RTVSPost2010Prop43
 90
        3
102
RTVSPost2010PropOp43
 70
     1
102
RTVSPost2010Prop44ColorIndex
 90
        5
102
RTVSPost2010Prop44ColorRGB
 90
      255
102
RTVSPost2010PropOp44
 70
     1
102
RTVSPost2010Prop45
280
     0
102
RTVSPost2010PropOp45
 70
     1
102
RTVSPost2010Prop46
 90
       50
102
RTVSPost2010PropOp46
 70
     1
102
RTVSPost2010Prop47
 90
       50
102
RTVSPost2010PropOp47
 70
     1
102
RTVSPost2010Prop48
 90
       50
102
RTVSPost2010PropOp48
 70
     1
102
RTVSPost2010Prop49
280
     0
102
RTVSPost2010PropOp49
 70
     1
102
RTVSPost2010Prop50
 90
       50
102
RTVSPost2010PropOp50
 70
     1
102
RTVSPost2010Prop51ColorIndex
 90
      256
102
RTVSPost2010Prop51ColorRGB
 90
-16777216
102
RTVSPost2010PropOp51
 70
     0
102
RTVSPost2010Prop52
140
1.0
102
RTVSPost2010PropOp52
 70
     0
102
RTVSPost2010Prop53
 90
        2
102
RTVSPost2010PropOp53
 70
     1
102
RTVSPost2010Prop54
  1
strokes_ogs.tif
102
RTVSPost2010PropOp54
 70
     1
102
RTVSPost2010Prop55
280
     0
102
RTVSPost2010PropOp55
 70
     1
102
RTVSPost2010Prop56
140
1.0
102
RTVSPost2010PropOp56
 70
     1
102
RTVSPost2010Prop57
140
1.0
102
RTVSPost2010PropOp57
 70
     1
102
RTVSPropertyOp0
 70
     1
102
RTVSPropertyOp1
 70
     1
102
RTVSPropertyOp2
 70
     1
102
RTVSPropertyOp3
 70
     1
102
RTVSPropertyOp4
 70
     1
102
RTVSPropertyOp5
 70
     1
102
RTVSPropertyOp6
 70
     1
102
RTVSPropertyOp7
 70
     1
102
RTVSPropertyOp8
 70
     1
102
RTVSPropertyOp9
 70
     1
102
RTVSPropertyOp10
 70
     1
102
RTVSPropertyOp11
 70
     1
102
RTVSPropertyOp12
 70
     1
102
RTVSPropertyOp13
 70
     1
102
RTVSPropertyOp14
 70
     1
102
RTVSPropertyOp15
 70
     1
102
RTVSPropertyOp16
 70
     1
102
RTVSPropertyOp17
 70
     1
102
RTVSPropertyOp18
 70
     1
102
RTVSPropertyOp19
 70
     1
102
RTVSPropertyOp20
 70
     1
102
RTVSPropertyOp21
 70
     1
102
RTVSPropertyOp22
 70
     1
102
RTVSPropertyOp23
 70
     1
102
RTVSPropertyOp24
 70
     1
102
RTVSPropertyOp25
 70
     1
102
RTVSPropertyOp26
 70
     1
102
RTVSPropertyOp27
 70
     1
102
RTVSPropertyOp28
 70
     1
102
RTVSPropertyOp29
 70
     1
102
RTVSPropertyOp30
 70
     1
102
RTVSPropertyOp31
 70
     1
102
RTVSPropertyOp32
 70
     1
102
RTVSPropertyOp33
 70
     1
102
RTVSPropertyOp34
 70
     1
102
RTVSPropertyOp35
 70
     1
102
RTVSPropertyOp36
 70
     1
102
RTVSPropertyOp37
 70
     1
102
RTVSPropertyOp38
 70
     1
102
RTVSPropertyOp39
 70
     1
102
RTVSPropertyOp40
 70
     1
102
RTVSPropertyOp41
 70
     1
102
RTVSPropertyOp42
 70
     1
102
RTVSPropertyOp43
 70
     1
102
RTVSPropertyOp44
 70
     1
102
RTVSPropertyOp45
 70
     1
102
RTVSPropertyOp46
 70
     1
102
RTVSPropertyOp47
 70
     1
102
RTVSPropertyOp48
 70
     1
102
RTVSPropertyOp49
 70
     1
102
RTVSPropertyOp50
 70
     1
102
RTVSPropertyOp51
 70
     0
102
RTVSPropertyOp52
 70
     0
102
RTVSPropertyOp53
 70
     1
102
RTVSPropertyOp54
 70
     1
102
RTVSPropertyOp55
 70
     1
102
RTVSPropertyOp56
 70
     1
102
RTVSPropertyOp57
 70
     1
102
RTVSPropertyOp58
 70
     1
102
RTVSPropertyOp59
 70
     1
102
RTVSPropertyOp60
 70
     1
102
RTVSPropertyOp61
 70
     1
102
RTVSPropertyOp62
 70
     1
  0
XRECORD
  5
969
102
{ACAD_REACTORS
330
968
102
}
330
968
100
AcDbXrecord
280
     1
102
RTVSPost2010Prop28
280
     0
102
RTVSPost2010PropOp28
 70
     1
102
RTVSPost2010Prop29
280
     1
102
RTVSPost2010PropOp29
 70
     1
102
RTVSPost2010Prop30
280
     1
102
RTVSPost2010PropOp30
 70
     1
102
RTVSPost2010Prop31
280
     0
102
RTVSPost2010PropOp31
 70
     1
102
RTVSPost2010Prop32
280
     0
102
RTVSPost2010PropOp32
 70
     1
102
RTVSPost2010Prop33
280
     0
102
RTVSPost2010PropOp33
 70
     1
102
RTVSPost2010Prop34
280
     0
102
RTVSPost2010PropOp34
 70
     1
102
RTVSPost2010Prop35
280
     0
102
RTVSPost2010PropOp35
 70
     1
102
RTVSPost2010Prop36
280
     0
102
RTVSPost2010PropOp36
 70
     1
102
RTVSPost2010Prop37
 90
       50
102
RTVSPost2010PropOp37
 70
     1
102
RTVSPost2010Prop38
140
0.0
102
RTVSPost2010PropOp38
 70
     1
102
RTVSPost2010Prop39
140
1.0
102
RTVSPost2010PropOp39
 70
     1
102
RTVSPost2010Prop40
 90
        0
102
RTVSPost2010PropOp40
 70
     1
102
RTVSPost2010Prop41ColorIndex
 90
       18
102
RTVSPost2010Prop41ColorRGB
 90
-16777216
102
RTVSPost2010PropOp41
 70
     1
102
RTVSPost2010Prop42
 90
       50
102
RTVSPost2010PropOp42
 70
     1
102
RTVSPost2010Prop43
 90
        3
102
RTVSPost2010PropOp43
 70
     1
102
RTVSPost2010Prop44ColorIndex
 90
        5
102
RTVSPost2010Prop44ColorRGB
 90
      255
102
RTVSPost2010PropOp44
 70
     1
102
RTVSPost2010Prop45
280
     0
102
RTVSPost2010PropOp45
 70
     1
102
RTVSPost2010Prop46
 90
       50
102
RTVSPost2010PropOp46
 70
     1
102
RTVSPost2010Prop47
 90
       50
102
RTVSPost2010PropOp47
 70
     1
102
RTVSPost2010Prop48
 90
       50
102
RTVSPost2010PropOp48
 70
     1
102
RTVSPost2010Prop49
280
     0
102
RTVSPost2010PropOp49
 70
     1
102
RTVSPost2010Prop50
 90
       50
102
RTVSPost2010PropOp50
 70
     1
102
RTVSPost2010Prop51ColorIndex
 90
      256
102
RTVSPost2010Prop51ColorRGB
 90
-16777216
102
RTVSPost2010PropOp51
 70
     0
102
RTVSPost2010Prop52
140
1.0
102
RTVSPost2010PropOp52
 70
     0
102
RTVSPost2010Prop53
 90
        2
102
RTVSPost2010PropOp53
 70
     1
102
RTVSPost2010Prop54
  1
strokes_ogs.tif
102
RTVSPost2010PropOp54
 70
     1
102
RTVSPost2010Prop55
280
     0
102
RTVSPost2010PropOp55
 70
     1
102
RTVSPost2010Prop56
140
1.0
102
RTVSPost2010PropOp56
 70
     1
102
RTVSPost2010Prop57
140
1.0
102
RTVSPost2010PropOp57
 70
     1
102
RTVSPropertyOp0
 70
     1
102
RTVSPropertyOp1
 70
     1
102
RTVSPropertyOp2
 70
     1
102
RTVSPropertyOp3
 70
     1
102
RTVSPropertyOp4
 70
     1
102
RTVSPropertyOp5
 70
     1
102
RTVSPropertyOp6
 70
     1
102
RTVSPropertyOp7
 70
     1
102
RTVSPropertyOp8
 70
     1
102
RTVSPropertyOp9
 70
     1
102
RTVSPropertyOp10
 70
     1
102
RTVSPropertyOp11
 70
     1
102
RTVSPropertyOp12
 70
     1
102
RTVSPropertyOp13
 70
     1
102
RTVSPropertyOp14
 70
     1
102
RTVSPropertyOp15
 70
     1
102
RTVSPropertyOp16
 70
     1
102
RTVSPropertyOp17
 70
     1
102
RTVSPropertyOp18
 70
     1
102
RTVSPropertyOp19
 70
     1
102
RTVSPropertyOp20
 70
     1
102
RTVSPropertyOp21
 70
     1
102
RTVSPropertyOp22
 70
     1
102
RTVSPropertyOp23
 70
     1
102
RTVSPropertyOp24
 70
     1
102
RTVSPropertyOp25
 70
     1
102
RTVSPropertyOp26
 70
     1
102
RTVSPropertyOp27
 70
     1
102
RTVSPropertyOp28
 70
     1
102
RTVSPropertyOp29
 70
     1
102
RTVSPropertyOp30
 70
     1
102
RTVSPropertyOp31
 70
     1
102
RTVSPropertyOp32
 70
     1
102
RTVSPropertyOp33
 70
     1
102
RTVSPropertyOp34
 70
     1
102
RTVSPropertyOp35
 70
     1
102
RTVSPropertyOp36
 70
     1
102
RTVSPropertyOp37
 70
     1
102
RTVSPropertyOp38
 70
     1
102
RTVSPropertyOp39
 70
     1
102
RTVSPropertyOp40
 70
     1
102
RTVSPropertyOp41
 70
     1
102
RTVSPropertyOp42
 70
     1
102
RTVSPropertyOp43
 70
     1
102
RTVSPropertyOp44
 70
     1
102
RTVSPropertyOp45
 70
     1
102
RTVSPropertyOp46
 70
     1
102
RTVSPropertyOp47
 70
     1
102
RTVSPropertyOp48
 70
     1
102
RTVSPropertyOp49
 70
     1
102
RTVSPropertyOp50
 70
     1
102
RTVSPropertyOp51
 70
     0
102
RTVSPropertyOp52
 70
     0
102
RTVSPropertyOp53
 70
     1
102
RTVSPropertyOp54
 70
     1
102
RTVSPropertyOp55
 70
     1
102
RTVSPropertyOp56
 70
     1
102
RTVSPropertyOp57
 70
     1
102
RTVSPropertyOp58
 70
     1
102
RTVSPropertyOp59
 70
     1
102
RTVSPropertyOp60
 70
     1
102
RTVSPropertyOp61
 70
     1
102
RTVSPropertyOp62
 70
     1
  0
XRECORD
  5
983
102
{ACAD_REACTORS
330
982
102
}
330
982
100
AcDbXrecord
280
     1
102
RTVSPost2010Prop28
280
     0
102
RTVSPost2010PropOp28
 70
     0
102
RTVSPost2010Prop29
280
     1
102
RTVSPost2010PropOp29
 70
     0
102
RTVSPost2010Prop30
280
     1
102
RTVSPost2010PropOp30
 70
     0
102
RTVSPost2010Prop31
280
     0
102
RTVSPost2010PropOp31
 70
     0
102
RTVSPost2010Prop32
280
     0
102
RTVSPost2010PropOp32
 70
     0
102
RTVSPost2010Prop33
280
     0
102
RTVSPost2010PropOp33
 70
     0
102
RTVSPost2010Prop34
280
     0
102
RTVSPost2010PropOp34
 70
     0
102
RTVSPost2010Prop35
280
     0
102
RTVSPost2010PropOp35
 70
     0
102
RTVSPost2010Prop36
280
     0
102
RTVSPost2010PropOp36
 70
     0
102
RTVSPost2010Prop37
 90
       50
102
RTVSPost2010PropOp37
 70
     0
102
RTVSPost2010Prop38
140
0.0
102
RTVSPost2010PropOp38
 70
     0
102
RTVSPost2010Prop39
140
1.0
102
RTVSPost2010PropOp39
 70
     0
102
RTVSPost2010Prop40
 90
        0
102
RTVSPost2010PropOp40
 70
     0
102
RTVSPost2010Prop41ColorIndex
 90
       18
102
RTVSPost2010Prop41ColorRGB
 90
-16777216
102
RTVSPost2010PropOp41
 70
     0
102
RTVSPost2010Prop42
 90
       50
102
RTVSPost2010PropOp42
 70
     0
102
RTVSPost2010Prop43
 90
        3
102
RTVSPost2010PropOp43
 70
     0
102
RTVSPost2010Prop44ColorIndex
 90
        5
102
RTVSPost2010Prop44ColorRGB
 90
      255
102
RTVSPost2010PropOp44
 70
     0
102
RTVSPost2010Prop45
280
     0
102
RTVSPost2010PropOp45
 70
     0
102
RTVSPost2010Prop46
 90
       50
102
RTVSPost2010PropOp46
 70
     0
102
RTVSPost2010Prop47
 90
       50
102
RTVSPost2010PropOp47
 70
     0
102
RTVSPost2010Prop48
 90
       50
102
RTVSPost2010PropOp48
 70
     0
102
RTVSPost2010Prop49
280
     0
102
RTVSPost2010PropOp49
 70
     0
102
RTVSPost2010Prop50
 90
       50
102
RTVSPost2010PropOp50
 70
     0
102
RTVSPost2010Prop51ColorIndex
 90
      256
102
RTVSPost2010Prop51ColorRGB
 90
-16777216
102
RTVSPost2010PropOp51
 70
     0
102
RTVSPost2010Prop52
140
1.0
102
RTVSPost2010PropOp52
 70
     0
102
RTVSPost2010Prop53
 90
        2
102
RTVSPost2010PropOp53
 70
     0
102
RTVSPost2010Prop54
  1
strokes_ogs.tif
102
RTVSPost2010PropOp54
 70
     0
102
RTVSPost2010Prop55
280
     0
102
RTVSPost2010PropOp55
 70
     0
102
RTVSPost2010Prop56
140
1.0
102
RTVSPost2010PropOp56
 70
     0
102
RTVSPost2010Prop57
140
1.0
102
RTVSPost2010PropOp57
 70
     0
102
RTVSPropertyOp0
 70
     0
102
RTVSPropertyOp1
 70
     0
102
RTVSPropertyOp2
 70
     0
102
RTVSPropertyOp3
 70
     0
102
RTVSPropertyOp4
 70
     0
102
RTVSPropertyOp5
 70
     0
102
RTVSPropertyOp6
 70
     0
102
RTVSPropertyOp7
 70
     0
102
RTVSPropertyOp8
 70
     0
102
RTVSPropertyOp9
 70
     0
102
RTVSPropertyOp10
 70
     0
102
RTVSPropertyOp11
 70
     0
102
RTVSPropertyOp12
 70
     0
102
RTVSPropertyOp13
 70
     0
102
RTVSPropertyOp14
 70
     2
102
RTVSPropertyOp15
 70
     0
102
RTVSPropertyOp16
 70
     0
102
RTVSPropertyOp17
 70
     0
102
RTVSPropertyOp18
 70
     0
102
RTVSPropertyOp19
 70
     0
102
RTVSPropertyOp20
 70
     0
102
RTVSPropertyOp21
 70
     0
102
RTVSPropertyOp22
 70
     0
102
RTVSPropertyOp23
 70
     0
102
RTVSPropertyOp24
 70
     0
102
RTVSPropertyOp25
 70
     0
102
RTVSPropertyOp26
 70
     0
102
RTVSPropertyOp27
 70
     0
102
RTVSPropertyOp28
 70
     0
102
RTVSPropertyOp29
 70
     0
102
RTVSPropertyOp30
 70
     0
102
RTVSPropertyOp31
 70
     0
102
RTVSPropertyOp32
 70
     0
102
RTVSPropertyOp33
 70
     0
102
RTVSPropertyOp34
 70
     0
102
RTVSPropertyOp35
 70
     0
102
RTVSPropertyOp36
 70
     0
102
RTVSPropertyOp37
 70
     0
102
RTVSPropertyOp38
 70
     0
102
RTVSPropertyOp39
 70
     0
102
RTVSPropertyOp40
 70
     0
102
RTVSPropertyOp41
 70
     0
102
RTVSPropertyOp42
 70
     0
102
RTVSPropertyOp43
 70
     0
102
RTVSPropertyOp44
 70
     0
102
RTVSPropertyOp45
 70
     0
102
RTVSPropertyOp46
 70
     0
102
RTVSPropertyOp47
 70
     0
102
RTVSPropertyOp48
 70
     0
102
RTVSPropertyOp49
 70
     0
102
RTVSPropertyOp50
 70
     0
102
RTVSPropertyOp51
 70
     0
102
RTVSPropertyOp52
 70
     0
102
RTVSPropertyOp53
 70
     0
102
RTVSPropertyOp54
 70
     0
102
RTVSPropertyOp55
 70
     0
102
RTVSPropertyOp56
 70
     0
102
RTVSPropertyOp57
 70
     0
102
RTVSPropertyOp58
 70
     1
102
RTVSPropertyOp59
 70
     1
102
RTVSPropertyOp60
 70
     1
102
RTVSPropertyOp61
 70
     1
102
RTVSPropertyOp62
 70
     1
  0
XRECORD
  5
971
102
{ACAD_REACTORS
330
970
102
}
330
970
100
AcDbXrecord
280
     1
102
RTVSPost2010Prop28
280
     0
102
RTVSPost2010PropOp28
 70
     1
102
RTVSPost2010Prop29
280
     1
102
RTVSPost2010PropOp29
 70
     1
102
RTVSPost2010Prop30
280
     1
102
RTVSPost2010PropOp30
 70
     1
102
RTVSPost2010Prop31
280
     0
102
RTVSPost2010PropOp31
 70
     1
102
RTVSPost2010Prop32
280
     0
102
RTVSPost2010PropOp32
 70
     1
102
RTVSPost2010Prop33
280
     0
102
RTVSPost2010PropOp33
 70
     1
102
RTVSPost2010Prop34
280
     0
102
RTVSPost2010PropOp34
 70
     1
102
RTVSPost2010Prop35
280
     0
102
RTVSPost2010PropOp35
 70
     1
102
RTVSPost2010Prop36
280
     0
102
RTVSPost2010PropOp36
 70
     1
102
RTVSPost2010Prop37
 90
       50
102
RTVSPost2010PropOp37
 70
     1
102
RTVSPost2010Prop38
140
0.0
102
RTVSPost2010PropOp38
 70
     1
102
RTVSPost2010Prop39
140
1.0
102
RTVSPost2010PropOp39
 70
     1
102
RTVSPost2010Prop40
 90
        0
102
RTVSPost2010PropOp40
 70
     1
102
RTVSPost2010Prop41ColorIndex
 90
       18
102
RTVSPost2010Prop41ColorRGB
 90
-16777216
102
RTVSPost2010PropOp41
 70
     1
102
RTVSPost2010Prop42
 90
       50
102
RTVSPost2010PropOp42
 70
     1
102
RTVSPost2010Prop43
 90
        3
102
RTVSPost2010PropOp43
 70
     1
102
RTVSPost2010Prop44ColorIndex
 90
        5
102
RTVSPost2010Prop44ColorRGB
 90
      255
102
RTVSPost2010PropOp44
 70
     1
102
RTVSPost2010Prop45
280
     0
102
RTVSPost2010PropOp45
 70
     1
102
RTVSPost2010Prop46
 90
       50
102
RTVSPost2010PropOp46
 70
     1
102
RTVSPost2010Prop47
 90
       50
102
RTVSPost2010PropOp47
 70
     1
102
RTVSPost2010Prop48
 90
       50
102
RTVSPost2010PropOp48
 70
     1
102
RTVSPost2010Prop49
280
     0
102
RTVSPost2010PropOp49
 70
     1
102
RTVSPost2010Prop50
 90
       50
102
RTVSPost2010PropOp50
 70
     1
102
RTVSPost2010Prop51ColorIndex
 90
      256
102
RTVSPost2010Prop51ColorRGB
 90
-16777216
102
RTVSPost2010PropOp51
 70
     0
102
RTVSPost2010Prop52
140
1.0
102
RTVSPost2010PropOp52
 70
     0
102
RTVSPost2010Prop53
 90
        2
102
RTVSPost2010PropOp53
 70
     1
102
RTVSPost2010Prop54
  1
strokes_ogs.tif
102
RTVSPost2010PropOp54
 70
     1
102
RTVSPost2010Prop55
280
     0
102
RTVSPost2010PropOp55
 70
     1
102
RTVSPost2010Prop56
140
1.0
102
RTVSPost2010PropOp56
 70
     1
102
RTVSPost2010Prop57
140
1.0
102
RTVSPost2010PropOp57
 70
     1
102
RTVSPropertyOp0
 70
     1
102
RTVSPropertyOp1
 70
     1
102
RTVSPropertyOp2
 70
     1
102
RTVSPropertyOp3
 70
     1
102
RTVSPropertyOp4
 70
     1
102
RTVSPropertyOp5
 70
     1
102
RTVSPropertyOp6
 70
     1
102
RTVSPropertyOp7
 70
     1
102
RTVSPropertyOp8
 70
     1
102
RTVSPropertyOp9
 70
     1
102
RTVSPropertyOp10
 70
     1
102
RTVSPropertyOp11
 70
     1
102
RTVSPropertyOp12
 70
     1
102
RTVSPropertyOp13
 70
     1
102
RTVSPropertyOp14
 70
     1
102
RTVSPropertyOp15
 70
     1
102
RTVSPropertyOp16
 70
     1
102
RTVSPropertyOp17
 70
     1
102
RTVSPropertyOp18
 70
     1
102
RTVSPropertyOp19
 70
     1
102
RTVSPropertyOp20
 70
     1
102
RTVSPropertyOp21
 70
     1
102
RTVSPropertyOp22
 70
     1
102
RTVSPropertyOp23
 70
     1
102
RTVSPropertyOp24
 70
     1
102
RTVSPropertyOp25
 70
     1
102
RTVSPropertyOp26
 70
     1
102
RTVSPropertyOp27
 70
     1
102
RTVSPropertyOp28
 70
     1
102
RTVSPropertyOp29
 70
     1
102
RTVSPropertyOp30
 70
     1
102
RTVSPropertyOp31
 70
     1
102
RTVSPropertyOp32
 70
     1
102
RTVSPropertyOp33
 70
     1
102
RTVSPropertyOp34
 70
     1
102
RTVSPropertyOp35
 70
     1
102
RTVSPropertyOp36
 70
     1
102
RTVSPropertyOp37
 70
     1
102
RTVSPropertyOp38
 70
     1
102
RTVSPropertyOp39
 70
     1
102
RTVSPropertyOp40
 70
     1
102
RTVSPropertyOp41
 70
     1
102
RTVSPropertyOp42
 70
     1
102
RTVSPropertyOp43
 70
     1
102
RTVSPropertyOp44
 70
     1
102
RTVSPropertyOp45
 70
     1
102
RTVSPropertyOp46
 70
     1
102
RTVSPropertyOp47
 70
     1
102
RTVSPropertyOp48
 70
     1
102
RTVSPropertyOp49
 70
     1
102
RTVSPropertyOp50
 70
     1
102
RTVSPropertyOp51
 70
     0
102
RTVSPropertyOp52
 70
     0
102
RTVSPropertyOp53
 70
     1
102
RTVSPropertyOp54
 70
     1
102
RTVSPropertyOp55
 70
     1
102
RTVSPropertyOp56
 70
     1
102
RTVSPropertyOp57
 70
     1
102
RTVSPropertyOp58
 70
     1
102
RTVSPropertyOp59
 70
     1
102
RTVSPropertyOp60
 70
     1
102
RTVSPropertyOp61
 70
     1
102
RTVSPropertyOp62
 70
     1
  0
XRECORD
  5
955
102
{ACAD_REACTORS
330
954
102
}
330
954
100
AcDbXrecord
280
     1
102
RTVSPost2010Prop28
280
     0
102
RTVSPost2010PropOp28
 70
     1
102
RTVSPost2010Prop29
280
     1
102
RTVSPost2010PropOp29
 70
     1
102
RTVSPost2010Prop30
280
     1
102
RTVSPost2010PropOp30
 70
     1
102
RTVSPost2010Prop31
280
     0
102
RTVSPost2010PropOp31
 70
     1
102
RTVSPost2010Prop32
280
     0
102
RTVSPost2010PropOp32
 70
     1
102
RTVSPost2010Prop33
280
     0
102
RTVSPost2010PropOp33
 70
     1
102
RTVSPost2010Prop34
280
     0
102
RTVSPost2010PropOp34
 70
     1
102
RTVSPost2010Prop35
280
     0
102
RTVSPost2010PropOp35
 70
     1
102
RTVSPost2010Prop36
280
     0
102
RTVSPost2010PropOp36
 70
     1
102
RTVSPost2010Prop37
 90
       50
102
RTVSPost2010PropOp37
 70
     1
102
RTVSPost2010Prop38
140
0.0
102
RTVSPost2010PropOp38
 70
     1
102
RTVSPost2010Prop39
140
1.0
102
RTVSPost2010PropOp39
 70
     1
102
RTVSPost2010Prop40
 90
        0
102
RTVSPost2010PropOp40
 70
     1
102
RTVSPost2010Prop41ColorIndex
 90
       18
102
RTVSPost2010Prop41ColorRGB
 90
-16777216
102
RTVSPost2010PropOp41
 70
     1
102
RTVSPost2010Prop42
 90
       50
102
RTVSPost2010PropOp42
 70
     1
102
RTVSPost2010Prop43
 90
        3
102
RTVSPost2010PropOp43
 70
     1
102
RTVSPost2010Prop44ColorIndex
 90
        5
102
RTVSPost2010Prop44ColorRGB
 90
      255
102
RTVSPost2010PropOp44
 70
     1
102
RTVSPost2010Prop45
280
     0
102
RTVSPost2010PropOp45
 70
     1
102
RTVSPost2010Prop46
 90
       50
102
RTVSPost2010PropOp46
 70
     1
102
RTVSPost2010Prop47
 90
       50
102
RTVSPost2010PropOp47
 70
     1
102
RTVSPost2010Prop48
 90
       50
102
RTVSPost2010PropOp48
 70
     1
102
RTVSPost2010Prop49
280
     0
102
RTVSPost2010PropOp49
 70
     1
102
RTVSPost2010Prop50
 90
       50
102
RTVSPost2010PropOp50
 70
     1
102
RTVSPost2010Prop51ColorIndex
 90
      256
102
RTVSPost2010Prop51ColorRGB
 90
-16777216
102
RTVSPost2010PropOp51
 70
     0
102
RTVSPost2010Prop52
140
1.0
102
RTVSPost2010PropOp52
 70
     0
102
RTVSPost2010Prop53
 90
        2
102
RTVSPost2010PropOp53
 70
     1
102
RTVSPost2010Prop54
  1
strokes_ogs.tif
102
RTVSPost2010PropOp54
 70
     1
102
RTVSPost2010Prop55
280
     0
102
RTVSPost2010PropOp55
 70
     1
102
RTVSPost2010Prop56
140
1.0
102
RTVSPost2010PropOp56
 70
     1
102
RTVSPost2010Prop57
140
1.0
102
RTVSPost2010PropOp57
 70
     1
102
RTVSPropertyOp0
 70
     1
102
RTVSPropertyOp1
 70
     1
102
RTVSPropertyOp2
 70
     1
102
RTVSPropertyOp3
 70
     1
102
RTVSPropertyOp4
 70
     1
102
RTVSPropertyOp5
 70
     1
102
RTVSPropertyOp6
 70
     1
102
RTVSPropertyOp7
 70
     1
102
RTVSPropertyOp8
 70
     1
102
RTVSPropertyOp9
 70
     1
102
RTVSPropertyOp10
 70
     1
102
RTVSPropertyOp11
 70
     1
102
RTVSPropertyOp12
 70
     1
102
RTVSPropertyOp13
 70
     1
102
RTVSPropertyOp14
 70
     1
102
RTVSPropertyOp15
 70
     1
102
RTVSPropertyOp16
 70
     1
102
RTVSPropertyOp17
 70
     1
102
RTVSPropertyOp18
 70
     1
102
RTVSPropertyOp19
 70
     1
102
RTVSPropertyOp20
 70
     1
102
RTVSPropertyOp21
 70
     1
102
RTVSPropertyOp22
 70
     1
102
RTVSPropertyOp23
 70
     1
102
RTVSPropertyOp24
 70
     1
102
RTVSPropertyOp25
 70
     1
102
RTVSPropertyOp26
 70
     1
102
RTVSPropertyOp27
 70
     1
102
RTVSPropertyOp28
 70
     1
102
RTVSPropertyOp29
 70
     1
102
RTVSPropertyOp30
 70
     1
102
RTVSPropertyOp31
 70
     1
102
RTVSPropertyOp32
 70
     1
102
RTVSPropertyOp33
 70
     1
102
RTVSPropertyOp34
 70
     1
102
RTVSPropertyOp35
 70
     1
102
RTVSPropertyOp36
 70
     1
102
RTVSPropertyOp37
 70
     1
102
RTVSPropertyOp38
 70
     1
102
RTVSPropertyOp39
 70
     1
102
RTVSPropertyOp40
 70
     1
102
RTVSPropertyOp41
 70
     1
102
RTVSPropertyOp42
 70
     1
102
RTVSPropertyOp43
 70
     1
102
RTVSPropertyOp44
 70
     1
102
RTVSPropertyOp45
 70
     1
102
RTVSPropertyOp46
 70
     1
102
RTVSPropertyOp47
 70
     1
102
RTVSPropertyOp48
 70
     1
102
RTVSPropertyOp49
 70
     1
102
RTVSPropertyOp50
 70
     1
102
RTVSPropertyOp51
 70
     0
102
RTVSPropertyOp52
 70
     0
102
RTVSPropertyOp53
 70
     1
102
RTVSPropertyOp54
 70
     1
102
RTVSPropertyOp55
 70
     1
102
RTVSPropertyOp56
 70
     1
102
RTVSPropertyOp57
 70
     1
102
RTVSPropertyOp58
 70
     1
102
RTVSPropertyOp59
 70
     1
102
RTVSPropertyOp60
 70
     1
102
RTVSPropertyOp61
 70
     1
102
RTVSPropertyOp62
 70
     1
  0
XRECORD
  5
957
102
{ACAD_REACTORS
330
956
102
}
330
956
100
AcDbXrecord
280
     1
102
RTVSPost2010Prop28
280
     0
102
RTVSPost2010PropOp28
 70
     1
102
RTVSPost2010Prop29
280
     1
102
RTVSPost2010PropOp29
 70
     1
102
RTVSPost2010Prop30
280
     1
102
RTVSPost2010PropOp30
 70
     1
102
RTVSPost2010Prop31
280
     0
102
RTVSPost2010PropOp31
 70
     1
102
RTVSPost2010Prop32
280
     0
102
RTVSPost2010PropOp32
 70
     1
102
RTVSPost2010Prop33
280
     0
102
RTVSPost2010PropOp33
 70
     1
102
RTVSPost2010Prop34
280
     0
102
RTVSPost2010PropOp34
 70
     1
102
RTVSPost2010Prop35
280
     0
102
RTVSPost2010PropOp35
 70
     1
102
RTVSPost2010Prop36
280
     0
102
RTVSPost2010PropOp36
 70
     1
102
RTVSPost2010Prop37
 90
       50
102
RTVSPost2010PropOp37
 70
     1
102
RTVSPost2010Prop38
140
0.0
102
RTVSPost2010PropOp38
 70
     1
102
RTVSPost2010Prop39
140
1.0
102
RTVSPost2010PropOp39
 70
     1
102
RTVSPost2010Prop40
 90
        0
102
RTVSPost2010PropOp40
 70
     1
102
RTVSPost2010Prop41ColorIndex
 90
       18
102
RTVSPost2010Prop41ColorRGB
 90
-16777216
102
RTVSPost2010PropOp41
 70
     1
102
RTVSPost2010Prop42
 90
       50
102
RTVSPost2010PropOp42
 70
     1
102
RTVSPost2010Prop43
 90
        3
102
RTVSPost2010PropOp43
 70
     1
102
RTVSPost2010Prop44ColorIndex
 90
        5
102
RTVSPost2010Prop44ColorRGB
 90
      255
102
RTVSPost2010PropOp44
 70
     1
102
RTVSPost2010Prop45
280
     0
102
RTVSPost2010PropOp45
 70
     1
102
RTVSPost2010Prop46
 90
       50
102
RTVSPost2010PropOp46
 70
     1
102
RTVSPost2010Prop47
 90
       50
102
RTVSPost2010PropOp47
 70
     1
102
RTVSPost2010Prop48
 90
       50
102
RTVSPost2010PropOp48
 70
     1
102
RTVSPost2010Prop49
280
     0
102
RTVSPost2010PropOp49
 70
     1
102
RTVSPost2010Prop50
 90
       50
102
RTVSPost2010PropOp50
 70
     1
102
RTVSPost2010Prop51ColorIndex
 90
      256
102
RTVSPost2010Prop51ColorRGB
 90
-16777216
102
RTVSPost2010PropOp51
 70
     0
102
RTVSPost2010Prop52
140
1.0
102
RTVSPost2010PropOp52
 70
     0
102
RTVSPost2010Prop53
 90
        2
102
RTVSPost2010PropOp53
 70
     1
102
RTVSPost2010Prop54
  1
strokes_ogs.tif
102
RTVSPost2010PropOp54
 70
     1
102
RTVSPost2010Prop55
280
     0
102
RTVSPost2010PropOp55
 70
     1
102
RTVSPost2010Prop56
140
1.0
102
RTVSPost2010PropOp56
 70
     1
102
RTVSPost2010Prop57
140
1.0
102
RTVSPost2010PropOp57
 70
     1
102
RTVSPropertyOp0
 70
     1
102
RTVSPropertyOp1
 70
     1
102
RTVSPropertyOp2
 70
     1
102
RTVSPropertyOp3
 70
     1
102
RTVSPropertyOp4
 70
     1
102
RTVSPropertyOp5
 70
     1
102
RTVSPropertyOp6
 70
     1
102
RTVSPropertyOp7
 70
     1
102
RTVSPropertyOp8
 70
     1
102
RTVSPropertyOp9
 70
     1
102
RTVSPropertyOp10
 70
     1
102
RTVSPropertyOp11
 70
     1
102
RTVSPropertyOp12
 70
     1
102
RTVSPropertyOp13
 70
     1
102
RTVSPropertyOp14
 70
     1
102
RTVSPropertyOp15
 70
     1
102
RTVSPropertyOp16
 70
     1
102
RTVSPropertyOp17
 70
     1
102
RTVSPropertyOp18
 70
     1
102
RTVSPropertyOp19
 70
     1
102
RTVSPropertyOp20
 70
     1
102
RTVSPropertyOp21
 70
     1
102
RTVSPropertyOp22
 70
     1
102
RTVSPropertyOp23
 70
     1
102
RTVSPropertyOp24
 70
     1
102
RTVSPropertyOp25
 70
     1
102
RTVSPropertyOp26
 70
     1
102
RTVSPropertyOp27
 70
     1
102
RTVSPropertyOp28
 70
     1
102
RTVSPropertyOp29
 70
     1
102
RTVSPropertyOp30
 70
     1
102
RTVSPropertyOp31
 70
     1
102
RTVSPropertyOp32
 70
     1
102
RTVSPropertyOp33
 70
     1
102
RTVSPropertyOp34
 70
     1
102
RTVSPropertyOp35
 70
     1
102
RTVSPropertyOp36
 70
     1
102
RTVSPropertyOp37
 70
     1
102
RTVSPropertyOp38
 70
     1
102
RTVSPropertyOp39
 70
     1
102
RTVSPropertyOp40
 70
     1
102
RTVSPropertyOp41
 70
     1
102
RTVSPropertyOp42
 70
     1
102
RTVSPropertyOp43
 70
     1
102
RTVSPropertyOp44
 70
     1
102
RTVSPropertyOp45
 70
     1
102
RTVSPropertyOp46
 70
     1
102
RTVSPropertyOp47
 70
     1
102
RTVSPropertyOp48
 70
     1
102
RTVSPropertyOp49
 70
     1
102
RTVSPropertyOp50
 70
     1
102
RTVSPropertyOp51
 70
     0
102
RTVSPropertyOp52
 70
     0
102
RTVSPropertyOp53
 70
     1
102
RTVSPropertyOp54
 70
     1
102
RTVSPropertyOp55
 70
     1
102
RTVSPropertyOp56
 70
     1
102
RTVSPropertyOp57
 70
     1
102
RTVSPropertyOp58
 70
     1
102
RTVSPropertyOp59
 70
     1
102
RTVSPropertyOp60
 70
     1
102
RTVSPropertyOp61
 70
     1
102
RTVSPropertyOp62
 70
     1
  0
XRECORD
  5
959
102
{ACAD_REACTORS
330
958
102
}
330
958
100
AcDbXrecord
280
     1
102
RTVSPost2010Prop28
280
     0
102
RTVSPost2010PropOp28
 70
     1
102
RTVSPost2010Prop29
280
     1
102
RTVSPost2010PropOp29
 70
     1
102
RTVSPost2010Prop30
280
     1
102
RTVSPost2010PropOp30
 70
     1
102
RTVSPost2010Prop31
280
     0
102
RTVSPost2010PropOp31
 70
     1
102
RTVSPost2010Prop32
280
     0
102
RTVSPost2010PropOp32
 70
     1
102
RTVSPost2010Prop33
280
     0
102
RTVSPost2010PropOp33
 70
     1
102
RTVSPost2010Prop34
280
     0
102
RTVSPost2010PropOp34
 70
     1
102
RTVSPost2010Prop35
280
     0
102
RTVSPost2010PropOp35
 70
     1
102
RTVSPost2010Prop36
280
     0
102
RTVSPost2010PropOp36
 70
     1
102
RTVSPost2010Prop37
 90
       50
102
RTVSPost2010PropOp37
 70
     1
102
RTVSPost2010Prop38
140
0.0
102
RTVSPost2010PropOp38
 70
     1
102
RTVSPost2010Prop39
140
1.0
102
RTVSPost2010PropOp39
 70
     1
102
RTVSPost2010Prop40
 90
        0
102
RTVSPost2010PropOp40
 70
     1
102
RTVSPost2010Prop41ColorIndex
 90
       18
102
RTVSPost2010Prop41ColorRGB
 90
-16777216
102
RTVSPost2010PropOp41
 70
     1
102
RTVSPost2010Prop42
 90
       50
102
RTVSPost2010PropOp42
 70
     1
102
RTVSPost2010Prop43
 90
        3
102
RTVSPost2010PropOp43
 70
     1
102
RTVSPost2010Prop44ColorIndex
 90
        5
102
RTVSPost2010Prop44ColorRGB
 90
      255
102
RTVSPost2010PropOp44
 70
     1
102
RTVSPost2010Prop45
280
     0
102
RTVSPost2010PropOp45
 70
     1
102
RTVSPost2010Prop46
 90
       50
102
RTVSPost2010PropOp46
 70
     1
102
RTVSPost2010Prop47
 90
       50
102
RTVSPost2010PropOp47
 70
     1
102
RTVSPost2010Prop48
 90
       50
102
RTVSPost2010PropOp48
 70
     1
102
RTVSPost2010Prop49
280
     0
102
RTVSPost2010PropOp49
 70
     1
102
RTVSPost2010Prop50
 90
       50
102
RTVSPost2010PropOp50
 70
     1
102
RTVSPost2010Prop51ColorIndex
 90
      256
102
RTVSPost2010Prop51ColorRGB
 90
-16777216
102
RTVSPost2010PropOp51
 70
     0
102
RTVSPost2010Prop52
140
1.0
102
RTVSPost2010PropOp52
 70
     0
102
RTVSPost2010Prop53
 90
        2
102
RTVSPost2010PropOp53
 70
     1
102
RTVSPost2010Prop54
  1
strokes_ogs.tif
102
RTVSPost2010PropOp54
 70
     1
102
RTVSPost2010Prop55
280
     0
102
RTVSPost2010PropOp55
 70
     1
102
RTVSPost2010Prop56
140
1.0
102
RTVSPost2010PropOp56
 70
     1
102
RTVSPost2010Prop57
140
1.0
102
RTVSPost2010PropOp57
 70
     1
102
RTVSPropertyOp0
 70
     1
102
RTVSPropertyOp1
 70
     1
102
RTVSPropertyOp2
 70
     1
102
RTVSPropertyOp3
 70
     1
102
RTVSPropertyOp4
 70
     1
102
RTVSPropertyOp5
 70
     1
102
RTVSPropertyOp6
 70
     1
102
RTVSPropertyOp7
 70
     1
102
RTVSPropertyOp8
 70
     1
102
RTVSPropertyOp9
 70
     1
102
RTVSPropertyOp10
 70
     1
102
RTVSPropertyOp11
 70
     1
102
RTVSPropertyOp12
 70
     1
102
RTVSPropertyOp13
 70
     1
102
RTVSPropertyOp14
 70
     1
102
RTVSPropertyOp15
 70
     1
102
RTVSPropertyOp16
 70
     1
102
RTVSPropertyOp17
 70
     1
102
RTVSPropertyOp18
 70
     1
102
RTVSPropertyOp19
 70
     1
102
RTVSPropertyOp20
 70
     1
102
RTVSPropertyOp21
 70
     1
102
RTVSPropertyOp22
 70
     1
102
RTVSPropertyOp23
 70
     1
102
RTVSPropertyOp24
 70
     1
102
RTVSPropertyOp25
 70
     1
102
RTVSPropertyOp26
 70
     1
102
RTVSPropertyOp27
 70
     1
102
RTVSPropertyOp28
 70
     1
102
RTVSPropertyOp29
 70
     1
102
RTVSPropertyOp30
 70
     1
102
RTVSPropertyOp31
 70
     1
102
RTVSPropertyOp32
 70
     1
102
RTVSPropertyOp33
 70
     1
102
RTVSPropertyOp34
 70
     1
102
RTVSPropertyOp35
 70
     1
102
RTVSPropertyOp36
 70
     1
102
RTVSPropertyOp37
 70
     1
102
RTVSPropertyOp38
 70
     1
102
RTVSPropertyOp39
 70
     1
102
RTVSPropertyOp40
 70
     1
102
RTVSPropertyOp41
 70
     1
102
RTVSPropertyOp42
 70
     1
102
RTVSPropertyOp43
 70
     1
102
RTVSPropertyOp44
 70
     1
102
RTVSPropertyOp45
 70
     1
102
RTVSPropertyOp46
 70
     1
102
RTVSPropertyOp47
 70
     1
102
RTVSPropertyOp48
 70
     1
102
RTVSPropertyOp49
 70
     1
102
RTVSPropertyOp50
 70
     1
102
RTVSPropertyOp51
 70
     0
102
RTVSPropertyOp52
 70
     0
102
RTVSPropertyOp53
 70
     1
102
RTVSPropertyOp54
 70
     1
102
RTVSPropertyOp55
 70
     1
102
RTVSPropertyOp56
 70
     1
102
RTVSPropertyOp57
 70
     1
102
RTVSPropertyOp58
 70
     1
102
RTVSPropertyOp59
 70
     1
102
RTVSPropertyOp60
 70
     1
102
RTVSPropertyOp61
 70
     1
102
RTVSPropertyOp62
 70
     1
  0
XRECORD
  5
95B
102
{ACAD_REACTORS
330
95A
102
}
330
95A
100
AcDbXrecord
280
     1
102
RTVSPost2010Prop28
280
     0
102
RTVSPost2010PropOp28
 70
     1
102
RTVSPost2010Prop29
280
     1
102
RTVSPost2010PropOp29
 70
     1
102
RTVSPost2010Prop30
280
     1
102
RTVSPost2010PropOp30
 70
     1
102
RTVSPost2010Prop31
280
     0
102
RTVSPost2010PropOp31
 70
     1
102
RTVSPost2010Prop32
280
     0
102
RTVSPost2010PropOp32
 70
     1
102
RTVSPost2010Prop33
280
     0
102
RTVSPost2010PropOp33
 70
     1
102
RTVSPost2010Prop34
280
     0
102
RTVSPost2010PropOp34
 70
     1
102
RTVSPost2010Prop35
280
     0
102
RTVSPost2010PropOp35
 70
     1
102
RTVSPost2010Prop36
280
     0
102
RTVSPost2010PropOp36
 70
     1
102
RTVSPost2010Prop37
 90
       50
102
RTVSPost2010PropOp37
 70
     1
102
RTVSPost2010Prop38
140
0.0
102
RTVSPost2010PropOp38
 70
     1
102
RTVSPost2010Prop39
140
1.0
102
RTVSPost2010PropOp39
 70
     1
102
RTVSPost2010Prop40
 90
        0
102
RTVSPost2010PropOp40
 70
     1
102
RTVSPost2010Prop41ColorIndex
 90
       18
102
RTVSPost2010Prop41ColorRGB
 90
-16777216
102
RTVSPost2010PropOp41
 70
     1
102
RTVSPost2010Prop42
 90
       50
102
RTVSPost2010PropOp42
 70
     1
102
RTVSPost2010Prop43
 90
        3
102
RTVSPost2010PropOp43
 70
     1
102
RTVSPost2010Prop44ColorIndex
 90
        5
102
RTVSPost2010Prop44ColorRGB
 90
      255
102
RTVSPost2010PropOp44
 70
     1
102
RTVSPost2010Prop45
280
     0
102
RTVSPost2010PropOp45
 70
     1
102
RTVSPost2010Prop46
 90
       50
102
RTVSPost2010PropOp46
 70
     1
102
RTVSPost2010Prop47
 90
       50
102
RTVSPost2010PropOp47
 70
     1
102
RTVSPost2010Prop48
 90
       50
102
RTVSPost2010PropOp48
 70
     1
102
RTVSPost2010Prop49
280
     0
102
RTVSPost2010PropOp49
 70
     1
102
RTVSPost2010Prop50
 90
       50
102
RTVSPost2010PropOp50
 70
     1
102
RTVSPost2010Prop51ColorIndex
 90
      256
102
RTVSPost2010Prop51ColorRGB
 90
-16777216
102
RTVSPost2010PropOp51
 70
     0
102
RTVSPost2010Prop52
140
1.0
102
RTVSPost2010PropOp52
 70
     0
102
RTVSPost2010Prop53
 90
        2
102
RTVSPost2010PropOp53
 70
     1
102
RTVSPost2010Prop54
  1
strokes_ogs.tif
102
RTVSPost2010PropOp54
 70
     1
102
RTVSPost2010Prop55
280
     0
102
RTVSPost2010PropOp55
 70
     1
102
RTVSPost2010Prop56
140
1.0
102
RTVSPost2010PropOp56
 70
     1
102
RTVSPost2010Prop57
140
1.0
102
RTVSPost2010PropOp57
 70
     1
102
RTVSPropertyOp0
 70
     1
102
RTVSPropertyOp1
 70
     1
102
RTVSPropertyOp2
 70
     1
102
RTVSPropertyOp3
 70
     1
102
RTVSPropertyOp4
 70
     1
102
RTVSPropertyOp5
 70
     1
102
RTVSPropertyOp6
 70
     1
102
RTVSPropertyOp7
 70
     1
102
RTVSPropertyOp8
 70
     1
102
RTVSPropertyOp9
 70
     1
102
RTVSPropertyOp10
 70
     1
102
RTVSPropertyOp11
 70
     1
102
RTVSPropertyOp12
 70
     1
102
RTVSPropertyOp13
 70
     1
102
RTVSPropertyOp14
 70
     1
102
RTVSPropertyOp15
 70
     1
102
RTVSPropertyOp16
 70
     1
102
RTVSPropertyOp17
 70
     1
102
RTVSPropertyOp18
 70
     1
102
RTVSPropertyOp19
 70
     1
102
RTVSPropertyOp20
 70
     1
102
RTVSPropertyOp21
 70
     1
102
RTVSPropertyOp22
 70
     1
102
RTVSPropertyOp23
 70
     1
102
RTVSPropertyOp24
 70
     1
102
RTVSPropertyOp25
 70
     1
102
RTVSPropertyOp26
 70
     1
102
RTVSPropertyOp27
 70
     1
102
RTVSPropertyOp28
 70
     1
102
RTVSPropertyOp29
 70
     1
102
RTVSPropertyOp30
 70
     1
102
RTVSPropertyOp31
 70
     1
102
RTVSPropertyOp32
 70
     1
102
RTVSPropertyOp33
 70
     1
102
RTVSPropertyOp34
 70
     1
102
RTVSPropertyOp35
 70
     1
102
RTVSPropertyOp36
 70
     1
102
RTVSPropertyOp37
 70
     1
102
RTVSPropertyOp38
 70
     1
102
RTVSPropertyOp39
 70
     1
102
RTVSPropertyOp40
 70
     1
102
RTVSPropertyOp41
 70
     1
102
RTVSPropertyOp42
 70
     1
102
RTVSPropertyOp43
 70
     1
102
RTVSPropertyOp44
 70
     1
102
RTVSPropertyOp45
 70
     1
102
RTVSPropertyOp46
 70
     1
102
RTVSPropertyOp47
 70
     1
102
RTVSPropertyOp48
 70
     1
102
RTVSPropertyOp49
 70
     1
102
RTVSPropertyOp50
 70
     1
102
RTVSPropertyOp51
 70
     0
102
RTVSPropertyOp52
 70
     0
102
RTVSPropertyOp53
 70
     1
102
RTVSPropertyOp54
 70
     1
102
RTVSPropertyOp55
 70
     1
102
RTVSPropertyOp56
 70
     1
102
RTVSPropertyOp57
 70
     1
102
RTVSPropertyOp58
 70
     1
102
RTVSPropertyOp59
 70
     1
102
RTVSPropertyOp60
 70
     1
102
RTVSPropertyOp61
 70
     1
102
RTVSPropertyOp62
 70
     1
  0
XRECORD
  5
963
102
{ACAD_REACTORS
330
962
102
}
330
962
100
AcDbXrecord
280
     1
102
RTVSPost2010Prop28
280
     0
102
RTVSPost2010PropOp28
 70
     1
102
RTVSPost2010Prop29
280
     1
102
RTVSPost2010PropOp29
 70
     1
102
RTVSPost2010Prop30
280
     1
102
RTVSPost2010PropOp30
 70
     1
102
RTVSPost2010Prop31
280
     0
102
RTVSPost2010PropOp31
 70
     1
102
RTVSPost2010Prop32
280
     0
102
RTVSPost2010PropOp32
 70
     1
102
RTVSPost2010Prop33
280
     0
102
RTVSPost2010PropOp33
 70
     1
102
RTVSPost2010Prop34
280
     0
102
RTVSPost2010PropOp34
 70
     1
102
RTVSPost2010Prop35
280
     0
102
RTVSPost2010PropOp35
 70
     1
102
RTVSPost2010Prop36
280
     0
102
RTVSPost2010PropOp36
 70
     1
102
RTVSPost2010Prop37
 90
       50
102
RTVSPost2010PropOp37
 70
     1
102
RTVSPost2010Prop38
140
0.0
102
RTVSPost2010PropOp38
 70
     1
102
RTVSPost2010Prop39
140
1.0
102
RTVSPost2010PropOp39
 70
     1
102
RTVSPost2010Prop40
 90
        0
102
RTVSPost2010PropOp40
 70
     1
102
RTVSPost2010Prop41ColorIndex
 90
       18
102
RTVSPost2010Prop41ColorRGB
 90
-16777216
102
RTVSPost2010PropOp41
 70
     1
102
RTVSPost2010Prop42
 90
       50
102
RTVSPost2010PropOp42
 70
     1
102
RTVSPost2010Prop43
 90
        3
102
RTVSPost2010PropOp43
 70
     1
102
RTVSPost2010Prop44ColorIndex
 90
        5
102
RTVSPost2010Prop44ColorRGB
 90
      255
102
RTVSPost2010PropOp44
 70
     1
102
RTVSPost2010Prop45
280
     0
102
RTVSPost2010PropOp45
 70
     1
102
RTVSPost2010Prop46
 90
       50
102
RTVSPost2010PropOp46
 70
     1
102
RTVSPost2010Prop47
 90
       50
102
RTVSPost2010PropOp47
 70
     1
102
RTVSPost2010Prop48
 90
       50
102
RTVSPost2010PropOp48
 70
     1
102
RTVSPost2010Prop49
280
     0
102
RTVSPost2010PropOp49
 70
     1
102
RTVSPost2010Prop50
 90
       50
102
RTVSPost2010PropOp50
 70
     1
102
RTVSPost2010Prop51ColorIndex
 90
      256
102
RTVSPost2010Prop51ColorRGB
 90
-16777216
102
RTVSPost2010PropOp51
 70
     0
102
RTVSPost2010Prop52
140
1.0
102
RTVSPost2010PropOp52
 70
     0
102
RTVSPost2010Prop53
 90
        2
102
RTVSPost2010PropOp53
 70
     1
102
RTVSPost2010Prop54
  1
strokes_ogs.tif
102
RTVSPost2010PropOp54
 70
     1
102
RTVSPost2010Prop55
280
     0
102
RTVSPost2010PropOp55
 70
     1
102
RTVSPost2010Prop56
140
1.0
102
RTVSPost2010PropOp56
 70
     1
102
RTVSPost2010Prop57
140
1.0
102
RTVSPost2010PropOp57
 70
     1
102
RTVSPropertyOp0
 70
     1
102
RTVSPropertyOp1
 70
     1
102
RTVSPropertyOp2
 70
     1
102
RTVSPropertyOp3
 70
     1
102
RTVSPropertyOp4
 70
     1
102
RTVSPropertyOp5
 70
     1
102
RTVSPropertyOp6
 70
     1
102
RTVSPropertyOp7
 70
     1
102
RTVSPropertyOp8
 70
     1
102
RTVSPropertyOp9
 70
     1
102
RTVSPropertyOp10
 70
     1
102
RTVSPropertyOp11
 70
     1
102
RTVSPropertyOp12
 70
     1
102
RTVSPropertyOp13
 70
     1
102
RTVSPropertyOp14
 70
     1
102
RTVSPropertyOp15
 70
     1
102
RTVSPropertyOp16
 70
     1
102
RTVSPropertyOp17
 70
     1
102
RTVSPropertyOp18
 70
     1
102
RTVSPropertyOp19
 70
     1
102
RTVSPropertyOp20
 70
     1
102
RTVSPropertyOp21
 70
     1
102
RTVSPropertyOp22
 70
     1
102
RTVSPropertyOp23
 70
     1
102
RTVSPropertyOp24
 70
     1
102
RTVSPropertyOp25
 70
     1
102
RTVSPropertyOp26
 70
     1
102
RTVSPropertyOp27
 70
     1
102
RTVSPropertyOp28
 70
     1
102
RTVSPropertyOp29
 70
     1
102
RTVSPropertyOp30
 70
     1
102
RTVSPropertyOp31
 70
     1
102
RTVSPropertyOp32
 70
     1
102
RTVSPropertyOp33
 70
     1
102
RTVSPropertyOp34
 70
     1
102
RTVSPropertyOp35
 70
     1
102
RTVSPropertyOp36
 70
     1
102
RTVSPropertyOp37
 70
     1
102
RTVSPropertyOp38
 70
     1
102
RTVSPropertyOp39
 70
     1
102
RTVSPropertyOp40
 70
     1
102
RTVSPropertyOp41
 70
     1
102
RTVSPropertyOp42
 70
     1
102
RTVSPropertyOp43
 70
     1
102
RTVSPropertyOp44
 70
     1
102
RTVSPropertyOp45
 70
     1
102
RTVSPropertyOp46
 70
     1
102
RTVSPropertyOp47
 70
     1
102
RTVSPropertyOp48
 70
     1
102
RTVSPropertyOp49
 70
     1
102
RTVSPropertyOp50
 70
     1
102
RTVSPropertyOp51
 70
     0
102
RTVSPropertyOp52
 70
     0
102
RTVSPropertyOp53
 70
     1
102
RTVSPropertyOp54
 70
     1
102
RTVSPropertyOp55
 70
     1
102
RTVSPropertyOp56
 70
     1
102
RTVSPropertyOp57
 70
     1
102
RTVSPropertyOp58
 70
     1
102
RTVSPropertyOp59
 70
     1
102
RTVSPropertyOp60
 70
     1
102
RTVSPropertyOp61
 70
     1
102
RTVSPropertyOp62
 70
     1
  0
XRECORD
  5
97F
102
{ACAD_REACTORS
330
97E
102
}
330
97E
100
AcDbXrecord
280
     1
102
RTVSPost2010Prop28
280
     0
102
RTVSPost2010PropOp28
 70
     0
102
RTVSPost2010Prop29
280
     1
102
RTVSPost2010PropOp29
 70
     0
102
RTVSPost2010Prop30
280
     1
102
RTVSPost2010PropOp30
 70
     0
102
RTVSPost2010Prop31
280
     0
102
RTVSPost2010PropOp31
 70
     0
102
RTVSPost2010Prop32
280
     0
102
RTVSPost2010PropOp32
 70
     0
102
RTVSPost2010Prop33
280
     0
102
RTVSPost2010PropOp33
 70
     0
102
RTVSPost2010Prop34
280
     0
102
RTVSPost2010PropOp34
 70
     0
102
RTVSPost2010Prop35
280
     0
102
RTVSPost2010PropOp35
 70
     0
102
RTVSPost2010Prop36
280
     0
102
RTVSPost2010PropOp36
 70
     0
102
RTVSPost2010Prop37
 90
       50
102
RTVSPost2010PropOp37
 70
     0
102
RTVSPost2010Prop38
140
0.0
102
RTVSPost2010PropOp38
 70
     0
102
RTVSPost2010Prop39
140
1.0
102
RTVSPost2010PropOp39
 70
     0
102
RTVSPost2010Prop40
 90
        0
102
RTVSPost2010PropOp40
 70
     0
102
RTVSPost2010Prop41ColorIndex
 90
       18
102
RTVSPost2010Prop41ColorRGB
 90
-16777216
102
RTVSPost2010PropOp41
 70
     0
102
RTVSPost2010Prop42
 90
       50
102
RTVSPost2010PropOp42
 70
     0
102
RTVSPost2010Prop43
 90
        3
102
RTVSPost2010PropOp43
 70
     0
102
RTVSPost2010Prop44ColorIndex
 90
        5
102
RTVSPost2010Prop44ColorRGB
 90
      255
102
RTVSPost2010PropOp44
 70
     0
102
RTVSPost2010Prop45
280
     0
102
RTVSPost2010PropOp45
 70
     0
102
RTVSPost2010Prop46
 90
       50
102
RTVSPost2010PropOp46
 70
     0
102
RTVSPost2010Prop47
 90
       50
102
RTVSPost2010PropOp47
 70
     0
102
RTVSPost2010Prop48
 90
       50
102
RTVSPost2010PropOp48
 70
     0
102
RTVSPost2010Prop49
280
     0
102
RTVSPost2010PropOp49
 70
     0
102
RTVSPost2010Prop50
 90
       50
102
RTVSPost2010PropOp50
 70
     0
102
RTVSPost2010Prop51ColorIndex
 90
      256
102
RTVSPost2010Prop51ColorRGB
 90
-16777216
102
RTVSPost2010PropOp51
 70
     0
102
RTVSPost2010Prop52
140
1.0
102
RTVSPost2010PropOp52
 70
     0
102
RTVSPost2010Prop53
 90
        2
102
RTVSPost2010PropOp53
 70
     0
102
RTVSPost2010Prop54
  1
strokes_ogs.tif
102
RTVSPost2010PropOp54
 70
     0
102
RTVSPost2010Prop55
280
     0
102
RTVSPost2010PropOp55
 70
     0
102
RTVSPost2010Prop56
140
1.0
102
RTVSPost2010PropOp56
 70
     0
102
RTVSPost2010Prop57
140
1.0
102
RTVSPost2010PropOp57
 70
     0
102
RTVSPropertyOp0
 70
     0
102
RTVSPropertyOp1
 70
     0
102
RTVSPropertyOp2
 70
     0
102
RTVSPropertyOp3
 70
     0
102
RTVSPropertyOp4
 70
     0
102
RTVSPropertyOp5
 70
     0
102
RTVSPropertyOp6
 70
     0
102
RTVSPropertyOp7
 70
     0
102
RTVSPropertyOp8
 70
     0
102
RTVSPropertyOp9
 70
     0
102
RTVSPropertyOp10
 70
     0
102
RTVSPropertyOp11
 70
     0
102
RTVSPropertyOp12
 70
     0
102
RTVSPropertyOp13
 70
     0
102
RTVSPropertyOp14
 70
     2
102
RTVSPropertyOp15
 70
     0
102
RTVSPropertyOp16
 70
     0
102
RTVSPropertyOp17
 70
     0
102
RTVSPropertyOp18
 70
     0
102
RTVSPropertyOp19
 70
     0
102
RTVSPropertyOp20
 70
     0
102
RTVSPropertyOp21
 70
     0
102
RTVSPropertyOp22
 70
     0
102
RTVSPropertyOp23
 70
     0
102
RTVSPropertyOp24
 70
     0
102
RTVSPropertyOp25
 70
     0
102
RTVSPropertyOp26
 70
     0
102
RTVSPropertyOp27
 70
     0
102
RTVSPropertyOp28
 70
     0
102
RTVSPropertyOp29
 70
     0
102
RTVSPropertyOp30
 70
     0
102
RTVSPropertyOp31
 70
     0
102
RTVSPropertyOp32
 70
     0
102
RTVSPropertyOp33
 70
     0
102
RTVSPropertyOp34
 70
     0
102
RTVSPropertyOp35
 70
     0
102
RTVSPropertyOp36
 70
     0
102
RTVSPropertyOp37
 70
     0
102
RTVSPropertyOp38
 70
     0
102
RTVSPropertyOp39
 70
     0
102
RTVSPropertyOp40
 70
     0
102
RTVSPropertyOp41
 70
     0
102
RTVSPropertyOp42
 70
     0
102
RTVSPropertyOp43
 70
     0
102
RTVSPropertyOp44
 70
     0
102
RTVSPropertyOp45
 70
     0
102
RTVSPropertyOp46
 70
     0
102
RTVSPropertyOp47
 70
     0
102
RTVSPropertyOp48
 70
     0
102
RTVSPropertyOp49
 70
     0
102
RTVSPropertyOp50
 70
     0
102
RTVSPropertyOp51
 70
     0
102
RTVSPropertyOp52
 70
     0
102
RTVSPropertyOp53
 70
     0
102
RTVSPropertyOp54
 70
     0
102
RTVSPropertyOp55
 70
     0
102
RTVSPropertyOp56
 70
     0
102
RTVSPropertyOp57
 70
     0
102
RTVSPropertyOp58
 70
     1
102
RTVSPropertyOp59
 70
     1
102
RTVSPropertyOp60
 70
     1
102
RTVSPropertyOp61
 70
     1
102
RTVSPropertyOp62
 70
     1
  0
XRECORD
  5
96F
102
{ACAD_REACTORS
330
96E
102
}
330
96E
100
AcDbXrecord
280
     1
102
RTVSPost2010Prop28
280
     0
102
RTVSPost2010PropOp28
 70
     1
102
RTVSPost2010Prop29
280
     1
102
RTVSPost2010PropOp29
 70
     1
102
RTVSPost2010Prop30
280
     1
102
RTVSPost2010PropOp30
 70
     1
102
RTVSPost2010Prop31
280
     0
102
RTVSPost2010PropOp31
 70
     1
102
RTVSPost2010Prop32
280
     0
102
RTVSPost2010PropOp32
 70
     1
102
RTVSPost2010Prop33
280
     0
102
RTVSPost2010PropOp33
 70
     1
102
RTVSPost2010Prop34
280
     0
102
RTVSPost2010PropOp34
 70
     1
102
RTVSPost2010Prop35
280
     0
102
RTVSPost2010PropOp35
 70
     1
102
RTVSPost2010Prop36
280
     0
102
RTVSPost2010PropOp36
 70
     1
102
RTVSPost2010Prop37
 90
       50
102
RTVSPost2010PropOp37
 70
     1
102
RTVSPost2010Prop38
140
0.0
102
RTVSPost2010PropOp38
 70
     1
102
RTVSPost2010Prop39
140
1.0
102
RTVSPost2010PropOp39
 70
     1
102
RTVSPost2010Prop40
 90
        0
102
RTVSPost2010PropOp40
 70
     1
102
RTVSPost2010Prop41ColorIndex
 90
       18
102
RTVSPost2010Prop41ColorRGB
 90
-16777216
102
RTVSPost2010PropOp41
 70
     1
102
RTVSPost2010Prop42
 90
       50
102
RTVSPost2010PropOp42
 70
     1
102
RTVSPost2010Prop43
 90
        3
102
RTVSPost2010PropOp43
 70
     1
102
RTVSPost2010Prop44ColorIndex
 90
        5
102
RTVSPost2010Prop44ColorRGB
 90
      255
102
RTVSPost2010PropOp44
 70
     1
102
RTVSPost2010Prop45
280
     0
102
RTVSPost2010PropOp45
 70
     1
102
RTVSPost2010Prop46
 90
       50
102
RTVSPost2010PropOp46
 70
     1
102
RTVSPost2010Prop47
 90
       50
102
RTVSPost2010PropOp47
 70
     1
102
RTVSPost2010Prop48
 90
       50
102
RTVSPost2010PropOp48
 70
     1
102
RTVSPost2010Prop49
280
     0
102
RTVSPost2010PropOp49
 70
     1
102
RTVSPost2010Prop50
 90
       50
102
RTVSPost2010PropOp50
 70
     1
102
RTVSPost2010Prop51ColorIndex
 90
      256
102
RTVSPost2010Prop51ColorRGB
 90
-16777216
102
RTVSPost2010PropOp51
 70
     0
102
RTVSPost2010Prop52
140
1.0
102
RTVSPost2010PropOp52
 70
     0
102
RTVSPost2010Prop53
 90
        2
102
RTVSPost2010PropOp53
 70
     1
102
RTVSPost2010Prop54
  1
strokes_ogs.tif
102
RTVSPost2010PropOp54
 70
     1
102
RTVSPost2010Prop55
280
     0
102
RTVSPost2010PropOp55
 70
     1
102
RTVSPost2010Prop56
140
1.0
102
RTVSPost2010PropOp56
 70
     1
102
RTVSPost2010Prop57
140
1.0
102
RTVSPost2010PropOp57
 70
     1
102
RTVSPropertyOp0
 70
     1
102
RTVSPropertyOp1
 70
     1
102
RTVSPropertyOp2
 70
     1
102
RTVSPropertyOp3
 70
     1
102
RTVSPropertyOp4
 70
     1
102
RTVSPropertyOp5
 70
     1
102
RTVSPropertyOp6
 70
     1
102
RTVSPropertyOp7
 70
     1
102
RTVSPropertyOp8
 70
     1
102
RTVSPropertyOp9
 70
     1
102
RTVSPropertyOp10
 70
     1
102
RTVSPropertyOp11
 70
     1
102
RTVSPropertyOp12
 70
     1
102
RTVSPropertyOp13
 70
     1
102
RTVSPropertyOp14
 70
     1
102
RTVSPropertyOp15
 70
     1
102
RTVSPropertyOp16
 70
     1
102
RTVSPropertyOp17
 70
     1
102
RTVSPropertyOp18
 70
     1
102
RTVSPropertyOp19
 70
     1
102
RTVSPropertyOp20
 70
     1
102
RTVSPropertyOp21
 70
     1
102
RTVSPropertyOp22
 70
     1
102
RTVSPropertyOp23
 70
     1
102
RTVSPropertyOp24
 70
     1
102
RTVSPropertyOp25
 70
     1
102
RTVSPropertyOp26
 70
     1
102
RTVSPropertyOp27
 70
     1
102
RTVSPropertyOp28
 70
     1
102
RTVSPropertyOp29
 70
     1
102
RTVSPropertyOp30
 70
     1
102
RTVSPropertyOp31
 70
     1
102
RTVSPropertyOp32
 70
     1
102
RTVSPropertyOp33
 70
     1
102
RTVSPropertyOp34
 70
     1
102
RTVSPropertyOp35
 70
     1
102
RTVSPropertyOp36
 70
     1
102
RTVSPropertyOp37
 70
     1
102
RTVSPropertyOp38
 70
     1
102
RTVSPropertyOp39
 70
     1
102
RTVSPropertyOp40
 70
     1
102
RTVSPropertyOp41
 70
     1
102
RTVSPropertyOp42
 70
     1
102
RTVSPropertyOp43
 70
     1
102
RTVSPropertyOp44
 70
     1
102
RTVSPropertyOp45
 70
     1
102
RTVSPropertyOp46
 70
     1
102
RTVSPropertyOp47
 70
     1
102
RTVSPropertyOp48
 70
     1
102
RTVSPropertyOp49
 70
     1
102
RTVSPropertyOp50
 70
     1
102
RTVSPropertyOp51
 70
     0
102
RTVSPropertyOp52
 70
     0
102
RTVSPropertyOp53
 70
     1
102
RTVSPropertyOp54
 70
     1
102
RTVSPropertyOp55
 70
     1
102
RTVSPropertyOp56
 70
     1
102
RTVSPropertyOp57
 70
     1
102
RTVSPropertyOp58
 70
     1
102
RTVSPropertyOp59
 70
     1
102
RTVSPropertyOp60
 70
     1
102
RTVSPropertyOp61
 70
     1
102
RTVSPropertyOp62
 70
     1
  0
XRECORD
  5
981
102
{ACAD_REACTORS
330
980
102
}
330
980
100
AcDbXrecord
280
     1
102
RTVSPost2010Prop28
280
     0
102
RTVSPost2010PropOp28
 70
     0
102
RTVSPost2010Prop29
280
     1
102
RTVSPost2010PropOp29
 70
     0
102
RTVSPost2010Prop30
280
     1
102
RTVSPost2010PropOp30
 70
     0
102
RTVSPost2010Prop31
280
     0
102
RTVSPost2010PropOp31
 70
     0
102
RTVSPost2010Prop32
280
     0
102
RTVSPost2010PropOp32
 70
     0
102
RTVSPost2010Prop33
280
     0
102
RTVSPost2010PropOp33
 70
     0
102
RTVSPost2010Prop34
280
     0
102
RTVSPost2010PropOp34
 70
     0
102
RTVSPost2010Prop35
280
     0
102
RTVSPost2010PropOp35
 70
     0
102
RTVSPost2010Prop36
280
     0
102
RTVSPost2010PropOp36
 70
     0
102
RTVSPost2010Prop37
 90
       50
102
RTVSPost2010PropOp37
 70
     0
102
RTVSPost2010Prop38
140
0.0
102
RTVSPost2010PropOp38
 70
     0
102
RTVSPost2010Prop39
140
1.0
102
RTVSPost2010PropOp39
 70
     0
102
RTVSPost2010Prop40
 90
        0
102
RTVSPost2010PropOp40
 70
     0
102
RTVSPost2010Prop41ColorIndex
 90
       18
102
RTVSPost2010Prop41ColorRGB
 90
-16777216
102
RTVSPost2010PropOp41
 70
     0
102
RTVSPost2010Prop42
 90
       50
102
RTVSPost2010PropOp42
 70
     0
102
RTVSPost2010Prop43
 90
        3
102
RTVSPost2010PropOp43
 70
     0
102
RTVSPost2010Prop44ColorIndex
 90
        5
102
RTVSPost2010Prop44ColorRGB
 90
      255
102
RTVSPost2010PropOp44
 70
     0
102
RTVSPost2010Prop45
280
     0
102
RTVSPost2010PropOp45
 70
     0
102
RTVSPost2010Prop46
 90
       50
102
RTVSPost2010PropOp46
 70
     0
102
RTVSPost2010Prop47
 90
       50
102
RTVSPost2010PropOp47
 70
     0
102
RTVSPost2010Prop48
 90
       50
102
RTVSPost2010PropOp48
 70
     0
102
RTVSPost2010Prop49
280
     0
102
RTVSPost2010PropOp49
 70
     0
102
RTVSPost2010Prop50
 90
       50
102
RTVSPost2010PropOp50
 70
     0
102
RTVSPost2010Prop51ColorIndex
 90
      256
102
RTVSPost2010Prop51ColorRGB
 90
-16777216
102
RTVSPost2010PropOp51
 70
     0
102
RTVSPost2010Prop52
140
1.0
102
RTVSPost2010PropOp52
 70
     0
102
RTVSPost2010Prop53
 90
        2
102
RTVSPost2010PropOp53
 70
     0
102
RTVSPost2010Prop54
  1
strokes_ogs.tif
102
RTVSPost2010PropOp54
 70
     0
102
RTVSPost2010Prop55
280
     0
102
RTVSPost2010PropOp55
 70
     0
102
RTVSPost2010Prop56
140
1.0
102
RTVSPost2010PropOp56
 70
     0
102
RTVSPost2010Prop57
140
1.0
102
RTVSPost2010PropOp57
 70
     0
102
RTVSPropertyOp0
 70
     0
102
RTVSPropertyOp1
 70
     0
102
RTVSPropertyOp2
 70
     0
102
RTVSPropertyOp3
 70
     0
102
RTVSPropertyOp4
 70
     0
102
RTVSPropertyOp5
 70
     0
102
RTVSPropertyOp6
 70
     0
102
RTVSPropertyOp7
 70
     0
102
RTVSPropertyOp8
 70
     0
102
RTVSPropertyOp9
 70
     0
102
RTVSPropertyOp10
 70
     0
102
RTVSPropertyOp11
 70
     0
102
RTVSPropertyOp12
 70
     0
102
RTVSPropertyOp13
 70
     0
102
RTVSPropertyOp14
 70
     2
102
RTVSPropertyOp15
 70
     0
102
RTVSPropertyOp16
 70
     0
102
RTVSPropertyOp17
 70
     0
102
RTVSPropertyOp18
 70
     0
102
RTVSPropertyOp19
 70
     0
102
RTVSPropertyOp20
 70
     0
102
RTVSPropertyOp21
 70
     0
102
RTVSPropertyOp22
 70
     0
102
RTVSPropertyOp23
 70
     0
102
RTVSPropertyOp24
 70
     0
102
RTVSPropertyOp25
 70
     0
102
RTVSPropertyOp26
 70
     0
102
RTVSPropertyOp27
 70
     0
102
RTVSPropertyOp28
 70
     0
102
RTVSPropertyOp29
 70
     0
102
RTVSPropertyOp30
 70
     0
102
RTVSPropertyOp31
 70
     0
102
RTVSPropertyOp32
 70
     0
102
RTVSPropertyOp33
 70
     0
102
RTVSPropertyOp34
 70
     0
102
RTVSPropertyOp35
 70
     0
102
RTVSPropertyOp36
 70
     0
102
RTVSPropertyOp37
 70
     0
102
RTVSPropertyOp38
 70
     0
102
RTVSPropertyOp39
 70
     0
102
RTVSPropertyOp40
 70
     0
102
RTVSPropertyOp41
 70
     0
102
RTVSPropertyOp42
 70
     0
102
RTVSPropertyOp43
 70
     0
102
RTVSPropertyOp44
 70
     0
102
RTVSPropertyOp45
 70
     0
102
RTVSPropertyOp46
 70
     0
102
RTVSPropertyOp47
 70
     0
102
RTVSPropertyOp48
 70
     0
102
RTVSPropertyOp49
 70
     0
102
RTVSPropertyOp50
 70
     0
102
RTVSPropertyOp51
 70
     0
102
RTVSPropertyOp52
 70
     0
102
RTVSPropertyOp53
 70
     0
102
RTVSPropertyOp54
 70
     0
102
RTVSPropertyOp55
 70
     0
102
RTVSPropertyOp56
 70
     0
102
RTVSPropertyOp57
 70
     0
102
RTVSPropertyOp58
 70
     1
102
RTVSPropertyOp59
 70
     1
102
RTVSPropertyOp60
 70
     1
102
RTVSPropertyOp61
 70
     1
102
RTVSPropertyOp62
 70
     1
  0
XRECORD
  5
967
102
{ACAD_REACTORS
330
966
102
}
330
966
100
AcDbXrecord
280
     1
102
RTVSPost2010Prop28
280
     0
102
RTVSPost2010PropOp28
 70
     1
102
RTVSPost2010Prop29
280
     1
102
RTVSPost2010PropOp29
 70
     1
102
RTVSPost2010Prop30
280
     1
102
RTVSPost2010PropOp30
 70
     1
102
RTVSPost2010Prop31
280
     0
102
RTVSPost2010PropOp31
 70
     1
102
RTVSPost2010Prop32
280
     0
102
RTVSPost2010PropOp32
 70
     1
102
RTVSPost2010Prop33
280
     0
102
RTVSPost2010PropOp33
 70
     1
102
RTVSPost2010Prop34
280
     0
102
RTVSPost2010PropOp34
 70
     1
102
RTVSPost2010Prop35
280
     0
102
RTVSPost2010PropOp35
 70
     1
102
RTVSPost2010Prop36
280
     0
102
RTVSPost2010PropOp36
 70
     1
102
RTVSPost2010Prop37
 90
       50
102
RTVSPost2010PropOp37
 70
     1
102
RTVSPost2010Prop38
140
0.0
102
RTVSPost2010PropOp38
 70
     1
102
RTVSPost2010Prop39
140
1.0
102
RTVSPost2010PropOp39
 70
     1
102
RTVSPost2010Prop40
 90
        0
102
RTVSPost2010PropOp40
 70
     1
102
RTVSPost2010Prop41ColorIndex
 90
       18
102
RTVSPost2010Prop41ColorRGB
 90
-16777216
102
RTVSPost2010PropOp41
 70
     1
102
RTVSPost2010Prop42
 90
       50
102
RTVSPost2010PropOp42
 70
     1
102
RTVSPost2010Prop43
 90
        3
102
RTVSPost2010PropOp43
 70
     1
102
RTVSPost2010Prop44ColorIndex
 90
        5
102
RTVSPost2010Prop44ColorRGB
 90
      255
102
RTVSPost2010PropOp44
 70
     1
102
RTVSPost2010Prop45
280
     0
102
RTVSPost2010PropOp45
 70
     1
102
RTVSPost2010Prop46
 90
       50
102
RTVSPost2010PropOp46
 70
     1
102
RTVSPost2010Prop47
 90
       50
102
RTVSPost2010PropOp47
 70
     1
102
RTVSPost2010Prop48
 90
       50
102
RTVSPost2010PropOp48
 70
     1
102
RTVSPost2010Prop49
280
     0
102
RTVSPost2010PropOp49
 70
     1
102
RTVSPost2010Prop50
 90
       50
102
RTVSPost2010PropOp50
 70
     1
102
RTVSPost2010Prop51ColorIndex
 90
      256
102
RTVSPost2010Prop51ColorRGB
 90
-16777216
102
RTVSPost2010PropOp51
 70
     0
102
RTVSPost2010Prop52
140
1.0
102
RTVSPost2010PropOp52
 70
     0
102
RTVSPost2010Prop53
 90
        2
102
RTVSPost2010PropOp53
 70
     1
102
RTVSPost2010Prop54
  1
strokes_ogs.tif
102
RTVSPost2010PropOp54
 70
     1
102
RTVSPost2010Prop55
280
     0
102
RTVSPost2010PropOp55
 70
     1
102
RTVSPost2010Prop56
140
1.0
102
RTVSPost2010PropOp56
 70
     1
102
RTVSPost2010Prop57
140
1.0
102
RTVSPost2010PropOp57
 70
     1
102
RTVSPropertyOp0
 70
     1
102
RTVSPropertyOp1
 70
     1
102
RTVSPropertyOp2
 70
     1
102
RTVSPropertyOp3
 70
     1
102
RTVSPropertyOp4
 70
     1
102
RTVSPropertyOp5
 70
     1
102
RTVSPropertyOp6
 70
     1
102
RTVSPropertyOp7
 70
     1
102
RTVSPropertyOp8
 70
     1
102
RTVSPropertyOp9
 70
     1
102
RTVSPropertyOp10
 70
     1
102
RTVSPropertyOp11
 70
     1
102
RTVSPropertyOp12
 70
     1
102
RTVSPropertyOp13
 70
     1
102
RTVSPropertyOp14
 70
     1
102
RTVSPropertyOp15
 70
     1
102
RTVSPropertyOp16
 70
     1
102
RTVSPropertyOp17
 70
     1
102
RTVSPropertyOp18
 70
     1
102
RTVSPropertyOp19
 70
     1
102
RTVSPropertyOp20
 70
     1
102
RTVSPropertyOp21
 70
     1
102
RTVSPropertyOp22
 70
     1
102
RTVSPropertyOp23
 70
     1
102
RTVSPropertyOp24
 70
     1
102
RTVSPropertyOp25
 70
     1
102
RTVSPropertyOp26
 70
     1
102
RTVSPropertyOp27
 70
     1
102
RTVSPropertyOp28
 70
     1
102
RTVSPropertyOp29
 70
     1
102
RTVSPropertyOp30
 70
     1
102
RTVSPropertyOp31
 70
     1
102
RTVSPropertyOp32
 70
     1
102
RTVSPropertyOp33
 70
     1
102
RTVSPropertyOp34
 70
     1
102
RTVSPropertyOp35
 70
     1
102
RTVSPropertyOp36
 70
     1
102
RTVSPropertyOp37
 70
     1
102
RTVSPropertyOp38
 70
     1
102
RTVSPropertyOp39
 70
     1
102
RTVSPropertyOp40
 70
     1
102
RTVSPropertyOp41
 70
     1
102
RTVSPropertyOp42
 70
     1
102
RTVSPropertyOp43
 70
     1
102
RTVSPropertyOp44
 70
     1
102
RTVSPropertyOp45
 70
     1
102
RTVSPropertyOp46
 70
     1
102
RTVSPropertyOp47
 70
     1
102
RTVSPropertyOp48
 70
     1
102
RTVSPropertyOp49
 70
     1
102
RTVSPropertyOp50
 70
     1
102
RTVSPropertyOp51
 70
     0
102
RTVSPropertyOp52
 70
     0
102
RTVSPropertyOp53
 70
     1
102
RTVSPropertyOp54
 70
     1
102
RTVSPropertyOp55
 70
     1
102
RTVSPropertyOp56
 70
     1
102
RTVSPropertyOp57
 70
     1
102
RTVSPropertyOp58
 70
     1
102
RTVSPropertyOp59
 70
     1
102
RTVSPropertyOp60
 70
     1
102
RTVSPropertyOp61
 70
     1
102
RTVSPropertyOp62
 70
     1
  0
XRECORD
  5
97D
102
{ACAD_REACTORS
330
97C
102
}
330
97C
100
AcDbXrecord
280
     1
102
RTVSPost2010Prop28
280
     0
102
RTVSPost2010PropOp28
 70
     1
102
RTVSPost2010Prop29
280
     1
102
RTVSPost2010PropOp29
 70
     1
102
RTVSPost2010Prop30
280
     1
102
RTVSPost2010PropOp30
 70
     1
102
RTVSPost2010Prop31
280
     0
102
RTVSPost2010PropOp31
 70
     1
102
RTVSPost2010Prop32
280
     0
102
RTVSPost2010PropOp32
 70
     1
102
RTVSPost2010Prop33
280
     0
102
RTVSPost2010PropOp33
 70
     1
102
RTVSPost2010Prop34
280
     0
102
RTVSPost2010PropOp34
 70
     1
102
RTVSPost2010Prop35
280
     0
102
RTVSPost2010PropOp35
 70
     1
102
RTVSPost2010Prop36
280
     0
102
RTVSPost2010PropOp36
 70
     1
102
RTVSPost2010Prop37
 90
       50
102
RTVSPost2010PropOp37
 70
     1
102
RTVSPost2010Prop38
140
0.0
102
RTVSPost2010PropOp38
 70
     1
102
RTVSPost2010Prop39
140
1.0
102
RTVSPost2010PropOp39
 70
     1
102
RTVSPost2010Prop40
 90
        0
102
RTVSPost2010PropOp40
 70
     1
102
RTVSPost2010Prop41ColorIndex
 90
       18
102
RTVSPost2010Prop41ColorRGB
 90
-16777216
102
RTVSPost2010PropOp41
 70
     1
102
RTVSPost2010Prop42
 90
       50
102
RTVSPost2010PropOp42
 70
     1
102
RTVSPost2010Prop43
 90
        3
102
RTVSPost2010PropOp43
 70
     1
102
RTVSPost2010Prop44ColorIndex
 90
        5
102
RTVSPost2010Prop44ColorRGB
 90
      255
102
RTVSPost2010PropOp44
 70
     1
102
RTVSPost2010Prop45
280
     0
102
RTVSPost2010PropOp45
 70
     1
102
RTVSPost2010Prop46
 90
       50
102
RTVSPost2010PropOp46
 70
     1
102
RTVSPost2010Prop47
 90
       50
102
RTVSPost2010PropOp47
 70
     1
102
RTVSPost2010Prop48
 90
       50
102
RTVSPost2010PropOp48
 70
     1
102
RTVSPost2010Prop49
280
     0
102
RTVSPost2010PropOp49
 70
     1
102
RTVSPost2010Prop50
 90
       50
102
RTVSPost2010PropOp50
 70
     1
102
RTVSPost2010Prop51ColorIndex
 90
      256
102
RTVSPost2010Prop51ColorRGB
 90
-16777216
102
RTVSPost2010PropOp51
 70
     0
102
RTVSPost2010Prop52
140
1.0
102
RTVSPost2010PropOp52
 70
     0
102
RTVSPost2010Prop53
 90
        2
102
RTVSPost2010PropOp53
 70
     1
102
RTVSPost2010Prop54
  1
strokes_ogs.tif
102
RTVSPost2010PropOp54
 70
     1
102
RTVSPost2010Prop55
280
     0
102
RTVSPost2010PropOp55
 70
     1
102
RTVSPost2010Prop56
140
1.0
102
RTVSPost2010PropOp56
 70
     1
102
RTVSPost2010Prop57
140
1.0
102
RTVSPost2010PropOp57
 70
     1
102
RTVSPropertyOp0
 70
     1
102
RTVSPropertyOp1
 70
     1
102
RTVSPropertyOp2
 70
     1
102
RTVSPropertyOp3
 70
     1
102
RTVSPropertyOp4
 70
     1
102
RTVSPropertyOp5
 70
     1
102
RTVSPropertyOp6
 70
     1
102
RTVSPropertyOp7
 70
     1
102
RTVSPropertyOp8
 70
     1
102
RTVSPropertyOp9
 70
     1
102
RTVSPropertyOp10
 70
     1
102
RTVSPropertyOp11
 70
     1
102
RTVSPropertyOp12
 70
     1
102
RTVSPropertyOp13
 70
     1
102
RTVSPropertyOp14
 70
     1
102
RTVSPropertyOp15
 70
     1
102
RTVSPropertyOp16
 70
     1
102
RTVSPropertyOp17
 70
     1
102
RTVSPropertyOp18
 70
     1
102
RTVSPropertyOp19
 70
     1
102
RTVSPropertyOp20
 70
     1
102
RTVSPropertyOp21
 70
     1
102
RTVSPropertyOp22
 70
     1
102
RTVSPropertyOp23
 70
     1
102
RTVSPropertyOp24
 70
     1
102
RTVSPropertyOp25
 70
     1
102
RTVSPropertyOp26
 70
     1
102
RTVSPropertyOp27
 70
     1
102
RTVSPropertyOp28
 70
     1
102
RTVSPropertyOp29
 70
     1
102
RTVSPropertyOp30
 70
     1
102
RTVSPropertyOp31
 70
     1
102
RTVSPropertyOp32
 70
     1
102
RTVSPropertyOp33
 70
     1
102
RTVSPropertyOp34
 70
     1
102
RTVSPropertyOp35
 70
     1
102
RTVSPropertyOp36
 70
     1
102
RTVSPropertyOp37
 70
     1
102
RTVSPropertyOp38
 70
     1
102
RTVSPropertyOp39
 70
     1
102
RTVSPropertyOp40
 70
     1
102
RTVSPropertyOp41
 70
     1
102
RTVSPropertyOp42
 70
     1
102
RTVSPropertyOp43
 70
     1
102
RTVSPropertyOp44
 70
     1
102
RTVSPropertyOp45
 70
     1
102
RTVSPropertyOp46
 70
     1
102
RTVSPropertyOp47
 70
     1
102
RTVSPropertyOp48
 70
     1
102
RTVSPropertyOp49
 70
     1
102
RTVSPropertyOp50
 70
     1
102
RTVSPropertyOp51
 70
     0
102
RTVSPropertyOp52
 70
     0
102
RTVSPropertyOp53
 70
     1
102
RTVSPropertyOp54
 70
     1
102
RTVSPropertyOp55
 70
     1
102
RTVSPropertyOp56
 70
     1
102
RTVSPropertyOp57
 70
     1
102
RTVSPropertyOp58
 70
     1
102
RTVSPropertyOp59
 70
     1
102
RTVSPropertyOp60
 70
     1
102
RTVSPropertyOp61
 70
     1
102
RTVSPropertyOp62
 70
     1
  0
XRECORD
  5
97B
102
{ACAD_REACTORS
330
97A
102
}
330
97A
100
AcDbXrecord
280
     1
102
RTVSPost2010Prop28
280
     0
102
RTVSPost2010PropOp28
 70
     1
102
RTVSPost2010Prop29
280
     1
102
RTVSPost2010PropOp29
 70
     1
102
RTVSPost2010Prop30
280
     1
102
RTVSPost2010PropOp30
 70
     1
102
RTVSPost2010Prop31
280
     0
102
RTVSPost2010PropOp31
 70
     1
102
RTVSPost2010Prop32
280
     0
102
RTVSPost2010PropOp32
 70
     1
102
RTVSPost2010Prop33
280
     0
102
RTVSPost2010PropOp33
 70
     1
102
RTVSPost2010Prop34
280
     0
102
RTVSPost2010PropOp34
 70
     1
102
RTVSPost2010Prop35
280
     0
102
RTVSPost2010PropOp35
 70
     1
102
RTVSPost2010Prop36
280
     0
102
RTVSPost2010PropOp36
 70
     1
102
RTVSPost2010Prop37
 90
       50
102
RTVSPost2010PropOp37
 70
     1
102
RTVSPost2010Prop38
140
0.0
102
RTVSPost2010PropOp38
 70
     1
102
RTVSPost2010Prop39
140
1.0
102
RTVSPost2010PropOp39
 70
     1
102
RTVSPost2010Prop40
 90
        0
102
RTVSPost2010PropOp40
 70
     1
102
RTVSPost2010Prop41ColorIndex
 90
       18
102
RTVSPost2010Prop41ColorRGB
 90
-16777216
102
RTVSPost2010PropOp41
 70
     1
102
RTVSPost2010Prop42
 90
       50
102
RTVSPost2010PropOp42
 70
     1
102
RTVSPost2010Prop43
 90
        3
102
RTVSPost2010PropOp43
 70
     1
102
RTVSPost2010Prop44ColorIndex
 90
        5
102
RTVSPost2010Prop44ColorRGB
 90
      255
102
RTVSPost2010PropOp44
 70
     1
102
RTVSPost2010Prop45
280
     0
102
RTVSPost2010PropOp45
 70
     1
102
RTVSPost2010Prop46
 90
       50
102
RTVSPost2010PropOp46
 70
     1
102
RTVSPost2010Prop47
 90
       50
102
RTVSPost2010PropOp47
 70
     1
102
RTVSPost2010Prop48
 90
       50
102
RTVSPost2010PropOp48
 70
     1
102
RTVSPost2010Prop49
280
     0
102
RTVSPost2010PropOp49
 70
     1
102
RTVSPost2010Prop50
 90
       50
102
RTVSPost2010PropOp50
 70
     1
102
RTVSPost2010Prop51ColorIndex
 90
      256
102
RTVSPost2010Prop51ColorRGB
 90
-16777216
102
RTVSPost2010PropOp51
 70
     0
102
RTVSPost2010Prop52
140
1.0
102
RTVSPost2010PropOp52
 70
     0
102
RTVSPost2010Prop53
 90
        2
102
RTVSPost2010PropOp53
 70
     1
102
RTVSPost2010Prop54
  1
strokes_ogs.tif
102
RTVSPost2010PropOp54
 70
     1
102
RTVSPost2010Prop55
280
     0
102
RTVSPost2010PropOp55
 70
     1
102
RTVSPost2010Prop56
140
1.0
102
RTVSPost2010PropOp56
 70
     1
102
RTVSPost2010Prop57
140
1.0
102
RTVSPost2010PropOp57
 70
     1
102
RTVSPropertyOp0
 70
     1
102
RTVSPropertyOp1
 70
     1
102
RTVSPropertyOp2
 70
     1
102
RTVSPropertyOp3
 70
     1
102
RTVSPropertyOp4
 70
     1
102
RTVSPropertyOp5
 70
     1
102
RTVSPropertyOp6
 70
     1
102
RTVSPropertyOp7
 70
     1
102
RTVSPropertyOp8
 70
     1
102
RTVSPropertyOp9
 70
     1
102
RTVSPropertyOp10
 70
     1
102
RTVSPropertyOp11
 70
     1
102
RTVSPropertyOp12
 70
     1
102
RTVSPropertyOp13
 70
     1
102
RTVSPropertyOp14
 70
     1
102
RTVSPropertyOp15
 70
     1
102
RTVSPropertyOp16
 70
     1
102
RTVSPropertyOp17
 70
     1
102
RTVSPropertyOp18
 70
     1
102
RTVSPropertyOp19
 70
     1
102
RTVSPropertyOp20
 70
     1
102
RTVSPropertyOp21
 70
     1
102
RTVSPropertyOp22
 70
     1
102
RTVSPropertyOp23
 70
     1
102
RTVSPropertyOp24
 70
     1
102
RTVSPropertyOp25
 70
     1
102
RTVSPropertyOp26
 70
     1
102
RTVSPropertyOp27
 70
     1
102
RTVSPropertyOp28
 70
     1
102
RTVSPropertyOp29
 70
     1
102
RTVSPropertyOp30
 70
     1
102
RTVSPropertyOp31
 70
     1
102
RTVSPropertyOp32
 70
     1
102
RTVSPropertyOp33
 70
     1
102
RTVSPropertyOp34
 70
     1
102
RTVSPropertyOp35
 70
     1
102
RTVSPropertyOp36
 70
     1
102
RTVSPropertyOp37
 70
     1
102
RTVSPropertyOp38
 70
     1
102
RTVSPropertyOp39
 70
     1
102
RTVSPropertyOp40
 70
     1
102
RTVSPropertyOp41
 70
     1
102
RTVSPropertyOp42
 70
     1
102
RTVSPropertyOp43
 70
     1
102
RTVSPropertyOp44
 70
     1
102
RTVSPropertyOp45
 70
     1
102
RTVSPropertyOp46
 70
     1
102
RTVSPropertyOp47
 70
     1
102
RTVSPropertyOp48
 70
     1
102
RTVSPropertyOp49
 70
     1
102
RTVSPropertyOp50
 70
     1
102
RTVSPropertyOp51
 70
     0
102
RTVSPropertyOp52
 70
     0
102
RTVSPropertyOp53
 70
     1
102
RTVSPropertyOp54
 70
     1
102
RTVSPropertyOp55
 70
     1
102
RTVSPropertyOp56
 70
     1
102
RTVSPropertyOp57
 70
     1
102
RTVSPropertyOp58
 70
     1
102
RTVSPropertyOp59
 70
     1
102
RTVSPropertyOp60
 70
     1
102
RTVSPropertyOp61
 70
     1
102
RTVSPropertyOp62
 70
     1
  0
XRECORD
  5
975
102
{ACAD_REACTORS
330
974
102
}
330
974
100
AcDbXrecord
280
     1
102
RTVSPost2010Prop28
280
     0
102
RTVSPost2010PropOp28
 70
     1
102
RTVSPost2010Prop29
280
     1
102
RTVSPost2010PropOp29
 70
     1
102
RTVSPost2010Prop30
280
     1
102
RTVSPost2010PropOp30
 70
     1
102
RTVSPost2010Prop31
280
     0
102
RTVSPost2010PropOp31
 70
     1
102
RTVSPost2010Prop32
280
     0
102
RTVSPost2010PropOp32
 70
     1
102
RTVSPost2010Prop33
280
     0
102
RTVSPost2010PropOp33
 70
     1
102
RTVSPost2010Prop34
280
     0
102
RTVSPost2010PropOp34
 70
     1
102
RTVSPost2010Prop35
280
     0
102
RTVSPost2010PropOp35
 70
     1
102
RTVSPost2010Prop36
280
     0
102
RTVSPost2010PropOp36
 70
     1
102
RTVSPost2010Prop37
 90
       50
102
RTVSPost2010PropOp37
 70
     1
102
RTVSPost2010Prop38
140
0.0
102
RTVSPost2010PropOp38
 70
     1
102
RTVSPost2010Prop39
140
1.0
102
RTVSPost2010PropOp39
 70
     1
102
RTVSPost2010Prop40
 90
        0
102
RTVSPost2010PropOp40
 70
     1
102
RTVSPost2010Prop41ColorIndex
 90
       18
102
RTVSPost2010Prop41ColorRGB
 90
-16777216
102
RTVSPost2010PropOp41
 70
     1
102
RTVSPost2010Prop42
 90
       50
102
RTVSPost2010PropOp42
 70
     1
102
RTVSPost2010Prop43
 90
        3
102
RTVSPost2010PropOp43
 70
     1
102
RTVSPost2010Prop44ColorIndex
 90
        5
102
RTVSPost2010Prop44ColorRGB
 90
      255
102
RTVSPost2010PropOp44
 70
     1
102
RTVSPost2010Prop45
280
     0
102
RTVSPost2010PropOp45
 70
     1
102
RTVSPost2010Prop46
 90
       50
102
RTVSPost2010PropOp46
 70
     1
102
RTVSPost2010Prop47
 90
       50
102
RTVSPost2010PropOp47
 70
     1
102
RTVSPost2010Prop48
 90
       50
102
RTVSPost2010PropOp48
 70
     1
102
RTVSPost2010Prop49
280
     0
102
RTVSPost2010PropOp49
 70
     1
102
RTVSPost2010Prop50
 90
       50
102
RTVSPost2010PropOp50
 70
     1
102
RTVSPost2010Prop51ColorIndex
 90
      256
102
RTVSPost2010Prop51ColorRGB
 90
-16777216
102
RTVSPost2010PropOp51
 70
     0
102
RTVSPost2010Prop52
140
1.0
102
RTVSPost2010PropOp52
 70
     0
102
RTVSPost2010Prop53
 90
        2
102
RTVSPost2010PropOp53
 70
     1
102
RTVSPost2010Prop54
  1
strokes_ogs.tif
102
RTVSPost2010PropOp54
 70
     1
102
RTVSPost2010Prop55
280
     0
102
RTVSPost2010PropOp55
 70
     1
102
RTVSPost2010Prop56
140
1.0
102
RTVSPost2010PropOp56
 70
     1
102
RTVSPost2010Prop57
140
1.0
102
RTVSPost2010PropOp57
 70
     1
102
RTVSPropertyOp0
 70
     1
102
RTVSPropertyOp1
 70
     1
102
RTVSPropertyOp2
 70
     1
102
RTVSPropertyOp3
 70
     1
102
RTVSPropertyOp4
 70
     1
102
RTVSPropertyOp5
 70
     1
102
RTVSPropertyOp6
 70
     1
102
RTVSPropertyOp7
 70
     1
102
RTVSPropertyOp8
 70
     1
102
RTVSPropertyOp9
 70
     1
102
RTVSPropertyOp10
 70
     1
102
RTVSPropertyOp11
 70
     1
102
RTVSPropertyOp12
 70
     1
102
RTVSPropertyOp13
 70
     1
102
RTVSPropertyOp14
 70
     1
102
RTVSPropertyOp15
 70
     1
102
RTVSPropertyOp16
 70
     1
102
RTVSPropertyOp17
 70
     1
102
RTVSPropertyOp18
 70
     1
102
RTVSPropertyOp19
 70
     1
102
RTVSPropertyOp20
 70
     1
102
RTVSPropertyOp21
 70
     1
102
RTVSPropertyOp22
 70
     1
102
RTVSPropertyOp23
 70
     1
102
RTVSPropertyOp24
 70
     1
102
RTVSPropertyOp25
 70
     1
102
RTVSPropertyOp26
 70
     1
102
RTVSPropertyOp27
 70
     1
102
RTVSPropertyOp28
 70
     1
102
RTVSPropertyOp29
 70
     1
102
RTVSPropertyOp30
 70
     1
102
RTVSPropertyOp31
 70
     1
102
RTVSPropertyOp32
 70
     1
102
RTVSPropertyOp33
 70
     1
102
RTVSPropertyOp34
 70
     1
102
RTVSPropertyOp35
 70
     1
102
RTVSPropertyOp36
 70
     1
102
RTVSPropertyOp37
 70
     1
102
RTVSPropertyOp38
 70
     1
102
RTVSPropertyOp39
 70
     1
102
RTVSPropertyOp40
 70
     1
102
RTVSPropertyOp41
 70
     1
102
RTVSPropertyOp42
 70
     1
102
RTVSPropertyOp43
 70
     1
102
RTVSPropertyOp44
 70
     1
102
RTVSPropertyOp45
 70
     1
102
RTVSPropertyOp46
 70
     1
102
RTVSPropertyOp47
 70
     1
102
RTVSPropertyOp48
 70
     1
102
RTVSPropertyOp49
 70
     1
102
RTVSPropertyOp50
 70
     1
102
RTVSPropertyOp51
 70
     0
102
RTVSPropertyOp52
 70
     0
102
RTVSPropertyOp53
 70
     1
102
RTVSPropertyOp54
 70
     1
102
RTVSPropertyOp55
 70
     1
102
RTVSPropertyOp56
 70
     1
102
RTVSPropertyOp57
 70
     1
102
RTVSPropertyOp58
 70
     1
102
RTVSPropertyOp59
 70
     1
102
RTVSPropertyOp60
 70
     1
102
RTVSPropertyOp61
 70
     1
102
RTVSPropertyOp62
 70
     1
  0
XRECORD
  5
977
102
{ACAD_REACTORS
330
976
102
}
330
976
100
AcDbXrecord
280
     1
102
RTVSPost2010Prop28
280
     0
102
RTVSPost2010PropOp28
 70
     1
102
RTVSPost2010Prop29
280
     1
102
RTVSPost2010PropOp29
 70
     1
102
RTVSPost2010Prop30
280
     1
102
RTVSPost2010PropOp30
 70
     1
102
RTVSPost2010Prop31
280
     0
102
RTVSPost2010PropOp31
 70
     1
102
RTVSPost2010Prop32
280
     0
102
RTVSPost2010PropOp32
 70
     1
102
RTVSPost2010Prop33
280
     0
102
RTVSPost2010PropOp33
 70
     1
102
RTVSPost2010Prop34
280
     0
102
RTVSPost2010PropOp34
 70
     1
102
RTVSPost2010Prop35
280
     0
102
RTVSPost2010PropOp35
 70
     1
102
RTVSPost2010Prop36
280
     0
102
RTVSPost2010PropOp36
 70
     1
102
RTVSPost2010Prop37
 90
       50
102
RTVSPost2010PropOp37
 70
     1
102
RTVSPost2010Prop38
140
0.0
102
RTVSPost2010PropOp38
 70
     1
102
RTVSPost2010Prop39
140
1.0
102
RTVSPost2010PropOp39
 70
     1
102
RTVSPost2010Prop40
 90
        0
102
RTVSPost2010PropOp40
 70
     1
102
RTVSPost2010Prop41ColorIndex
 90
       18
102
RTVSPost2010Prop41ColorRGB
 90
-16777216
102
RTVSPost2010PropOp41
 70
     1
102
RTVSPost2010Prop42
 90
       50
102
RTVSPost2010PropOp42
 70
     1
102
RTVSPost2010Prop43
 90
        3
102
RTVSPost2010PropOp43
 70
     1
102
RTVSPost2010Prop44ColorIndex
 90
        5
102
RTVSPost2010Prop44ColorRGB
 90
      255
102
RTVSPost2010PropOp44
 70
     1
102
RTVSPost2010Prop45
280
     0
102
RTVSPost2010PropOp45
 70
     1
102
RTVSPost2010Prop46
 90
       50
102
RTVSPost2010PropOp46
 70
     1
102
RTVSPost2010Prop47
 90
       50
102
RTVSPost2010PropOp47
 70
     1
102
RTVSPost2010Prop48
 90
       50
102
RTVSPost2010PropOp48
 70
     1
102
RTVSPost2010Prop49
280
     0
102
RTVSPost2010PropOp49
 70
     1
102
RTVSPost2010Prop50
 90
       50
102
RTVSPost2010PropOp50
 70
     1
102
RTVSPost2010Prop51ColorIndex
 90
      256
102
RTVSPost2010Prop51ColorRGB
 90
-16777216
102
RTVSPost2010PropOp51
 70
     0
102
RTVSPost2010Prop52
140
1.0
102
RTVSPost2010PropOp52
 70
     0
102
RTVSPost2010Prop53
 90
        2
102
RTVSPost2010PropOp53
 70
     1
102
RTVSPost2010Prop54
  1
strokes_ogs.tif
102
RTVSPost2010PropOp54
 70
     1
102
RTVSPost2010Prop55
280
     0
102
RTVSPost2010PropOp55
 70
     1
102
RTVSPost2010Prop56
140
1.0
102
RTVSPost2010PropOp56
 70
     1
102
RTVSPost2010Prop57
140
1.0
102
RTVSPost2010PropOp57
 70
     1
102
RTVSPropertyOp0
 70
     1
102
RTVSPropertyOp1
 70
     1
102
RTVSPropertyOp2
 70
     1
102
RTVSPropertyOp3
 70
     1
102
RTVSPropertyOp4
 70
     1
102
RTVSPropertyOp5
 70
     1
102
RTVSPropertyOp6
 70
     1
102
RTVSPropertyOp7
 70
     1
102
RTVSPropertyOp8
 70
     1
102
RTVSPropertyOp9
 70
     1
102
RTVSPropertyOp10
 70
     1
102
RTVSPropertyOp11
 70
     1
102
RTVSPropertyOp12
 70
     1
102
RTVSPropertyOp13
 70
     1
102
RTVSPropertyOp14
 70
     1
102
RTVSPropertyOp15
 70
     1
102
RTVSPropertyOp16
 70
     1
102
RTVSPropertyOp17
 70
     1
102
RTVSPropertyOp18
 70
     1
102
RTVSPropertyOp19
 70
     1
102
RTVSPropertyOp20
 70
     1
102
RTVSPropertyOp21
 70
     1
102
RTVSPropertyOp22
 70
     1
102
RTVSPropertyOp23
 70
     1
102
RTVSPropertyOp24
 70
     1
102
RTVSPropertyOp25
 70
     1
102
RTVSPropertyOp26
 70
     1
102
RTVSPropertyOp27
 70
     1
102
RTVSPropertyOp28
 70
     1
102
RTVSPropertyOp29
 70
     1
102
RTVSPropertyOp30
 70
     1
102
RTVSPropertyOp31
 70
     1
102
RTVSPropertyOp32
 70
     1
102
RTVSPropertyOp33
 70
     1
102
RTVSPropertyOp34
 70
     1
102
RTVSPropertyOp35
 70
     1
102
RTVSPropertyOp36
 70
     1
102
RTVSPropertyOp37
 70
     1
102
RTVSPropertyOp38
 70
     1
102
RTVSPropertyOp39
 70
     1
102
RTVSPropertyOp40
 70
     1
102
RTVSPropertyOp41
 70
     1
102
RTVSPropertyOp42
 70
     1
102
RTVSPropertyOp43
 70
     1
102
RTVSPropertyOp44
 70
     1
102
RTVSPropertyOp45
 70
     1
102
RTVSPropertyOp46
 70
     1
102
RTVSPropertyOp47
 70
     1
102
RTVSPropertyOp48
 70
     1
102
RTVSPropertyOp49
 70
     1
102
RTVSPropertyOp50
 70
     1
102
RTVSPropertyOp51
 70
     0
102
RTVSPropertyOp52
 70
     0
102
RTVSPropertyOp53
 70
     1
102
RTVSPropertyOp54
 70
     1
102
RTVSPropertyOp55
 70
     1
102
RTVSPropertyOp56
 70
     1
102
RTVSPropertyOp57
 70
     1
102
RTVSPropertyOp58
 70
     1
102
RTVSPropertyOp59
 70
     1
102
RTVSPropertyOp60
 70
     1
102
RTVSPropertyOp61
 70
     1
102
RTVSPropertyOp62
 70
     1
  0
XRECORD
  5
96D
102
{ACAD_REACTORS
330
96C
102
}
330
96C
100
AcDbXrecord
280
     1
102
RTVSPost2010Prop28
280
     0
102
RTVSPost2010PropOp28
 70
     1
102
RTVSPost2010Prop29
280
     1
102
RTVSPost2010PropOp29
 70
     1
102
RTVSPost2010Prop30
280
     1
102
RTVSPost2010PropOp30
 70
     1
102
RTVSPost2010Prop31
280
     0
102
RTVSPost2010PropOp31
 70
     1
102
RTVSPost2010Prop32
280
     0
102
RTVSPost2010PropOp32
 70
     1
102
RTVSPost2010Prop33
280
     0
102
RTVSPost2010PropOp33
 70
     1
102
RTVSPost2010Prop34
280
     0
102
RTVSPost2010PropOp34
 70
     1
102
RTVSPost2010Prop35
280
     0
102
RTVSPost2010PropOp35
 70
     1
102
RTVSPost2010Prop36
280
     0
102
RTVSPost2010PropOp36
 70
     1
102
RTVSPost2010Prop37
 90
       50
102
RTVSPost2010PropOp37
 70
     1
102
RTVSPost2010Prop38
140
0.0
102
RTVSPost2010PropOp38
 70
     1
102
RTVSPost2010Prop39
140
1.0
102
RTVSPost2010PropOp39
 70
     1
102
RTVSPost2010Prop40
 90
        0
102
RTVSPost2010PropOp40
 70
     1
102
RTVSPost2010Prop41ColorIndex
 90
       18
102
RTVSPost2010Prop41ColorRGB
 90
-16777216
102
RTVSPost2010PropOp41
 70
     1
102
RTVSPost2010Prop42
 90
       50
102
RTVSPost2010PropOp42
 70
     1
102
RTVSPost2010Prop43
 90
        3
102
RTVSPost2010PropOp43
 70
     1
102
RTVSPost2010Prop44ColorIndex
 90
        5
102
RTVSPost2010Prop44ColorRGB
 90
      255
102
RTVSPost2010PropOp44
 70
     1
102
RTVSPost2010Prop45
280
     0
102
RTVSPost2010PropOp45
 70
     1
102
RTVSPost2010Prop46
 90
       50
102
RTVSPost2010PropOp46
 70
     1
102
RTVSPost2010Prop47
 90
       50
102
RTVSPost2010PropOp47
 70
     1
102
RTVSPost2010Prop48
 90
       50
102
RTVSPost2010PropOp48
 70
     1
102
RTVSPost2010Prop49
280
     0
102
RTVSPost2010PropOp49
 70
     1
102
RTVSPost2010Prop50
 90
       50
102
RTVSPost2010PropOp50
 70
     1
102
RTVSPost2010Prop51ColorIndex
 90
      256
102
RTVSPost2010Prop51ColorRGB
 90
-16777216
102
RTVSPost2010PropOp51
 70
     0
102
RTVSPost2010Prop52
140
1.0
102
RTVSPost2010PropOp52
 70
     0
102
RTVSPost2010Prop53
 90
        2
102
RTVSPost2010PropOp53
 70
     1
102
RTVSPost2010Prop54
  1
strokes_ogs.tif
102
RTVSPost2010PropOp54
 70
     1
102
RTVSPost2010Prop55
280
     0
102
RTVSPost2010PropOp55
 70
     1
102
RTVSPost2010Prop56
140
1.0
102
RTVSPost2010PropOp56
 70
     1
102
RTVSPost2010Prop57
140
1.0
102
RTVSPost2010PropOp57
 70
     1
102
RTVSPropertyOp0
 70
     1
102
RTVSPropertyOp1
 70
     1
102
RTVSPropertyOp2
 70
     1
102
RTVSPropertyOp3
 70
     1
102
RTVSPropertyOp4
 70
     1
102
RTVSPropertyOp5
 70
     1
102
RTVSPropertyOp6
 70
     1
102
RTVSPropertyOp7
 70
     1
102
RTVSPropertyOp8
 70
     1
102
RTVSPropertyOp9
 70
     1
102
RTVSPropertyOp10
 70
     1
102
RTVSPropertyOp11
 70
     1
102
RTVSPropertyOp12
 70
     1
102
RTVSPropertyOp13
 70
     1
102
RTVSPropertyOp14
 70
     1
102
RTVSPropertyOp15
 70
     1
102
RTVSPropertyOp16
 70
     1
102
RTVSPropertyOp17
 70
     1
102
RTVSPropertyOp18
 70
     1
102
RTVSPropertyOp19
 70
     1
102
RTVSPropertyOp20
 70
     1
102
RTVSPropertyOp21
 70
     1
102
RTVSPropertyOp22
 70
     1
102
RTVSPropertyOp23
 70
     1
102
RTVSPropertyOp24
 70
     1
102
RTVSPropertyOp25
 70
     1
102
RTVSPropertyOp26
 70
     1
102
RTVSPropertyOp27
 70
     1
102
RTVSPropertyOp28
 70
     1
102
RTVSPropertyOp29
 70
     1
102
RTVSPropertyOp30
 70
     1
102
RTVSPropertyOp31
 70
     1
102
RTVSPropertyOp32
 70
     1
102
RTVSPropertyOp33
 70
     1
102
RTVSPropertyOp34
 70
     1
102
RTVSPropertyOp35
 70
     1
102
RTVSPropertyOp36
 70
     1
102
RTVSPropertyOp37
 70
     1
102
RTVSPropertyOp38
 70
     1
102
RTVSPropertyOp39
 70
     1
102
RTVSPropertyOp40
 70
     1
102
RTVSPropertyOp41
 70
     1
102
RTVSPropertyOp42
 70
     1
102
RTVSPropertyOp43
 70
     1
102
RTVSPropertyOp44
 70
     1
102
RTVSPropertyOp45
 70
     1
102
RTVSPropertyOp46
 70
     1
102
RTVSPropertyOp47
 70
     1
102
RTVSPropertyOp48
 70
     1
102
RTVSPropertyOp49
 70
     1
102
RTVSPropertyOp50
 70
     1
102
RTVSPropertyOp51
 70
     0
102
RTVSPropertyOp52
 70
     0
102
RTVSPropertyOp53
 70
     1
102
RTVSPropertyOp54
 70
     1
102
RTVSPropertyOp55
 70
     1
102
RTVSPropertyOp56
 70
     1
102
RTVSPropertyOp57
 70
     1
102
RTVSPropertyOp58
 70
     1
102
RTVSPropertyOp59
 70
     1
102
RTVSPropertyOp60
 70
     1
102
RTVSPropertyOp61
 70
     1
102
RTVSPropertyOp62
 70
     1
  0
XRECORD
  5
961
102
{ACAD_REACTORS
330
960
102
}
330
960
100
AcDbXrecord
280
     1
102
RTVSPost2010Prop28
280
     0
102
RTVSPost2010PropOp28
 70
     1
102
RTVSPost2010Prop29
280
     1
102
RTVSPost2010PropOp29
 70
     1
102
RTVSPost2010Prop30
280
     1
102
RTVSPost2010PropOp30
 70
     1
102
RTVSPost2010Prop31
280
     0
102
RTVSPost2010PropOp31
 70
     1
102
RTVSPost2010Prop32
280
     0
102
RTVSPost2010PropOp32
 70
     1
102
RTVSPost2010Prop33
280
     0
102
RTVSPost2010PropOp33
 70
     1
102
RTVSPost2010Prop34
280
     0
102
RTVSPost2010PropOp34
 70
     1
102
RTVSPost2010Prop35
280
     0
102
RTVSPost2010PropOp35
 70
     1
102
RTVSPost2010Prop36
280
     0
102
RTVSPost2010PropOp36
 70
     1
102
RTVSPost2010Prop37
 90
       50
102
RTVSPost2010PropOp37
 70
     1
102
RTVSPost2010Prop38
140
0.0
102
RTVSPost2010PropOp38
 70
     1
102
RTVSPost2010Prop39
140
1.0
102
RTVSPost2010PropOp39
 70
     1
102
RTVSPost2010Prop40
 90
        0
102
RTVSPost2010PropOp40
 70
     1
102
RTVSPost2010Prop41ColorIndex
 90
       18
102
RTVSPost2010Prop41ColorRGB
 90
-16777216
102
RTVSPost2010PropOp41
 70
     1
102
RTVSPost2010Prop42
 90
       50
102
RTVSPost2010PropOp42
 70
     1
102
RTVSPost2010Prop43
 90
        3
102
RTVSPost2010PropOp43
 70
     1
102
RTVSPost2010Prop44ColorIndex
 90
        5
102
RTVSPost2010Prop44ColorRGB
 90
      255
102
RTVSPost2010PropOp44
 70
     1
102
RTVSPost2010Prop45
280
     0
102
RTVSPost2010PropOp45
 70
     1
102
RTVSPost2010Prop46
 90
       50
102
RTVSPost2010PropOp46
 70
     1
102
RTVSPost2010Prop47
 90
       50
102
RTVSPost2010PropOp47
 70
     1
102
RTVSPost2010Prop48
 90
       50
102
RTVSPost2010PropOp48
 70
     1
102
RTVSPost2010Prop49
280
     0
102
RTVSPost2010PropOp49
 70
     1
102
RTVSPost2010Prop50
 90
       50
102
RTVSPost2010PropOp50
 70
     1
102
RTVSPost2010Prop51ColorIndex
 90
      256
102
RTVSPost2010Prop51ColorRGB
 90
-16777216
102
RTVSPost2010PropOp51
 70
     0
102
RTVSPost2010Prop52
140
1.0
102
RTVSPost2010PropOp52
 70
     0
102
RTVSPost2010Prop53
 90
        2
102
RTVSPost2010PropOp53
 70
     1
102
RTVSPost2010Prop54
  1
strokes_ogs.tif
102
RTVSPost2010PropOp54
 70
     1
102
RTVSPost2010Prop55
280
     0
102
RTVSPost2010PropOp55
 70
     1
102
RTVSPost2010Prop56
140
1.0
102
RTVSPost2010PropOp56
 70
     1
102
RTVSPost2010Prop57
140
1.0
102
RTVSPost2010PropOp57
 70
     1
102
RTVSPropertyOp0
 70
     1
102
RTVSPropertyOp1
 70
     1
102
RTVSPropertyOp2
 70
     1
102
RTVSPropertyOp3
 70
     1
102
RTVSPropertyOp4
 70
     1
102
RTVSPropertyOp5
 70
     1
102
RTVSPropertyOp6
 70
     1
102
RTVSPropertyOp7
 70
     1
102
RTVSPropertyOp8
 70
     1
102
RTVSPropertyOp9
 70
     1
102
RTVSPropertyOp10
 70
     1
102
RTVSPropertyOp11
 70
     1
102
RTVSPropertyOp12
 70
     1
102
RTVSPropertyOp13
 70
     1
102
RTVSPropertyOp14
 70
     1
102
RTVSPropertyOp15
 70
     1
102
RTVSPropertyOp16
 70
     1
102
RTVSPropertyOp17
 70
     1
102
RTVSPropertyOp18
 70
     1
102
RTVSPropertyOp19
 70
     1
102
RTVSPropertyOp20
 70
     1
102
RTVSPropertyOp21
 70
     1
102
RTVSPropertyOp22
 70
     1
102
RTVSPropertyOp23
 70
     1
102
RTVSPropertyOp24
 70
     1
102
RTVSPropertyOp25
 70
     1
102
RTVSPropertyOp26
 70
     1
102
RTVSPropertyOp27
 70
     1
102
RTVSPropertyOp28
 70
     1
102
RTVSPropertyOp29
 70
     1
102
RTVSPropertyOp30
 70
     1
102
RTVSPropertyOp31
 70
     1
102
RTVSPropertyOp32
 70
     1
102
RTVSPropertyOp33
 70
     1
102
RTVSPropertyOp34
 70
     1
102
RTVSPropertyOp35
 70
     1
102
RTVSPropertyOp36
 70
     1
102
RTVSPropertyOp37
 70
     1
102
RTVSPropertyOp38
 70
     1
102
RTVSPropertyOp39
 70
     1
102
RTVSPropertyOp40
 70
     1
102
RTVSPropertyOp41
 70
     1
102
RTVSPropertyOp42
 70
     1
102
RTVSPropertyOp43
 70
     1
102
RTVSPropertyOp44
 70
     1
102
RTVSPropertyOp45
 70
     1
102
RTVSPropertyOp46
 70
     1
102
RTVSPropertyOp47
 70
     1
102
RTVSPropertyOp48
 70
     1
102
RTVSPropertyOp49
 70
     1
102
RTVSPropertyOp50
 70
     1
102
RTVSPropertyOp51
 70
     0
102
RTVSPropertyOp52
 70
     0
102
RTVSPropertyOp53
 70
     1
102
RTVSPropertyOp54
 70
     1
102
RTVSPropertyOp55
 70
     1
102
RTVSPropertyOp56
 70
     1
102
RTVSPropertyOp57
 70
     1
102
RTVSPropertyOp58
 70
     1
102
RTVSPropertyOp59
 70
     1
102
RTVSPropertyOp60
 70
     1
102
RTVSPropertyOp61
 70
     1
102
RTVSPropertyOp62
 70
     1
  0
XRECORD
  5
979
102
{ACAD_REACTORS
330
978
102
}
330
978
100
AcDbXrecord
280
     1
102
RTVSPost2010Prop28
280
     0
102
RTVSPost2010PropOp28
 70
     1
102
RTVSPost2010Prop29
280
     1
102
RTVSPost2010PropOp29
 70
     1
102
RTVSPost2010Prop30
280
     1
102
RTVSPost2010PropOp30
 70
     1
102
RTVSPost2010Prop31
280
     0
102
RTVSPost2010PropOp31
 70
     1
102
RTVSPost2010Prop32
280
     0
102
RTVSPost2010PropOp32
 70
     1
102
RTVSPost2010Prop33
280
     0
102
RTVSPost2010PropOp33
 70
     1
102
RTVSPost2010Prop34
280
     0
102
RTVSPost2010PropOp34
 70
     1
102
RTVSPost2010Prop35
280
     0
102
RTVSPost2010PropOp35
 70
     1
102
RTVSPost2010Prop36
280
     0
102
RTVSPost2010PropOp36
 70
     1
102
RTVSPost2010Prop37
 90
       50
102
RTVSPost2010PropOp37
 70
     1
102
RTVSPost2010Prop38
140
0.0
102
RTVSPost2010PropOp38
 70
     1
102
RTVSPost2010Prop39
140
1.0
102
RTVSPost2010PropOp39
 70
     1
102
RTVSPost2010Prop40
 90
        0
102
RTVSPost2010PropOp40
 70
     1
102
RTVSPost2010Prop41ColorIndex
 90
       18
102
RTVSPost2010Prop41ColorRGB
 90
-16777216
102
RTVSPost2010PropOp41
 70
     1
102
RTVSPost2010Prop42
 90
       50
102
RTVSPost2010PropOp42
 70
     1
102
RTVSPost2010Prop43
 90
        3
102
RTVSPost2010PropOp43
 70
     1
102
RTVSPost2010Prop44ColorIndex
 90
        5
102
RTVSPost2010Prop44ColorRGB
 90
      255
102
RTVSPost2010PropOp44
 70
     1
102
RTVSPost2010Prop45
280
     0
102
RTVSPost2010PropOp45
 70
     1
102
RTVSPost2010Prop46
 90
       50
102
RTVSPost2010PropOp46
 70
     1
102
RTVSPost2010Prop47
 90
       50
102
RTVSPost2010PropOp47
 70
     1
102
RTVSPost2010Prop48
 90
       50
102
RTVSPost2010PropOp48
 70
     1
102
RTVSPost2010Prop49
280
     0
102
RTVSPost2010PropOp49
 70
     1
102
RTVSPost2010Prop50
 90
       50
102
RTVSPost2010PropOp50
 70
     1
102
RTVSPost2010Prop51ColorIndex
 90
      256
102
RTVSPost2010Prop51ColorRGB
 90
-16777216
102
RTVSPost2010PropOp51
 70
     0
102
RTVSPost2010Prop52
140
1.0
102
RTVSPost2010PropOp52
 70
     0
102
RTVSPost2010Prop53
 90
        2
102
RTVSPost2010PropOp53
 70
     1
102
RTVSPost2010Prop54
  1
strokes_ogs.tif
102
RTVSPost2010PropOp54
 70
     1
102
RTVSPost2010Prop55
280
     0
102
RTVSPost2010PropOp55
 70
     1
102
RTVSPost2010Prop56
140
1.0
102
RTVSPost2010PropOp56
 70
     1
102
RTVSPost2010Prop57
140
1.0
102
RTVSPost2010PropOp57
 70
     1
102
RTVSPropertyOp0
 70
     1
102
RTVSPropertyOp1
 70
     1
102
RTVSPropertyOp2
 70
     1
102
RTVSPropertyOp3
 70
     1
102
RTVSPropertyOp4
 70
     1
102
RTVSPropertyOp5
 70
     1
102
RTVSPropertyOp6
 70
     1
102
RTVSPropertyOp7
 70
     1
102
RTVSPropertyOp8
 70
     1
102
RTVSPropertyOp9
 70
     1
102
RTVSPropertyOp10
 70
     1
102
RTVSPropertyOp11
 70
     1
102
RTVSPropertyOp12
 70
     1
102
RTVSPropertyOp13
 70
     1
102
RTVSPropertyOp14
 70
     1
102
RTVSPropertyOp15
 70
     1
102
RTVSPropertyOp16
 70
     1
102
RTVSPropertyOp17
 70
     1
102
RTVSPropertyOp18
 70
     1
102
RTVSPropertyOp19
 70
     1
102
RTVSPropertyOp20
 70
     1
102
RTVSPropertyOp21
 70
     1
102
RTVSPropertyOp22
 70
     1
102
RTVSPropertyOp23
 70
     1
102
RTVSPropertyOp24
 70
     1
102
RTVSPropertyOp25
 70
     1
102
RTVSPropertyOp26
 70
     1
102
RTVSPropertyOp27
 70
     1
102
RTVSPropertyOp28
 70
     1
102
RTVSPropertyOp29
 70
     1
102
RTVSPropertyOp30
 70
     1
102
RTVSPropertyOp31
 70
     1
102
RTVSPropertyOp32
 70
     1
102
RTVSPropertyOp33
 70
     1
102
RTVSPropertyOp34
 70
     1
102
RTVSPropertyOp35
 70
     1
102
RTVSPropertyOp36
 70
     1
102
RTVSPropertyOp37
 70
     1
102
RTVSPropertyOp38
 70
     1
102
RTVSPropertyOp39
 70
     1
102
RTVSPropertyOp40
 70
     1
102
RTVSPropertyOp41
 70
     1
102
RTVSPropertyOp42
 70
     1
102
RTVSPropertyOp43
 70
     1
102
RTVSPropertyOp44
 70
     1
102
RTVSPropertyOp45
 70
     1
102
RTVSPropertyOp46
 70
     1
102
RTVSPropertyOp47
 70
     1
102
RTVSPropertyOp48
 70
     1
102
RTVSPropertyOp49
 70
     1
102
RTVSPropertyOp50
 70
     1
102
RTVSPropertyOp51
 70
     0
102
RTVSPropertyOp52
 70
     0
102
RTVSPropertyOp53
 70
     1
102
RTVSPropertyOp54
 70
     1
102
RTVSPropertyOp55
 70
     1
102
RTVSPropertyOp56
 70
     1
102
RTVSPropertyOp57
 70
     1
102
RTVSPropertyOp58
 70
     1
102
RTVSPropertyOp59
 70
     1
102
RTVSPropertyOp60
 70
     1
102
RTVSPropertyOp61
 70
     1
102
RTVSPropertyOp62
 70
     1
  0
ENDSEC
  0
EOF
