  0
SECTION
  2
HEADER
  9
$ACADVER
  1
AC1009
  9
$INSBASE
 10
0.0
 20
0.0
 30
0.0
  9
$EXTMIN
 10
73.508144088254312
 20
-0.0111266887402053
 30
-0.0015258207003583
  9
$EXTMAX
 10
598.29298912232355
 20
364.63828344365447
 30
0.0000000349246037
  9
$LIMMIN
 10
0.0
 20
0.0
  9
$LIMMAX
 10
12.0
 20
9.0
  9
$ORTHOMODE
 70
     1
  9
$REGENMODE
 70
     1
  9
$FILLMODE
 70
     1
  9
$QTEXTMODE
 70
     0
  9
$MIRRTEXT
 70
     0
  9
$DRAGMODE
 70
     2
  9
$LTSCALE
 40
1.0
  9
$OSMODE
 70
    37
  9
$ATTMODE
 70
     1
  9
$TEXTSIZE
 40
0.2
  9
$TRACEWID
 40
0.05
  9
$TEXTSTYLE
  7
ROMANS
  9
$CLAYER
  8
0
  9
$CELTYPE
  6
BYLAYER
  9
$CECOLOR
 62
   256
  9
$DIMSCALE
 40
1.0
  9
$DIMASZ
 40
0.09375
  9
$DIMEXO
 40
0.0625
  9
$DIMDLI
 40
0.375
  9
$DIMRND
 40
0.0
  9
$DIMDLE
 40
0.0
  9
$DIMEXE
 40
0.03125
  9
$DIMTP
 40
0.0
  9
$DIMTM
 40
0.0
  9
$DIMTXT
 40
0.09375
  9
$DIMCEN
 40
0.09375
  9
$DIMTSZ
 40
0.0
  9
$DIMTOL
 70
     0
  9
$DIMLIM
 70
     0
  9
$DIMTIH
 70
     0
  9
$DIMTOH
 70
     0
  9
$DIMSE1
 70
     0
  9
$DIMSE2
 70
     0
  9
$DIMTAD
 70
     0
  9
$DIMZIN
 70
     0
  9
$DIMBLK
  1

  9
$DIMASO
 70
     1
  9
$DIMSHO
 70
     1
  9
$DIMPOST
  1

  9
$DIMAPOST
  1

  9
$DIMALT
 70
     0
  9
$DIMALTD
 70
     2
  9
$DIMALTF
 40
25.399999999999999
  9
$DIMLFAC
 40
1.0
  9
$DIMTOFL
 70
     0
  9
$DIMTVP
 40
0.0
  9
$DIMTIX
 70
     0
  9
$DIMSOXD
 70
     0
  9
$DIMSAH
 70
     0
  9
$DIMBLK1
  1

  9
$DIMBLK2
  1

  9
$DIMSTYLE
  2
BAC
  9
$DIMCLRD
 70
     0
  9
$DIMCLRE
 70
     6
  9
$DIMCLRT
 70
     0
  9
$DIMTFAC
 40
1.0
  9
$DIMGAP
 40
0.0625
  9
$LUNITS
 70
     5
  9
$LUPREC
 70
     6
  9
$SKETCHINC
 40
0.1
  9
$FILLETRAD
 40
0.5
  9
$AUNITS
 70
     0
  9
$AUPREC
 70
     0
  9
$MENU
  1
.
  9
$ELEVATION
 40
0.0
  9
$PELEVATION
 40
0.0
  9
$THICKNESS
 40
0.0
  9
$LIMCHECK
 70
     0
  9
$BLIPMODE
 70
     0
  9
$CHAMFERA
 40
0.5
  9
$CHAMFERB
 40
0.5
  9
$SKPOLY
 70
     0
  9
$TDCREATE
 40
2456828.7233763081
  9
$TDUPDATE
 40
2456828.7245904752
  9
$TDINDWG
 40
0.0012156481
  9
$TDUSRTIMER
 40
0.0012153935
  9
$USRTIMER
 70
     1
  9
$ANGBASE
 50
0.0
  9
$ANGDIR
 70
     0
  9
$PDMODE
 70
     0
  9
$PDSIZE
 40
0.0
  9
$PLINEWID
 40
0.0
  9
$COORDS
 70
     1
  9
$SPLFRAME
 70
     0
  9
$SPLINETYPE
 70
     6
  9
$SPLINESEGS
 70
     8
  9
$ATTDIA
 70
     0
  9
$ATTREQ
 70
     1
  9
$HANDLING
 70
     1
  9
$HANDSEED
  5
6E8
  9
$SURFTAB1
 70
     6
  9
$SURFTAB2
 70
     6
  9
$SURFTYPE
 70
     6
  9
$SURFU
 70
     6
  9
$SURFV
 70
     6
  9
$UCSNAME
  2

  9
$UCSORG
 10
0.0
 20
0.0
 30
0.0
  9
$UCSXDIR
 10
1.0
 20
0.0
 30
0.0
  9
$UCSYDIR
 10
0.0
 20
1.0
 30
0.0
  9
$PUCSNAME
  2

  9
$PUCSORG
 10
0.0
 20
0.0
 30
0.0
  9
$PUCSXDIR
 10
1.0
 20
0.0
 30
0.0
  9
$PUCSYDIR
 10
0.0
 20
1.0
 30
0.0
  9
$USERI1
 70
     0
  9
$USERI2
 70
     0
  9
$USERI3
 70
     0
  9
$USERI4
 70
     0
  9
$USERI5
 70
     0
  9
$USERR1
 40
0.0
  9
$USERR2
 40
0.0
  9
$USERR3
 40
0.0
  9
$USERR4
 40
0.0
  9
$USERR5
 40
0.0
  9
$WORLDVIEW
 70
     1
  9
$SHADEDGE
 70
     3
  9
$SHADEDIF
 70
    70
  9
$TILEMODE
 70
     1
  9
$MAXACTVP
 70
    48
  9
$PLIMCHECK
 70
     0
  9
$PEXTMIN
 10
1.0000000000000000E+020
 20
1.0000000000000000E+020
 30
1.0000000000000000E+020
  9
$PEXTMAX
 10
-1.0000000000000000E+020
 20
-1.0000000000000000E+020
 30
-1.0000000000000000E+020
  9
$PLIMMIN
 10
0.0
 20
0.0
  9
$PLIMMAX
 10
12.0
 20
9.0
  9
$UNITMODE
 70
     0
  9
$VISRETAIN
 70
     1
  9
$PLINEGEN
 70
     0
  9
$PSLTSCALE
 70
     1
  0
ENDSEC
  0
SECTION
  2
TABLES
  0
TABLE
  2
VPORT
 70
     1
  0
VPORT
  2
*ACTIVE
 70
     0
 10
0.0
 20
0.0
 11
1.0
 21
1.0
 12
335.90056660528899
 22
182.31357837745711
 13
0.0
 23
0.0
 14
0.5
 24
0.5
 15
0.5
 25
0.5
 16
0.0
 26
0.0
 36
1.0
 17
0.0
 27
0.0
 37
0.0
 40
367.07501596476101
 41
1.7702552719200879
 42
50.0
 43
0.0
 44
0.0
 50
0.0
 51
0.0
 71
     0
 72
   100
 73
     1
 74
     1
 75
     0
 76
     0
 77
     0
 78
     0
  0
ENDTAB
  0
TABLE
  2
LTYPE
 70
    19
  0
LTYPE
  2
CONTINUOUS
 70
     0
  3
Solid line
 72
    65
 73
     0
 40
0.0
  0
LTYPE
  2
CENTER
 70
     0
  3
Center ____ _ ____ _ ____ _ ____ _ ____ _ ____
 72
    65
 73
     4
 40
2.0
 49
1.25
 49
-0.25
 49
0.25
 49
-0.25
  0
LTYPE
  2
CENTER2
 70
     0
  3
Center (.5x) ___ _ ___ _ ___ _ ___ _ ___ _ ___
 72
    65
 73
     4
 40
1.125
 49
0.75
 49
-0.125
 49
0.125
 49
-0.125
  0
LTYPE
  2
HIDDEN
 70
     0
  3
Hidden __ __ __ __ __ __ __ __ __ __ __ __ __ _
 72
    65
 73
     2
 40
0.375
 49
0.25
 49
-0.125
  0
LTYPE
  2
HIDDEN2
 70
     0
  3
Hidden (.5x) _ _ _ _ _ _ _ _ _ _ _ _ _ _ _ _ _
 72
    65
 73
     2
 40
0.1875
 49
0.125
 49
-0.0625
  0
LTYPE
  2
PHANTOM2
 70
     0
  3
Phantom (.5x) ___ _ _ ___ _ _ ___ _ _ ___ _ _
 72
    65
 73
     6
 40
1.25
 49
0.625
 49
-0.125
 49
0.125
 49
-0.125
 49
0.125
 49
-0.125
  0
LTYPE
  2
AMCONSTR
 70
     0
  3
_______________________
 72
    65
 73
     2
 40
9999.0
 49
9999.0
 49
0.0
  0
LTYPE
  2
AMZIGZAG2
 70
     0
  3
/\/-/\/-/\/-/\/-/\/-/\/
 72
    65
 73
     2
 40
0.4401
 49
0.0001
 49
-0.4400000000000001
  0
LTYPE
  2
ACANSTGB
 70
     0
  3
__ . . __ . .
 72
    65
 73
     6
 40
0.35433070866
 49
0.15748031496
 49
-0.03937007874
 49
0.03937007874
 49
-0.03937007874
 49
0.03937007874
 49
-0.03937007874
  0
LTYPE
  2
ACANSTGL
 70
     0
  3
_ _ _ _ _
 72
    65
 73
     2
 40
0.11811023622
 49
0.07874015748
 49
-0.03937007874
  0
ENDTAB
  0
TABLE
  2
LAYER
 70
     8
  0
LAYER
  2
0
 70
     0
 62
     7
  6
CONTINUOUS
  0
ENDTAB
  0
TABLE
  2
STYLE
 70
    11
  0
STYLE
  2
STANDARD
 70
     0
 40
0.0
 41
1.0
 50
0.0
 71
     0
 42
0.2
  3
txt
  4

  0
STYLE
  2
ROMANS
 70
     0
 40
0.0
 41
0.75
 50
0.0
 71
     0
 42
0.2
  3
romans.shx
  4

  0
STYLE
  2

 70
     1
 40
0.0
 41
1.0
 50
0.0
 71
     0
 42
0.2
  3
genltshp.shx
  4

  0
STYLE
  2
ACANSGDT
 70
     0
 40
0.0
 41
1.0
 50
0.0
 71
     0
 42
0.2
  3
amgdt.shx
  4

  0
ENDTAB
  0
TABLE
  2
VIEW
 70
     0
  0
ENDTAB
  0
TABLE
  2
UCS
 70
     0
  0
ENDTAB
  0
TABLE
  2
APPID
 70
    14
  0
APPID
  2
ACAD
 70
     0
  0
APPID
  2
ACAD_MLEADERVER
 70
     0
  0
APPID
  2
ACAD_DSTYLE_DIMJAG
 70
     0
  0
APPID
  2
ACAD_DSTYLE_DIMTALN
 70
     0
  0
APPID
  2
ACAD_PSEXT
 70
     0
  0
APPID
  2
ACADANNOPO
 70
     0
  0
APPID
  2
MCAD_NO_VIS
 70
     0
  0
APPID
  2
ACAD_TEMP_GRAPHIC
 70
     0
  0
APPID
  2
ACATTRIBSERVICES
 70
     0
  0
APPID
  2
DESIGNERASSEMBLIES
 70
     0
  0
APPID
  2
ACAD_DSTYLE_DIMBREAK
 70
     0
  0
APPID
  2
ACAD_NAV_VCDISPLAY
 70
     0
  0
APPID
  2
GRADIENTCOLOR1ACI
 70
     0
  0
APPID
  2
GRADIENTCOLOR2ACI
 70
     0
  0
ENDTAB
  0
TABLE
  2
DIMSTYLE
 70
    13
  0
DIMSTYLE
  2
BAC
 70
     0
  3

  4

  5

  6

  7

 40
1.0
 41
0.09375
 42
0.0625
 43
0.375
 44
0.03125
 45
0.0
 46
0.0
 47
0.0
 48
0.0
140
0.09375
141
0.09375
142
0.0
143
25.399999999999999
144
1.0
145
0.0
146
1.0
147
0.0625
 71
     0
 72
     0
 73
     0
 74
     0
 75
     0
 76
     0
 77
     0
 78
     0
170
     0
171
     2
172
     0
173
     0
174
     0
175
     0
176
     0
177
     6
178
     0
  0
DIMSTYLE
  2
AM_ANSI
 70
     0
  3

  4
mm
  5

  6

  7

 40
1.0
 41
0.12
 42
0.05
 43
0.5
 44
0.1
 45
0.0
 46
0.0
 47
0.1
 48
0.1
140
0.12
141
0.0
142
0.0
143
25.399999999999999
144
1.0
145
0.0
146
0.71
147
0.06
 71
     0
 72
     0
 73
     1
 74
     1
 75
     0
 76
     0
 77
     0
 78
     7
170
     0
171
     2
172
     0
173
     0
174
     0
175
     0
176
   256
177
   256
178
     2
  0
DIMSTYLE
  2
AM_ANSI$3
 70
     0
  3

  4
mm
  5

  6

  7

 40
1.0
 41
0.12
 42
0.05
 43
0.5
 44
0.1
 45
0.0
 46
0.0
 47
0.1
 48
0.1
140
0.12
141
0.0
142
0.0
143
25.399999999999999
144
1.0
145
0.0
146
0.71
147
0.06
 71
     0
 72
     0
 73
     1
 74
     1
 75
     0
 76
     0
 77
     0
 78
     7
170
     0
171
     2
172
     0
173
     0
174
     0
175
     0
176
   256
177
   256
178
     2
  0
DIMSTYLE
  2
AM_ANSI$4
 70
     0
  3

  4
mm
  5

  6

  7

 40
1.0
 41
0.12
 42
0.05
 43
0.5
 44
0.1
 45
0.0
 46
0.0
 47
0.1
 48
0.1
140
0.12
141
0.0
142
0.0
143
25.399999999999999
144
1.0
145
0.0
146
0.71
147
0.06
 71
     0
 72
     0
 73
     1
 74
     1
 75
     0
 76
     0
 77
     0
 78
     7
170
     0
171
     2
172
     0
173
     0
174
     0
175
     0
176
   256
177
   256
178
     2
  0
DIMSTYLE
  2
AM_ANSI$7
 70
     0
  3

  4
mm
  5

  6

  7

 40
1.0
 41
0.12
 42
0.05
 43
0.5
 44
0.1
 45
0.0
 46
0.0
 47
0.1
 48
0.1
140
0.12
141
0.0
142
0.0
143
25.399999999999999
144
1.0
145
0.0
146
0.71
147
0.06
 71
     0
 72
     0
 73
     1
 74
     1
 75
     0
 76
     0
 77
     0
 78
     7
170
     0
171
     2
172
     0
173
     0
174
     0
175
     0
176
   256
177
   256
178
     2
  0
DIMSTYLE
  2
AM_ANSI$SF
 70
     0
  3

  4
mm
  5

  6

  7

 40
1.0
 41
0.12
 42
0.05
 43
0.5
 44
0.1
 45
0.0
 46
0.0
 47
0.1
 48
0.1
140
0.12
141
0.0
142
0.0
143
25.399999999999999
144
1.0
145
0.0
146
0.71
147
0.06
 71
     0
 72
     0
 73
     1
 74
     1
 75
     1
 76
     1
 77
     0
 78
     7
170
     0
171
     2
172
     0
173
     0
174
     0
175
     0
176
   256
177
   256
178
     2
  0
DIMSTYLE
  2
AM_ANSI$SH
 70
     0
  3

  4
mm
  5

  6
GENAXEH
  7

 40
1.0
 41
0.12
 42
0.05
 43
0.5
 44
0.1
 45
0.0
 46
0.0
 47
0.1
 48
0.1
140
0.12
141
0.0
142
0.0
143
25.399999999999999
144
1.0
145
0.0
146
0.71
147
0.06
 71
     0
 72
     0
 73
     1
 74
     1
 75
     1
 76
     1
 77
     0
 78
     7
170
     0
171
     2
172
     0
173
     1
174
     0
175
     0
176
   256
177
   256
178
     2
  0
DIMSTYLE
  2
STANDARD
 70
     0
  3

  4

  5

  6

  7

 40
1.0
 41
0.18
 42
0.0625
 43
0.38
 44
0.18
 45
0.0
 46
0.0
 47
0.0
 48
0.0
140
0.18
141
0.09
142
0.0
143
25.399999999999999
144
1.0
145
0.0
146
1.0
147
0.09
 71
     0
 72
     0
 73
     1
 74
     1
 75
     0
 76
     0
 77
     0
 78
     0
170
     0
171
     2
172
     0
173
     0
174
     0
175
     0
176
     0
177
     0
178
     0
  0
ENDTAB
  0
ENDSEC
  0
SECTION
  2
BLOCKS
  0
BLOCK
  8
0
  2
$MODEL_SPACE
 70
     0
 10
0.0
 20
0.0
 30
0.0
  3
$MODEL_SPACE
  1

  0
ENDBLK
  5
1A
  8
0
  0
BLOCK
 67
     1
  8
0
  2
$PAPER_SPACE
 70
     0
 10
0.0
 20
0.0
 30
0.0
  3
$PAPER_SPACE
  1

  0
ENDBLK
  5
17
 67
     1
  8
0
  0
BLOCK
  8
0
  2
*U0
 70
     1
 10
0.0
 20
0.0
 30
0.0
  3
*U0
  1

  0
ENDBLK
  5
17A
  8
0
  0
BLOCK
  8
0
  2
GENAXEH
 70
     0
 10
0.0
 20
0.0
 30
0.0
  3
GENAXEH
  1

  0
LINE
  5
1AD
  8
0
 10
-1.0
 20
0.0
 30
0.0
 11
1.0
 21
0.0
 31
0.0
  0
ENDBLK
  5
1AF
  8
0
  0
BLOCK
  8
0
  2
*X3
 70
     1
 10
0.0
 20
0.0
 30
0.0
  3
*X3
  1

  0
LINE
  5
567
  8
0
 62
     0
 10
595.25181664418665
 20
4.0000045037579941
 30
0.0
 11
595.25181664418665
 21
98.375004503758561
 31
0.0
  0
LINE
  5
568
  8
0
 62
     0
 10
593.75181664418665
 20
4.0000045037579808
 30
0.0
 11
593.75181664418665
 21
98.375004503758561
 31
0.0
  0
LINE
  5
569
  8
0
 62
     0
 10
592.25181664418665
 20
4.0000045037579692
 30
0.0
 11
592.25181664418665
 21
98.375004503758547
 31
0.0
  0
LINE
  5
56A
  8
0
 62
     0
 10
590.75181664418665
 20
4.000004503757955
 30
0.0
 11
590.75181664418665
 21
98.375004503758518
 31
0.0
  0
LINE
  5
56B
  8
0
 62
     0
 10
589.25181664418665
 20
4.0000045037579426
 30
0.0
 11
589.25181664418665
 21
98.375004503758475
 31
0.0
  0
LINE
  5
56C
  8
0
 62
     0
 10
587.75181664418665
 20
4.0000045037579302
 30
0.0
 11
587.75181664418665
 21
98.375004503758475
 31
0.0
  0
LINE
  5
56D
  8
0
 62
     0
 10
586.25181664418665
 20
4.0000045037579168
 30
0.0
 11
586.25181664418665
 21
98.375004503758475
 31
0.0
  0
LINE
  5
56E
  8
0
 62
     0
 10
584.75181664418665
 20
4.0000045037579044
 30
0.0
 11
584.75181664418665
 21
98.375004503758447
 31
0.0
  0
LINE
  5
56F
  8
0
 62
     0
 10
556.25181664418665
 20
4.0000045037576104
 30
0.0
 11
556.25181664418665
 21
98.375004503758149
 31
0.0
  0
LINE
  5
570
  8
0
 62
     0
 10
554.75181664418665
 20
4.0000045037575944
 30
0.0
 11
554.75181664418665
 21
98.375004503758134
 31
0.0
  0
LINE
  5
571
  8
0
 62
     0
 10
553.25181664418665
 20
4.0000045037575784
 30
0.0
 11
553.25181664418665
 21
98.375004503758134
 31
0.0
  0
LINE
  5
572
  8
0
 62
     0
 10
551.75181664418665
 20
4.0000045037575616
 30
0.0
 11
551.75181664418665
 21
98.375004503758106
 31
0.0
  0
LINE
  5
573
  8
0
 62
     0
 10
550.25181664418665
 20
4.0000045037575456
 30
0.0
 11
550.25181664418665
 21
98.375004503758092
 31
0.0
  0
LINE
  5
574
  8
0
 62
     0
 10
548.75181664418665
 20
4.0000045037575296
 30
0.0
 11
548.75181664418665
 21
98.375004503758078
 31
0.0
  0
LINE
  5
575
  8
0
 62
     0
 10
547.25181664418665
 20
4.0000045037575136
 30
0.0
 11
547.25181664418665
 21
98.375004503758063
 31
0.0
  0
LINE
  5
576
  8
0
 62
     0
 10
545.75181664418665
 20
4.0000045037574976
 30
0.0
 11
545.75181664418665
 21
98.375004503758035
 31
0.0
  0
LINE
  5
577
  8
0
 62
     0
 10
544.25181664418665
 20
4.0000045037574816
 30
0.0
 11
544.25181664418665
 21
98.375004503758021
 31
0.0
  0
LINE
  5
578
  8
0
 62
     0
 10
542.75181664418665
 20
4.0000045037574656
 30
0.0
 11
542.75181664418665
 21
98.375004503758007
 31
0.0
  0
LINE
  5
579
  8
0
 62
     0
 10
514.25181664418665
 20
4.0000045037571841
 30
0.0
 11
514.25181664418665
 21
98.375004503757694
 31
0.0
  0
LINE
  5
57A
  8
0
 62
     0
 10
512.75181664418665
 20
4.0000045037571681
 30
0.0
 11
512.75181664418665
 21
98.375004503757694
 31
0.0
  0
LINE
  5
57B
  8
0
 62
     0
 10
511.25181664418659
 20
4.0000045037571521
 30
0.0
 11
511.25181664418659
 21
98.375004503757694
 31
0.0
  0
LINE
  5
57C
  8
0
 62
     0
 10
509.75181664418659
 20
4.0000045037571361
 30
0.0
 11
509.75181664418659
 21
98.375004503757665
 31
0.0
  0
LINE
  5
57D
  8
0
 62
     0
 10
508.25181664418659
 20
4.0000045037571201
 30
0.0
 11
508.25181664418659
 21
98.375004503757651
 31
0.0
  0
LINE
  5
57E
  8
0
 62
     0
 10
506.75181664418659
 20
4.0000045037571041
 30
0.0
 11
506.75181664418659
 21
98.375004503757637
 31
0.0
  0
LINE
  5
57F
  8
0
 62
     0
 10
505.25181664418659
 20
4.0000045037570882
 30
0.0
 11
505.25181664418659
 21
98.375004503757609
 31
0.0
  0
LINE
  5
580
  8
0
 62
     0
 10
503.75181664418659
 20
4.0000045037570722
 30
0.0
 11
503.75181664418659
 21
98.375004503757594
 31
0.0
  0
LINE
  5
581
  8
0
 62
     0
 10
502.25181664418659
 20
4.0000045037570562
 30
0.0
 11
502.25181664418659
 21
98.37500450375758
 31
0.0
  0
LINE
  5
582
  8
0
 62
     0
 10
500.75181664418659
 20
4.0000045037570402
 30
0.0
 11
500.75181664418659
 21
98.375004503757566
 31
0.0
  0
LINE
  5
583
  8
0
 62
     0
 10
472.25181664418659
 20
4.0000045037567311
 30
0.0
 11
472.25181664418659
 21
98.375004503757282
 31
0.0
  0
LINE
  5
584
  8
0
 62
     0
 10
470.75181664418659
 20
4.000004503756716
 30
0.0
 11
470.75181664418659
 21
98.375004503757253
 31
0.0
  0
LINE
  5
585
  8
0
 62
     0
 10
469.25181664418659
 20
4.0000045037567009
 30
0.0
 11
469.25181664418659
 21
98.375004503757239
 31
0.0
  0
LINE
  5
586
  8
0
 62
     0
 10
467.75181664418659
 20
4.0000045037566867
 30
0.0
 11
467.75181664418659
 21
98.375004503757225
 31
0.0
  0
LINE
  5
587
  8
0
 62
     0
 10
466.25181664418659
 20
4.0000045037566716
 30
0.0
 11
466.25181664418659
 21
98.375004503757211
 31
0.0
  0
LINE
  5
588
  8
0
 62
     0
 10
464.75181664418659
 20
4.0000045037566583
 30
0.0
 11
464.75181664418659
 21
98.375004503757197
 31
0.0
  0
LINE
  5
589
  8
0
 62
     0
 10
463.25181664418659
 20
4.0000045037566441
 30
0.0
 11
463.25181664418659
 21
98.375004503757168
 31
0.0
  0
LINE
  5
58A
  8
0
 62
     0
 10
461.75181664418659
 20
4.0000045037566281
 30
0.0
 11
461.75181664418659
 21
98.375004503757154
 31
0.0
  0
LINE
  5
58B
  8
0
 62
     0
 10
460.25181664418659
 20
4.0000045037566139
 30
0.0
 11
460.25181664418659
 21
98.375004503757125
 31
0.0
  0
LINE
  5
58C
  8
0
 62
     0
 10
541.39390142657339
 20
4.5
 30
0.0
 11
557.41041548049839
 21
4.5
 31
0.0
  0
LINE
  5
58D
  8
0
 62
     0
 10
499.40141582582692
 20
4.5
 30
0.0
 11
515.39863779700022
 21
4.5
 31
0.0
  0
LINE
  5
58E
  8
0
 62
     0
 10
583.39343114259589
 20
4.5
 30
0.0
 11
596.65141582582714
 21
4.5
 31
0.0
  0
LINE
  5
58F
  8
0
 62
     0
 10
460.15141582582709
 20
4.5
 30
0.0
 11
473.40141582582589
 21
4.5
 31
0.0
  0
LINE
  5
590
  8
0
 62
     0
 10
541.39390142657339
 20
6.0
 30
0.0
 11
557.41041548049839
 21
6.0
 31
0.0
  0
LINE
  5
591
  8
0
 62
     0
 10
499.40141582582692
 20
6.0
 30
0.0
 11
515.39863779700022
 21
6.0
 31
0.0
  0
LINE
  5
592
  8
0
 62
     0
 10
583.39343114259589
 20
6.0
 30
0.0
 11
596.65141582582714
 21
6.0
 31
0.0
  0
LINE
  5
593
  8
0
 62
     0
 10
460.15141582582709
 20
6.0
 30
0.0
 11
473.40141582582589
 21
6.0
 31
0.0
  0
LINE
  5
594
  8
0
 62
     0
 10
541.39390142657339
 20
7.5
 30
0.0
 11
557.41041548049839
 21
7.5
 31
0.0
  0
LINE
  5
595
  8
0
 62
     0
 10
499.40141582582692
 20
7.5
 30
0.0
 11
515.39863779700022
 21
7.5
 31
0.0
  0
LINE
  5
596
  8
0
 62
     0
 10
583.39343114259589
 20
7.5
 30
0.0
 11
596.65141582582714
 21
7.5
 31
0.0
  0
LINE
  5
597
  8
0
 62
     0
 10
460.15141582582709
 20
7.5
 30
0.0
 11
473.40141582582589
 21
7.5
 31
0.0
  0
LINE
  5
598
  8
0
 62
     0
 10
541.39390142657339
 20
9.0
 30
0.0
 11
557.41041548049839
 21
9.0
 31
0.0
  0
LINE
  5
599
  8
0
 62
     0
 10
499.40141582582692
 20
9.0
 30
0.0
 11
515.39863779700022
 21
9.0
 31
0.0
  0
LINE
  5
59A
  8
0
 62
     0
 10
583.39343114259589
 20
9.0
 30
0.0
 11
596.65141582582714
 21
9.0
 31
0.0
  0
LINE
  5
59B
  8
0
 62
     0
 10
460.15141582582709
 20
9.0
 30
0.0
 11
473.40141582582589
 21
9.0
 31
0.0
  0
LINE
  5
59C
  8
0
 62
     0
 10
541.39390142657339
 20
10.5
 30
0.0
 11
557.41041548049839
 21
10.5
 31
0.0
  0
LINE
  5
59D
  8
0
 62
     0
 10
499.40141582582692
 20
10.5
 30
0.0
 11
515.39863779700022
 21
10.5
 31
0.0
  0
LINE
  5
59E
  8
0
 62
     0
 10
583.39343114259589
 20
10.5
 30
0.0
 11
596.65141582582703
 21
10.5
 31
0.0
  0
LINE
  5
59F
  8
0
 62
     0
 10
460.15141582582709
 20
10.5
 30
0.0
 11
473.40141582582589
 21
10.5
 31
0.0
  0
LINE
  5
5A0
  8
0
 62
     0
 10
541.39390142657339
 20
12.0
 30
0.0
 11
557.41041548049839
 21
12.0
 31
0.0
  0
LINE
  5
5A1
  8
0
 62
     0
 10
499.40141582582692
 20
12.0
 30
0.0
 11
515.39863779700022
 21
12.0
 31
0.0
  0
LINE
  5
5A2
  8
0
 62
     0
 10
583.39343114259589
 20
12.0
 30
0.0
 11
596.65141582582703
 21
12.0
 31
0.0
  0
LINE
  5
5A3
  8
0
 62
     0
 10
460.15141582582709
 20
12.0
 30
0.0
 11
473.40141582582589
 21
12.0
 31
0.0
  0
LINE
  5
5A4
  8
0
 62
     0
 10
541.39390142657339
 20
13.5
 30
0.0
 11
557.41041548049839
 21
13.5
 31
0.0
  0
LINE
  5
5A5
  8
0
 62
     0
 10
499.40141582582692
 20
13.5
 30
0.0
 11
515.39863779700022
 21
13.5
 31
0.0
  0
LINE
  5
5A6
  8
0
 62
     0
 10
583.39343114259589
 20
13.5
 30
0.0
 11
596.65141582582703
 21
13.5
 31
0.0
  0
LINE
  5
5A7
  8
0
 62
     0
 10
460.15141582582697
 20
13.5
 30
0.0
 11
473.40141582582589
 21
13.5
 31
0.0
  0
LINE
  5
5A8
  8
0
 62
     0
 10
541.39390142657339
 20
15.0
 30
0.0
 11
557.41041548049839
 21
15.0
 31
0.0
  0
LINE
  5
5A9
  8
0
 62
     0
 10
499.40141582582692
 20
15.0
 30
0.0
 11
515.39863779700022
 21
15.0
 31
0.0
  0
LINE
  5
5AA
  8
0
 62
     0
 10
583.39343114259589
 20
15.0
 30
0.0
 11
596.65141582582703
 21
15.0
 31
0.0
  0
LINE
  5
5AB
  8
0
 62
     0
 10
460.15141582582697
 20
15.0
 30
0.0
 11
473.40141582582589
 21
15.0
 31
0.0
  0
LINE
  5
5AC
  8
0
 62
     0
 10
541.39390142657339
 20
16.5
 30
0.0
 11
557.41041548049839
 21
16.5
 31
0.0
  0
LINE
  5
5AD
  8
0
 62
     0
 10
499.40141582582692
 20
16.5
 30
0.0
 11
515.39863779700022
 21
16.5
 31
0.0
  0
LINE
  5
5AE
  8
0
 62
     0
 10
583.39343114259589
 20
16.5
 30
0.0
 11
596.65141582582703
 21
16.5
 31
0.0
  0
LINE
  5
5AF
  8
0
 62
     0
 10
460.15141582582697
 20
16.5
 30
0.0
 11
473.40141582582589
 21
16.5
 31
0.0
  0
LINE
  5
5B0
  8
0
 62
     0
 10
541.39390142657339
 20
18.0
 30
0.0
 11
557.41041548049839
 21
18.0
 31
0.0
  0
LINE
  5
5B1
  8
0
 62
     0
 10
499.40141582582692
 20
18.0
 30
0.0
 11
515.39863779700022
 21
18.0
 31
0.0
  0
LINE
  5
5B2
  8
0
 62
     0
 10
583.39343114259589
 20
18.0
 30
0.0
 11
596.65141582582703
 21
18.0
 31
0.0
  0
LINE
  5
5B3
  8
0
 62
     0
 10
460.15141582582697
 20
18.0
 30
0.0
 11
473.40141582582589
 21
18.0
 31
0.0
  0
LINE
  5
5B4
  8
0
 62
     0
 10
541.39390142657339
 20
19.5
 30
0.0
 11
557.41041548049839
 21
19.5
 31
0.0
  0
LINE
  5
5B5
  8
0
 62
     0
 10
499.40141582582692
 20
19.5
 30
0.0
 11
515.39863779700022
 21
19.5
 31
0.0
  0
LINE
  5
5B6
  8
0
 62
     0
 10
583.39343114259589
 20
19.5
 30
0.0
 11
596.65141582582703
 21
19.5
 31
0.0
  0
LINE
  5
5B7
  8
0
 62
     0
 10
460.15141582582692
 20
19.5
 30
0.0
 11
473.40141582582589
 21
19.5
 31
0.0
  0
LINE
  5
5B8
  8
0
 62
     0
 10
541.39390142657339
 20
21.0
 30
0.0
 11
557.41041548049839
 21
21.0
 31
0.0
  0
LINE
  5
5B9
  8
0
 62
     0
 10
499.40141582582692
 20
21.0
 30
0.0
 11
515.39863779700022
 21
21.0
 31
0.0
  0
LINE
  5
5BA
  8
0
 62
     0
 10
583.39343114259589
 20
21.0
 30
0.0
 11
596.65141582582703
 21
21.0
 31
0.0
  0
LINE
  5
5BB
  8
0
 62
     0
 10
460.15141582582692
 20
21.0
 30
0.0
 11
473.40141582582589
 21
21.0
 31
0.0
  0
LINE
  5
5BC
  8
0
 62
     0
 10
541.39390142657339
 20
22.5
 30
0.0
 11
557.41041548049839
 21
22.5
 31
0.0
  0
LINE
  5
5BD
  8
0
 62
     0
 10
499.40141582582692
 20
22.5
 30
0.0
 11
515.39863779700022
 21
22.5
 31
0.0
  0
LINE
  5
5BE
  8
0
 62
     0
 10
583.39343114259589
 20
22.5
 30
0.0
 11
596.65141582582692
 21
22.5
 31
0.0
  0
LINE
  5
5BF
  8
0
 62
     0
 10
460.15141582582692
 20
22.5
 30
0.0
 11
473.40141582582589
 21
22.5
 31
0.0
  0
LINE
  5
5C0
  8
0
 62
     0
 10
541.39390142657339
 20
24.0
 30
0.0
 11
557.41041548049839
 21
24.0
 31
0.0
  0
LINE
  5
5C1
  8
0
 62
     0
 10
499.40141582582692
 20
24.0
 30
0.0
 11
515.39863779700022
 21
24.0
 31
0.0
  0
LINE
  5
5C2
  8
0
 62
     0
 10
583.39343114259589
 20
24.0
 30
0.0
 11
596.65141582582692
 21
24.0
 31
0.0
  0
LINE
  5
5C3
  8
0
 62
     0
 10
460.15141582582692
 20
24.0
 30
0.0
 11
473.40141582582589
 21
24.0
 31
0.0
  0
LINE
  5
5C4
  8
0
 62
     0
 10
541.39390142657339
 20
25.5
 30
0.0
 11
557.41041548049839
 21
25.5
 31
0.0
  0
LINE
  5
5C5
  8
0
 62
     0
 10
499.40141582582692
 20
25.5
 30
0.0
 11
515.39863779700022
 21
25.5
 31
0.0
  0
LINE
  5
5C6
  8
0
 62
     0
 10
583.39343114259589
 20
25.5
 30
0.0
 11
596.65141582582692
 21
25.5
 31
0.0
  0
LINE
  5
5C7
  8
0
 62
     0
 10
460.15141582582692
 20
25.5
 30
0.0
 11
473.40141582582589
 21
25.5
 31
0.0
  0
LINE
  5
5C8
  8
0
 62
     0
 10
541.39390142657339
 20
27.0
 30
0.0
 11
557.41041548049839
 21
27.0
 31
0.0
  0
LINE
  5
5C9
  8
0
 62
     0
 10
499.40141582582692
 20
27.0
 30
0.0
 11
515.39863779700022
 21
27.0
 31
0.0
  0
LINE
  5
5CA
  8
0
 62
     0
 10
583.39343114259589
 20
27.0
 30
0.0
 11
596.65141582582692
 21
27.0
 31
0.0
  0
LINE
  5
5CB
  8
0
 62
     0
 10
460.15141582582692
 20
27.0
 30
0.0
 11
473.40141582582589
 21
27.0
 31
0.0
  0
LINE
  5
5CC
  8
0
 62
     0
 10
541.39390142657339
 20
28.5
 30
0.0
 11
557.41041548049839
 21
28.5
 31
0.0
  0
LINE
  5
5CD
  8
0
 62
     0
 10
499.40141582582692
 20
28.5
 30
0.0
 11
515.39863779700022
 21
28.5
 31
0.0
  0
LINE
  5
5CE
  8
0
 62
     0
 10
583.39343114259589
 20
28.5
 30
0.0
 11
596.65141582582692
 21
28.5
 31
0.0
  0
LINE
  5
5CF
  8
0
 62
     0
 10
460.15141582582692
 20
28.5
 30
0.0
 11
473.40141582582589
 21
28.5
 31
0.0
  0
LINE
  5
5D0
  8
0
 62
     0
 10
541.39390142657339
 20
30.0
 30
0.0
 11
557.41041548049839
 21
30.0
 31
0.0
  0
LINE
  5
5D1
  8
0
 62
     0
 10
499.40141582582692
 20
30.0
 30
0.0
 11
515.39863779700022
 21
30.0
 31
0.0
  0
LINE
  5
5D2
  8
0
 62
     0
 10
583.39343114259589
 20
30.0
 30
0.0
 11
596.65141582582692
 21
30.0
 31
0.0
  0
LINE
  5
5D3
  8
0
 62
     0
 10
460.15141582582692
 20
30.0
 30
0.0
 11
473.40141582582589
 21
30.0
 31
0.0
  0
LINE
  5
5D4
  8
0
 62
     0
 10
541.39390142657339
 20
31.5
 30
0.0
 11
557.41041548049839
 21
31.5
 31
0.0
  0
LINE
  5
5D5
  8
0
 62
     0
 10
499.40141582582692
 20
31.5
 30
0.0
 11
515.39863779700022
 21
31.5
 31
0.0
  0
LINE
  5
5D6
  8
0
 62
     0
 10
583.39343114259589
 20
31.5
 30
0.0
 11
596.65141582582692
 21
31.5
 31
0.0
  0
LINE
  5
5D7
  8
0
 62
     0
 10
460.1514158258268
 20
31.5
 30
0.0
 11
473.40141582582589
 21
31.5
 31
0.0
  0
LINE
  5
5D8
  8
0
 62
     0
 10
541.39390142657339
 20
33.0
 30
0.0
 11
557.41041548049839
 21
33.0
 31
0.0
  0
LINE
  5
5D9
  8
0
 62
     0
 10
499.40141582582692
 20
33.0
 30
0.0
 11
515.39863779700022
 21
33.0
 31
0.0
  0
LINE
  5
5DA
  8
0
 62
     0
 10
583.39343114259589
 20
33.0
 30
0.0
 11
596.65141582582692
 21
33.0
 31
0.0
  0
LINE
  5
5DB
  8
0
 62
     0
 10
460.1514158258268
 20
33.0
 30
0.0
 11
473.40141582582589
 21
33.0
 31
0.0
  0
LINE
  5
5DC
  8
0
 62
     0
 10
541.39390142657339
 20
34.5
 30
0.0
 11
557.41041548049839
 21
34.5
 31
0.0
  0
LINE
  5
5DD
  8
0
 62
     0
 10
499.40141582582692
 20
34.5
 30
0.0
 11
515.39863779700022
 21
34.5
 31
0.0
  0
LINE
  5
5DE
  8
0
 62
     0
 10
583.39343114259589
 20
34.5
 30
0.0
 11
596.65141582582669
 21
34.5
 31
0.0
  0
LINE
  5
5DF
  8
0
 62
     0
 10
460.1514158258268
 20
34.5
 30
0.0
 11
473.40141582582589
 21
34.5
 31
0.0
  0
LINE
  5
5E0
  8
0
 62
     0
 10
541.39390142657339
 20
36.0
 30
0.0
 11
557.41041548049839
 21
36.0
 31
0.0
  0
LINE
  5
5E1
  8
0
 62
     0
 10
499.40141582582692
 20
36.0
 30
0.0
 11
515.39863779700022
 21
36.0
 31
0.0
  0
LINE
  5
5E2
  8
0
 62
     0
 10
583.39343114259589
 20
36.0
 30
0.0
 11
596.65141582582669
 21
36.0
 31
0.0
  0
LINE
  5
5E3
  8
0
 62
     0
 10
460.1514158258268
 20
36.0
 30
0.0
 11
473.40141582582589
 21
36.0
 31
0.0
  0
LINE
  5
5E4
  8
0
 62
     0
 10
541.39390142657339
 20
37.5
 30
0.0
 11
557.41041548049839
 21
37.5
 31
0.0
  0
LINE
  5
5E5
  8
0
 62
     0
 10
499.40141582582692
 20
37.5
 30
0.0
 11
515.39863779700022
 21
37.5
 31
0.0
  0
LINE
  5
5E6
  8
0
 62
     0
 10
583.39343114259589
 20
37.5
 30
0.0
 11
596.65141582582669
 21
37.5
 31
0.0
  0
LINE
  5
5E7
  8
0
 62
     0
 10
460.15141582582669
 20
37.5
 30
0.0
 11
473.40141582582589
 21
37.5
 31
0.0
  0
LINE
  5
5E8
  8
0
 62
     0
 10
541.39390142657339
 20
39.0
 30
0.0
 11
557.41041548049839
 21
39.0
 31
0.0
  0
LINE
  5
5E9
  8
0
 62
     0
 10
499.40141582582692
 20
39.0
 30
0.0
 11
515.39863779700022
 21
39.0
 31
0.0
  0
LINE
  5
5EA
  8
0
 62
     0
 10
583.39343114259589
 20
39.0
 30
0.0
 11
596.65141582582669
 21
39.0
 31
0.0
  0
LINE
  5
5EB
  8
0
 62
     0
 10
460.15141582582669
 20
39.0
 30
0.0
 11
473.40141582582589
 21
39.0
 31
0.0
  0
LINE
  5
5EC
  8
0
 62
     0
 10
541.39390142657339
 20
40.499999999999993
 30
0.0
 11
557.41041548049839
 21
40.499999999999993
 31
0.0
  0
LINE
  5
5ED
  8
0
 62
     0
 10
499.40141582582692
 20
40.499999999999993
 30
0.0
 11
515.39863779700022
 21
40.499999999999993
 31
0.0
  0
LINE
  5
5EE
  8
0
 62
     0
 10
583.39343114259589
 20
40.499999999999993
 30
0.0
 11
596.65141582582669
 21
40.499999999999993
 31
0.0
  0
LINE
  5
5EF
  8
0
 62
     0
 10
460.15141582582669
 20
40.499999999999993
 30
0.0
 11
473.40141582582589
 21
40.499999999999993
 31
0.0
  0
LINE
  5
5F0
  8
0
 62
     0
 10
541.39390142657339
 20
42.0
 30
0.0
 11
557.41041548049839
 21
42.0
 31
0.0
  0
LINE
  5
5F1
  8
0
 62
     0
 10
499.40141582582692
 20
42.0
 30
0.0
 11
515.39863779700022
 21
42.0
 31
0.0
  0
LINE
  5
5F2
  8
0
 62
     0
 10
583.39343114259589
 20
42.0
 30
0.0
 11
596.65141582582669
 21
42.0
 31
0.0
  0
LINE
  5
5F3
  8
0
 62
     0
 10
460.15141582582669
 20
42.0
 30
0.0
 11
473.40141582582589
 21
42.0
 31
0.0
  0
LINE
  5
5F4
  8
0
 62
     0
 10
541.39390142657339
 20
43.5
 30
0.0
 11
557.41041548049839
 21
43.5
 31
0.0
  0
LINE
  5
5F5
  8
0
 62
     0
 10
499.40141582582692
 20
43.5
 30
0.0
 11
515.39863779700022
 21
43.5
 31
0.0
  0
LINE
  5
5F6
  8
0
 62
     0
 10
583.39343114259589
 20
43.5
 30
0.0
 11
596.65141582582669
 21
43.5
 31
0.0
  0
LINE
  5
5F7
  8
0
 62
     0
 10
460.15141582582669
 20
43.5
 30
0.0
 11
473.40141582582589
 21
43.5
 31
0.0
  0
LINE
  5
5F8
  8
0
 62
     0
 10
541.39390142657339
 20
45.0
 30
0.0
 11
557.41041548049839
 21
45.0
 31
0.0
  0
LINE
  5
5F9
  8
0
 62
     0
 10
499.40141582582692
 20
45.0
 30
0.0
 11
515.39863779700022
 21
45.0
 31
0.0
  0
LINE
  5
5FA
  8
0
 62
     0
 10
583.39343114259589
 20
45.0
 30
0.0
 11
596.65141582582669
 21
45.0
 31
0.0
  0
LINE
  5
5FB
  8
0
 62
     0
 10
460.15141582582669
 20
45.0
 30
0.0
 11
473.40141582582589
 21
45.0
 31
0.0
  0
LINE
  5
5FC
  8
0
 62
     0
 10
541.39390142657339
 20
46.5
 30
0.0
 11
557.41041548049839
 21
46.5
 31
0.0
  0
LINE
  5
5FD
  8
0
 62
     0
 10
499.40141582582692
 20
46.5
 30
0.0
 11
515.39863779700022
 21
46.5
 31
0.0
  0
LINE
  5
5FE
  8
0
 62
     0
 10
583.39343114259589
 20
46.5
 30
0.0
 11
596.65141582582669
 21
46.5
 31
0.0
  0
LINE
  5
5FF
  8
0
 62
     0
 10
460.15141582582669
 20
46.5
 30
0.0
 11
473.40141582582589
 21
46.5
 31
0.0
  0
LINE
  5
600
  8
0
 62
     0
 10
541.39390142657339
 20
48.0
 30
0.0
 11
557.41041548049839
 21
48.0
 31
0.0
  0
LINE
  5
601
  8
0
 62
     0
 10
499.40141582582692
 20
48.0
 30
0.0
 11
515.39863779700022
 21
48.0
 31
0.0
  0
LINE
  5
602
  8
0
 62
     0
 10
583.39343114259589
 20
48.0
 30
0.0
 11
596.65141582582669
 21
48.0
 31
0.0
  0
LINE
  5
603
  8
0
 62
     0
 10
460.15141582582669
 20
48.0
 30
0.0
 11
473.40141582582589
 21
48.0
 31
0.0
  0
LINE
  5
604
  8
0
 62
     0
 10
541.39390142657339
 20
49.5
 30
0.0
 11
557.41041548049839
 21
49.5
 31
0.0
  0
LINE
  5
605
  8
0
 62
     0
 10
499.40141582582692
 20
49.5
 30
0.0
 11
515.39863779700022
 21
49.5
 31
0.0
  0
LINE
  5
606
  8
0
 62
     0
 10
583.39343114259589
 20
49.5
 30
0.0
 11
596.65141582582669
 21
49.5
 31
0.0
  0
LINE
  5
607
  8
0
 62
     0
 10
460.15141582582658
 20
49.5
 30
0.0
 11
473.40141582582589
 21
49.5
 31
0.0
  0
LINE
  5
608
  8
0
 62
     0
 10
541.39390142657339
 20
51.0
 30
0.0
 11
557.41041548049839
 21
51.0
 31
0.0
  0
LINE
  5
609
  8
0
 62
     0
 10
499.40141582582692
 20
51.0
 30
0.0
 11
515.39863779700022
 21
51.0
 31
0.0
  0
LINE
  5
60A
  8
0
 62
     0
 10
583.39343114259589
 20
51.0
 30
0.0
 11
596.65141582582669
 21
51.0
 31
0.0
  0
LINE
  5
60B
  8
0
 62
     0
 10
460.15141582582658
 20
51.0
 30
0.0
 11
473.40141582582589
 21
51.0
 31
0.0
  0
LINE
  5
60C
  8
0
 62
     0
 10
541.39390142657339
 20
52.5
 30
0.0
 11
557.41041548049839
 21
52.5
 31
0.0
  0
LINE
  5
60D
  8
0
 62
     0
 10
499.40141582582692
 20
52.5
 30
0.0
 11
515.39863779700022
 21
52.5
 31
0.0
  0
LINE
  5
60E
  8
0
 62
     0
 10
583.39343114259589
 20
52.5
 30
0.0
 11
596.65141582582669
 21
52.5
 31
0.0
  0
LINE
  5
60F
  8
0
 62
     0
 10
460.15141582582658
 20
52.5
 30
0.0
 11
473.40141582582589
 21
52.5
 31
0.0
  0
LINE
  5
610
  8
0
 62
     0
 10
541.39390142657339
 20
54.0
 30
0.0
 11
557.41041548049839
 21
54.0
 31
0.0
  0
LINE
  5
611
  8
0
 62
     0
 10
499.40141582582692
 20
54.0
 30
0.0
 11
515.39863779700022
 21
54.0
 31
0.0
  0
LINE
  5
612
  8
0
 62
     0
 10
583.39343114259589
 20
54.0
 30
0.0
 11
596.65141582582669
 21
54.0
 31
0.0
  0
LINE
  5
613
  8
0
 62
     0
 10
460.15141582582658
 20
54.0
 30
0.0
 11
473.40141582582589
 21
54.0
 31
0.0
  0
LINE
  5
614
  8
0
 62
     0
 10
541.39390142657339
 20
55.5
 30
0.0
 11
557.41041548049839
 21
55.5
 31
0.0
  0
LINE
  5
615
  8
0
 62
     0
 10
499.40141582582692
 20
55.5
 30
0.0
 11
515.39863779700022
 21
55.5
 31
0.0
  0
LINE
  5
616
  8
0
 62
     0
 10
583.39343114259589
 20
55.5
 30
0.0
 11
596.65141582582669
 21
55.5
 31
0.0
  0
LINE
  5
617
  8
0
 62
     0
 10
460.15141582582658
 20
55.5
 30
0.0
 11
473.40141582582589
 21
55.5
 31
0.0
  0
LINE
  5
618
  8
0
 62
     0
 10
541.39390142657339
 20
57.0
 30
0.0
 11
557.41041548049839
 21
57.0
 31
0.0
  0
LINE
  5
619
  8
0
 62
     0
 10
499.40141582582692
 20
57.0
 30
0.0
 11
515.39863779700022
 21
57.0
 31
0.0
  0
LINE
  5
61A
  8
0
 62
     0
 10
583.39343114259589
 20
57.0
 30
0.0
 11
596.65141582582669
 21
57.0
 31
0.0
  0
LINE
  5
61B
  8
0
 62
     0
 10
460.15141582582658
 20
57.0
 30
0.0
 11
473.40141582582589
 21
57.0
 31
0.0
  0
LINE
  5
61C
  8
0
 62
     0
 10
541.39390142657339
 20
58.5
 30
0.0
 11
557.41041548049839
 21
58.5
 31
0.0
  0
LINE
  5
61D
  8
0
 62
     0
 10
499.40141582582692
 20
58.5
 30
0.0
 11
515.39863779700022
 21
58.5
 31
0.0
  0
LINE
  5
61E
  8
0
 62
     0
 10
583.39343114259589
 20
58.5
 30
0.0
 11
596.65141582582658
 21
58.5
 31
0.0
  0
LINE
  5
61F
  8
0
 62
     0
 10
460.15141582582658
 20
58.5
 30
0.0
 11
473.40141582582589
 21
58.5
 31
0.0
  0
LINE
  5
620
  8
0
 62
     0
 10
541.39390142657339
 20
60.0
 30
0.0
 11
557.41041548049839
 21
60.0
 31
0.0
  0
LINE
  5
621
  8
0
 62
     0
 10
499.40141582582692
 20
60.0
 30
0.0
 11
515.39863779700022
 21
60.0
 31
0.0
  0
LINE
  5
622
  8
0
 62
     0
 10
583.39343114259589
 20
60.0
 30
0.0
 11
596.65141582582658
 21
60.0
 31
0.0
  0
LINE
  5
623
  8
0
 62
     0
 10
460.15141582582658
 20
60.0
 30
0.0
 11
473.40141582582589
 21
60.0
 31
0.0
  0
LINE
  5
624
  8
0
 62
     0
 10
541.39390142657339
 20
61.5
 30
0.0
 11
557.41041548049839
 21
61.5
 31
0.0
  0
LINE
  5
625
  8
0
 62
     0
 10
499.40141582582692
 20
61.5
 30
0.0
 11
515.39863779700022
 21
61.5
 31
0.0
  0
LINE
  5
626
  8
0
 62
     0
 10
583.39343114259589
 20
61.5
 30
0.0
 11
596.65141582582658
 21
61.5
 31
0.0
  0
LINE
  5
627
  8
0
 62
     0
 10
460.15141582582652
 20
61.5
 30
0.0
 11
473.40141582582589
 21
61.5
 31
0.0
  0
LINE
  5
628
  8
0
 62
     0
 10
541.39390142657339
 20
63.0
 30
0.0
 11
557.41041548049839
 21
63.0
 31
0.0
  0
LINE
  5
629
  8
0
 62
     0
 10
499.40141582582692
 20
63.0
 30
0.0
 11
515.39863779700022
 21
63.0
 31
0.0
  0
LINE
  5
62A
  8
0
 62
     0
 10
583.39343114259589
 20
63.0
 30
0.0
 11
596.65141582582658
 21
63.0
 31
0.0
  0
LINE
  5
62B
  8
0
 62
     0
 10
460.15141582582652
 20
63.0
 30
0.0
 11
473.40141582582589
 21
63.0
 31
0.0
  0
LINE
  5
62C
  8
0
 62
     0
 10
541.39390142657339
 20
64.5
 30
0.0
 11
557.41041548049839
 21
64.5
 31
0.0
  0
LINE
  5
62D
  8
0
 62
     0
 10
499.40141582582692
 20
64.5
 30
0.0
 11
515.39863779700022
 21
64.5
 31
0.0
  0
LINE
  5
62E
  8
0
 62
     0
 10
583.39343114259589
 20
64.5
 30
0.0
 11
596.65141582582658
 21
64.5
 31
0.0
  0
LINE
  5
62F
  8
0
 62
     0
 10
460.15141582582652
 20
64.5
 30
0.0
 11
473.40141582582589
 21
64.5
 31
0.0
  0
LINE
  5
630
  8
0
 62
     0
 10
541.39390142657339
 20
66.0
 30
0.0
 11
557.41041548049839
 21
66.0
 31
0.0
  0
LINE
  5
631
  8
0
 62
     0
 10
499.40141582582692
 20
66.0
 30
0.0
 11
515.39863779700022
 21
66.0
 31
0.0
  0
LINE
  5
632
  8
0
 62
     0
 10
583.39343114259589
 20
66.0
 30
0.0
 11
596.65141582582658
 21
66.0
 31
0.0
  0
LINE
  5
633
  8
0
 62
     0
 10
460.15141582582652
 20
66.0
 30
0.0
 11
473.40141582582589
 21
66.0
 31
0.0
  0
LINE
  5
634
  8
0
 62
     0
 10
541.39390142657339
 20
67.5
 30
0.0
 11
557.41041548049839
 21
67.5
 31
0.0
  0
LINE
  5
635
  8
0
 62
     0
 10
499.40141582582692
 20
67.5
 30
0.0
 11
515.39863779700022
 21
67.5
 31
0.0
  0
LINE
  5
636
  8
0
 62
     0
 10
583.39343114259589
 20
67.5
 30
0.0
 11
596.65141582582658
 21
67.5
 31
0.0
  0
LINE
  5
637
  8
0
 62
     0
 10
460.15141582582652
 20
67.5
 30
0.0
 11
473.40141582582589
 21
67.5
 31
0.0
  0
LINE
  5
638
  8
0
 62
     0
 10
541.39390142657339
 20
69.0
 30
0.0
 11
557.41041548049839
 21
69.0
 31
0.0
  0
LINE
  5
639
  8
0
 62
     0
 10
499.40141582582692
 20
69.0
 30
0.0
 11
515.39863779700022
 21
69.0
 31
0.0
  0
LINE
  5
63A
  8
0
 62
     0
 10
583.39343114259589
 20
69.0
 30
0.0
 11
596.65141582582635
 21
69.0
 31
0.0
  0
LINE
  5
63B
  8
0
 62
     0
 10
460.15141582582652
 20
69.0
 30
0.0
 11
473.40141582582589
 21
69.0
 31
0.0
  0
LINE
  5
63C
  8
0
 62
     0
 10
541.39390142657339
 20
70.5
 30
0.0
 11
557.41041548049839
 21
70.5
 31
0.0
  0
LINE
  5
63D
  8
0
 62
     0
 10
499.40141582582692
 20
70.5
 30
0.0
 11
515.39863779700022
 21
70.5
 31
0.0
  0
LINE
  5
63E
  8
0
 62
     0
 10
583.39343114259589
 20
70.5
 30
0.0
 11
596.65141582582635
 21
70.5
 31
0.0
  0
LINE
  5
63F
  8
0
 62
     0
 10
460.15141582582652
 20
70.5
 30
0.0
 11
473.40141582582589
 21
70.5
 31
0.0
  0
LINE
  5
640
  8
0
 62
     0
 10
541.39390142657339
 20
72.0
 30
0.0
 11
557.41041548049839
 21
72.0
 31
0.0
  0
LINE
  5
641
  8
0
 62
     0
 10
499.40141582582692
 20
72.0
 30
0.0
 11
515.39863779700022
 21
72.0
 31
0.0
  0
LINE
  5
642
  8
0
 62
     0
 10
583.39343114259589
 20
72.0
 30
0.0
 11
596.65141582582635
 21
72.0
 31
0.0
  0
LINE
  5
643
  8
0
 62
     0
 10
460.15141582582652
 20
72.0
 30
0.0
 11
473.40141582582589
 21
72.0
 31
0.0
  0
LINE
  5
644
  8
0
 62
     0
 10
541.39390142657339
 20
73.5
 30
0.0
 11
557.41041548049839
 21
73.5
 31
0.0
  0
LINE
  5
645
  8
0
 62
     0
 10
499.40141582582692
 20
73.5
 30
0.0
 11
515.39863779700022
 21
73.5
 31
0.0
  0
LINE
  5
646
  8
0
 62
     0
 10
583.39343114259589
 20
73.5
 30
0.0
 11
596.65141582582635
 21
73.5
 31
0.0
  0
LINE
  5
647
  8
0
 62
     0
 10
460.15141582582652
 20
73.5
 30
0.0
 11
473.40141582582589
 21
73.5
 31
0.0
  0
LINE
  5
648
  8
0
 62
     0
 10
541.39390142657339
 20
75.0
 30
0.0
 11
557.41041548049839
 21
75.0
 31
0.0
  0
LINE
  5
649
  8
0
 62
     0
 10
499.40141582582692
 20
75.0
 30
0.0
 11
515.39863779700022
 21
75.0
 31
0.0
  0
LINE
  5
64A
  8
0
 62
     0
 10
583.39343114259589
 20
75.0
 30
0.0
 11
596.65141582582635
 21
75.0
 31
0.0
  0
LINE
  5
64B
  8
0
 62
     0
 10
460.15141582582652
 20
75.0
 30
0.0
 11
473.40141582582589
 21
75.0
 31
0.0
  0
LINE
  5
64C
  8
0
 62
     0
 10
541.39390142657339
 20
76.5
 30
0.0
 11
557.41041548049839
 21
76.5
 31
0.0
  0
LINE
  5
64D
  8
0
 62
     0
 10
499.40141582582692
 20
76.5
 30
0.0
 11
515.39863779700022
 21
76.5
 31
0.0
  0
LINE
  5
64E
  8
0
 62
     0
 10
583.39343114259589
 20
76.5
 30
0.0
 11
596.65141582582635
 21
76.5
 31
0.0
  0
LINE
  5
64F
  8
0
 62
     0
 10
460.15141582582652
 20
76.5
 30
0.0
 11
473.40141582582589
 21
76.5
 31
0.0
  0
LINE
  5
650
  8
0
 62
     0
 10
541.39390142657339
 20
78.0
 30
0.0
 11
557.41041548049839
 21
78.0
 31
0.0
  0
LINE
  5
651
  8
0
 62
     0
 10
499.40141582582692
 20
78.0
 30
0.0
 11
515.39863779700022
 21
78.0
 31
0.0
  0
LINE
  5
652
  8
0
 62
     0
 10
583.39343114259589
 20
78.0
 30
0.0
 11
596.65141582582635
 21
78.0
 31
0.0
  0
LINE
  5
653
  8
0
 62
     0
 10
460.1514158258264
 20
78.0
 30
0.0
 11
473.40141582582589
 21
78.0
 31
0.0
  0
LINE
  5
654
  8
0
 62
     0
 10
541.39390142657339
 20
79.5
 30
0.0
 11
557.41041548049839
 21
79.5
 31
0.0
  0
LINE
  5
655
  8
0
 62
     0
 10
499.40141582582692
 20
79.5
 30
0.0
 11
515.39863779700022
 21
79.5
 31
0.0
  0
LINE
  5
656
  8
0
 62
     0
 10
583.39343114259589
 20
79.5
 30
0.0
 11
596.65141582582635
 21
79.5
 31
0.0
  0
LINE
  5
657
  8
0
 62
     0
 10
460.1514158258264
 20
79.5
 30
0.0
 11
473.40141582582589
 21
79.5
 31
0.0
  0
LINE
  5
658
  8
0
 62
     0
 10
541.39390142657339
 20
81.0
 30
0.0
 11
557.41041548049839
 21
81.0
 31
0.0
  0
LINE
  5
659
  8
0
 62
     0
 10
499.40141582582692
 20
81.0
 30
0.0
 11
515.39863779700022
 21
81.0
 31
0.0
  0
LINE
  5
65A
  8
0
 62
     0
 10
583.39343114259589
 20
81.0
 30
0.0
 11
596.65141582582635
 21
81.0
 31
0.0
  0
LINE
  5
65B
  8
0
 62
     0
 10
460.1514158258264
 20
81.0
 30
0.0
 11
473.40141582582589
 21
81.0
 31
0.0
  0
LINE
  5
65C
  8
0
 62
     0
 10
541.39390142657339
 20
82.5
 30
0.0
 11
557.41041548049839
 21
82.5
 31
0.0
  0
LINE
  5
65D
  8
0
 62
     0
 10
499.40141582582692
 20
82.5
 30
0.0
 11
515.39863779700022
 21
82.5
 31
0.0
  0
LINE
  5
65E
  8
0
 62
     0
 10
583.39343114259589
 20
82.5
 30
0.0
 11
596.65141582582635
 21
82.5
 31
0.0
  0
LINE
  5
65F
  8
0
 62
     0
 10
460.1514158258264
 20
82.5
 30
0.0
 11
473.40141582582589
 21
82.5
 31
0.0
  0
LINE
  5
660
  8
0
 62
     0
 10
541.39390142657339
 20
84.0
 30
0.0
 11
557.41041548049839
 21
84.0
 31
0.0
  0
LINE
  5
661
  8
0
 62
     0
 10
499.40141582582692
 20
84.0
 30
0.0
 11
515.39863779700022
 21
84.0
 31
0.0
  0
LINE
  5
662
  8
0
 62
     0
 10
583.39343114259589
 20
84.0
 30
0.0
 11
596.65141582582635
 21
84.0
 31
0.0
  0
LINE
  5
663
  8
0
 62
     0
 10
460.15141582582629
 20
84.0
 30
0.0
 11
473.40141582582589
 21
84.0
 31
0.0
  0
LINE
  5
664
  8
0
 62
     0
 10
541.39390142657339
 20
85.5
 30
0.0
 11
557.41041548049839
 21
85.5
 31
0.0
  0
LINE
  5
665
  8
0
 62
     0
 10
499.40141582582692
 20
85.5
 30
0.0
 11
515.39863779700022
 21
85.5
 31
0.0
  0
LINE
  5
666
  8
0
 62
     0
 10
583.39343114259589
 20
85.5
 30
0.0
 11
596.65141582582635
 21
85.5
 31
0.0
  0
LINE
  5
667
  8
0
 62
     0
 10
460.15141582582629
 20
85.5
 30
0.0
 11
473.40141582582589
 21
85.5
 31
0.0
  0
LINE
  5
668
  8
0
 62
     0
 10
541.39390142657339
 20
87.0
 30
0.0
 11
557.41041548049839
 21
87.0
 31
0.0
  0
LINE
  5
669
  8
0
 62
     0
 10
499.40141582582692
 20
87.0
 30
0.0
 11
515.39863779700022
 21
87.0
 31
0.0
  0
LINE
  5
66A
  8
0
 62
     0
 10
583.39343114259589
 20
87.0
 30
0.0
 11
596.65141582582635
 21
87.0
 31
0.0
  0
LINE
  5
66B
  8
0
 62
     0
 10
460.15141582582629
 20
87.0
 30
0.0
 11
473.40141582582589
 21
87.0
 31
0.0
  0
LINE
  5
66C
  8
0
 62
     0
 10
541.39390142657339
 20
88.499999999999986
 30
0.0
 11
557.41041548049839
 21
88.499999999999986
 31
0.0
  0
LINE
  5
66D
  8
0
 62
     0
 10
499.40141582582692
 20
88.499999999999986
 30
0.0
 11
515.39863779700022
 21
88.499999999999986
 31
0.0
  0
LINE
  5
66E
  8
0
 62
     0
 10
583.39343114259589
 20
88.499999999999986
 30
0.0
 11
596.65141582582635
 21
88.499999999999986
 31
0.0
  0
LINE
  5
66F
  8
0
 62
     0
 10
460.15141582582629
 20
88.499999999999986
 30
0.0
 11
473.40141582582589
 21
88.499999999999986
 31
0.0
  0
LINE
  5
670
  8
0
 62
     0
 10
541.39390142657339
 20
90.0
 30
0.0
 11
557.41041548049839
 21
90.0
 31
0.0
  0
LINE
  5
671
  8
0
 62
     0
 10
499.40141582582692
 20
90.0
 30
0.0
 11
515.39863779700022
 21
90.0
 31
0.0
  0
LINE
  5
672
  8
0
 62
     0
 10
583.39343114259589
 20
90.0
 30
0.0
 11
596.65141582582635
 21
90.0
 31
0.0
  0
LINE
  5
673
  8
0
 62
     0
 10
460.15141582582629
 20
90.0
 30
0.0
 11
473.40141582582589
 21
90.0
 31
0.0
  0
LINE
  5
674
  8
0
 62
     0
 10
541.39390142657339
 20
91.5
 30
0.0
 11
557.41041548049839
 21
91.5
 31
0.0
  0
LINE
  5
675
  8
0
 62
     0
 10
499.40141582582692
 20
91.5
 30
0.0
 11
515.39863779700022
 21
91.5
 31
0.0
  0
LINE
  5
676
  8
0
 62
     0
 10
583.39343114259589
 20
91.5
 30
0.0
 11
596.65141582582635
 21
91.5
 31
0.0
  0
LINE
  5
677
  8
0
 62
     0
 10
460.15141582582629
 20
91.5
 30
0.0
 11
473.40141582582589
 21
91.5
 31
0.0
  0
LINE
  5
678
  8
0
 62
     0
 10
541.39390142657339
 20
93.0
 30
0.0
 11
557.41041548049839
 21
93.0
 31
0.0
  0
LINE
  5
679
  8
0
 62
     0
 10
499.40141582582692
 20
93.0
 30
0.0
 11
515.39863779700022
 21
93.0
 31
0.0
  0
LINE
  5
67A
  8
0
 62
     0
 10
583.39343114259589
 20
93.0
 30
0.0
 11
596.65141582582623
 21
93.0
 31
0.0
  0
LINE
  5
67B
  8
0
 62
     0
 10
460.15141582582629
 20
93.0
 30
0.0
 11
473.40141582582589
 21
93.0
 31
0.0
  0
LINE
  5
67C
  8
0
 62
     0
 10
541.39390142657339
 20
94.500000000000014
 30
0.0
 11
557.41041548049839
 21
94.500000000000014
 31
0.0
  0
LINE
  5
67D
  8
0
 62
     0
 10
499.40141582582692
 20
94.500000000000014
 30
0.0
 11
515.39863779700022
 21
94.500000000000014
 31
0.0
  0
LINE
  5
67E
  8
0
 62
     0
 10
583.39343114259589
 20
94.500000000000014
 30
0.0
 11
596.65141582582623
 21
94.500000000000014
 31
0.0
  0
LINE
  5
67F
  8
0
 62
     0
 10
460.15141582582629
 20
94.500000000000014
 30
0.0
 11
473.40141582582589
 21
94.500000000000014
 31
0.0
  0
LINE
  5
680
  8
0
 62
     0
 10
541.39390142657339
 20
96.0
 30
0.0
 11
557.41041548049839
 21
96.0
 31
0.0
  0
LINE
  5
681
  8
0
 62
     0
 10
499.40141582582692
 20
96.0
 30
0.0
 11
515.39863779700022
 21
96.0
 31
0.0
  0
LINE
  5
682
  8
0
 62
     0
 10
583.39343114259589
 20
96.0
 30
0.0
 11
596.65141582582623
 21
96.0
 31
0.0
  0
LINE
  5
683
  8
0
 62
     0
 10
460.15141582582618
 20
96.0
 30
0.0
 11
473.40141582582589
 21
96.0
 31
0.0
  0
LINE
  5
684
  8
0
 62
     0
 10
541.39390142657339
 20
97.5
 30
0.0
 11
557.41041548049839
 21
97.5
 31
0.0
  0
LINE
  5
685
  8
0
 62
     0
 10
499.40141582582692
 20
97.5
 30
0.0
 11
515.39863779700022
 21
97.5
 31
0.0
  0
LINE
  5
686
  8
0
 62
     0
 10
583.39343114259589
 20
97.5
 30
0.0
 11
596.65141582582623
 21
97.5
 31
0.0
  0
LINE
  5
687
  8
0
 62
     0
 10
460.15141582582618
 20
97.5
 30
0.0
 11
473.40141582582589
 21
97.5
 31
0.0
  0
ENDBLK
  5
689
  8
0
  0
BLOCK
  8
0
  2
*X4
 70
     1
 10
0.0
 20
0.0
 30
0.0
  3
*X4
  1

  0
LINE
  5
68B
  8
0
 62
     0
 10
400.6009165142213
 20
362.99999999999989
 30
0.0
 11
263.10091651422158
 21
362.99999999999989
 31
0.0
  0
LINE
  5
68C
  8
0
 62
     0
 10
400.6009165142213
 20
361.49999999999989
 30
0.0
 11
263.10091651422158
 21
361.49999999999989
 31
0.0
  0
LINE
  5
68D
  8
0
 62
     0
 10
400.6009165142213
 20
360.0
 30
0.0
 11
263.10091651422158
 21
360.0
 31
0.0
  0
LINE
  5
68E
  8
0
 62
     0
 10
400.6009165142213
 20
358.49999999999989
 30
0.0
 11
263.10091651422158
 21
358.49999999999989
 31
0.0
  0
LINE
  5
68F
  8
0
 62
     0
 10
400.6009165142213
 20
356.99999999999989
 30
0.0
 11
263.10091651422158
 21
356.99999999999989
 31
0.0
  0
LINE
  5
690
  8
0
 62
     0
 10
400.6009165142213
 20
355.5
 30
0.0
 11
263.10091651422158
 21
355.5
 31
0.0
  0
LINE
  5
691
  8
0
 62
     0
 10
400.6009165142213
 20
354.0
 30
0.0
 11
263.10091651422158
 21
354.0
 31
0.0
  0
LINE
  5
692
  8
0
 62
     0
 10
400.6009165142213
 20
352.49999999999989
 30
0.0
 11
263.10091651422158
 21
352.49999999999989
 31
0.0
  0
LINE
  5
693
  8
0
 62
     0
 10
400.6009165142213
 20
350.99999999999989
 30
0.0
 11
263.10091651422158
 21
350.99999999999989
 31
0.0
  0
LINE
  5
694
  8
0
 62
     0
 10
400.6009165142213
 20
349.5
 30
0.0
 11
263.10091651422158
 21
349.5
 31
0.0
  0
LINE
  5
695
  8
0
 62
     0
 10
400.6009165142213
 20
347.99999999999989
 30
0.0
 11
263.10091651422158
 21
347.99999999999989
 31
0.0
  0
LINE
  5
696
  8
0
 62
     0
 10
400.6009165142213
 20
346.49999999999989
 30
0.0
 11
263.10091651422158
 21
346.49999999999989
 31
0.0
  0
LINE
  5
697
  8
0
 62
     0
 10
400.6009165142213
 20
344.99999999999989
 30
0.0
 11
263.10091651422152
 21
344.99999999999989
 31
0.0
  0
LINE
  5
698
  8
0
 62
     0
 10
400.6009165142213
 20
343.5
 30
0.0
 11
263.10091651422152
 21
343.5
 31
0.0
  0
LINE
  5
699
  8
0
 62
     0
 10
400.6009165142213
 20
341.99999999999989
 30
0.0
 11
263.10091651422152
 21
341.99999999999989
 31
0.0
  0
LINE
  5
69A
  8
0
 62
     0
 10
400.6009165142213
 20
340.49999999999989
 30
0.0
 11
263.10091651422152
 21
340.49999999999989
 31
0.0
  0
LINE
  5
69B
  8
0
 62
     0
 10
400.6009165142213
 20
339.0
 30
0.0
 11
263.10091651422152
 21
339.0
 31
0.0
  0
LINE
  5
69C
  8
0
 62
     0
 10
400.6009165142213
 20
337.5
 30
0.0
 11
263.10091651422152
 21
337.5
 31
0.0
  0
LINE
  5
69D
  8
0
 62
     0
 10
400.6009165142213
 20
335.99999999999989
 30
0.0
 11
263.10091651422152
 21
335.99999999999989
 31
0.0
  0
LINE
  5
69E
  8
0
 62
     0
 10
400.6009165142213
 20
334.49999999999989
 30
0.0
 11
263.10091651422152
 21
334.49999999999989
 31
0.0
  0
LINE
  5
69F
  8
0
 62
     0
 10
400.6009165142213
 20
333.0
 30
0.0
 11
263.10091651422152
 21
333.0
 31
0.0
  0
LINE
  5
6A0
  8
0
 62
     0
 10
400.6009165142213
 20
331.49999999999989
 30
0.0
 11
263.10091651422152
 21
331.49999999999989
 31
0.0
  0
LINE
  5
6A1
  8
0
 62
     0
 10
400.6009165142213
 20
329.99999999999989
 30
0.0
 11
263.10091651422152
 21
329.99999999999989
 31
0.0
  0
LINE
  5
6A2
  8
0
 62
     0
 10
400.6009165142213
 20
328.5
 30
0.0
 11
263.10091651422152
 21
328.5
 31
0.0
  0
LINE
  5
6A3
  8
0
 62
     0
 10
400.6009165142213
 20
327.0
 30
0.0
 11
263.10091651422152
 21
327.0
 31
0.0
  0
LINE
  5
6A4
  8
0
 62
     0
 10
400.6009165142213
 20
325.49999999999989
 30
0.0
 11
263.10091651422152
 21
325.49999999999989
 31
0.0
  0
LINE
  5
6A5
  8
0
 62
     0
 10
400.6009165142213
 20
323.99999999999989
 30
0.0
 11
263.10091651422152
 21
323.99999999999989
 31
0.0
  0
LINE
  5
6A6
  8
0
 62
     0
 10
400.6009165142213
 20
322.5
 30
0.0
 11
263.10091651422152
 21
322.5
 31
0.0
  0
LINE
  5
6A7
  8
0
 62
     0
 10
400.6009165142213
 20
320.99999999999989
 30
0.0
 11
263.10091651422152
 21
320.99999999999989
 31
0.0
  0
LINE
  5
6A8
  8
0
 62
     0
 10
400.6009165142213
 20
319.49999999999989
 30
0.0
 11
263.10091651422152
 21
319.49999999999989
 31
0.0
  0
LINE
  5
6A9
  8
0
 62
     0
 10
400.6009165142213
 20
318.0
 30
0.0
 11
263.10091651422152
 21
318.0
 31
0.0
  0
LINE
  5
6AA
  8
0
 62
     0
 10
400.6009165142213
 20
316.5
 30
0.0
 11
263.10091651422152
 21
316.5
 31
0.0
  0
LINE
  5
6AB
  8
0
 62
     0
 10
400.6009165142213
 20
314.99999999999989
 30
0.0
 11
263.10091651422152
 21
314.99999999999989
 31
0.0
  0
LINE
  5
6AC
  8
0
 62
     0
 10
400.6009165142213
 20
313.49999999999989
 30
0.0
 11
263.10091651422152
 21
313.49999999999989
 31
0.0
  0
LINE
  5
6AD
  8
0
 62
     0
 10
400.6009165142213
 20
312.0
 30
0.0
 11
263.10091651422152
 21
312.0
 31
0.0
  0
LINE
  5
6AE
  8
0
 62
     0
 10
400.60091651422118
 20
310.49999999999989
 30
0.0
 11
263.10091651422152
 21
310.49999999999989
 31
0.0
  0
LINE
  5
6AF
  8
0
 62
     0
 10
400.60091651422118
 20
308.99999999999989
 30
0.0
 11
263.10091651422152
 21
308.99999999999989
 31
0.0
  0
LINE
  5
6B0
  8
0
 62
     0
 10
400.60091651422118
 20
307.49999999999989
 30
0.0
 11
263.10091651422152
 21
307.49999999999989
 31
0.0
  0
LINE
  5
6B1
  8
0
 62
     0
 10
400.60091651422118
 20
306.0
 30
0.0
 11
263.10091651422152
 21
306.0
 31
0.0
  0
LINE
  5
6B2
  8
0
 62
     0
 10
400.60091651422118
 20
304.49999999999989
 30
0.0
 11
263.10091651422152
 21
304.49999999999989
 31
0.0
  0
LINE
  5
6B3
  8
0
 62
     0
 10
400.60091651422118
 20
302.99999999999989
 30
0.0
 11
263.10091651422152
 21
302.99999999999989
 31
0.0
  0
LINE
  5
6B4
  8
0
 62
     0
 10
400.60091651422118
 20
301.5
 30
0.0
 11
263.10091651422152
 21
301.5
 31
0.0
  0
LINE
  5
6B5
  8
0
 62
     0
 10
400.60091651422118
 20
300.0
 30
0.0
 11
263.10091651422152
 21
300.0
 31
0.0
  0
LINE
  5
6B6
  8
0
 62
     0
 10
400.60091651422118
 20
298.49999999999989
 30
0.0
 11
263.10091651422152
 21
298.49999999999989
 31
0.0
  0
LINE
  5
6B7
  8
0
 62
     0
 10
400.60091651422118
 20
296.99999999999989
 30
0.0
 11
263.10091651422152
 21
296.99999999999989
 31
0.0
  0
LINE
  5
6B8
  8
0
 62
     0
 10
400.60091651422118
 20
295.5
 30
0.0
 11
263.10091651422152
 21
295.5
 31
0.0
  0
LINE
  5
6B9
  8
0
 62
     0
 10
400.60091651422118
 20
293.99999999999989
 30
0.0
 11
263.10091651422152
 21
293.99999999999989
 31
0.0
  0
LINE
  5
6BA
  8
0
 62
     0
 10
400.60091651422118
 20
292.49999999999989
 30
0.0
 11
263.10091651422152
 21
292.49999999999989
 31
0.0
  0
LINE
  5
6BB
  8
0
 62
     0
 10
400.60091651422118
 20
291.0
 30
0.0
 11
263.10091651422152
 21
291.0
 31
0.0
  0
LINE
  5
6BC
  8
0
 62
     0
 10
400.60091651422118
 20
289.49999999999989
 30
0.0
 11
263.10091651422152
 21
289.49999999999989
 31
0.0
  0
LINE
  5
6BD
  8
0
 62
     0
 10
400.60091651422118
 20
287.99999999999989
 30
0.0
 11
263.10091651422152
 21
287.99999999999989
 31
0.0
  0
LINE
  5
6BE
  8
0
 62
     0
 10
400.60091651422118
 20
286.49999999999989
 30
0.0
 11
263.10091651422152
 21
286.49999999999989
 31
0.0
  0
LINE
  5
6BF
  8
0
 62
     0
 10
400.60091651422118
 20
285.0
 30
0.0
 11
263.10091651422152
 21
285.0
 31
0.0
  0
LINE
  5
6C0
  8
0
 62
     0
 10
400.60091651422118
 20
283.49999999999989
 30
0.0
 11
263.10091651422152
 21
283.49999999999989
 31
0.0
  0
LINE
  5
6C1
  8
0
 62
     0
 10
400.60091651422118
 20
281.99999999999989
 30
0.0
 11
263.10091651422152
 21
281.99999999999989
 31
0.0
  0
LINE
  5
6C2
  8
0
 62
     0
 10
400.60091651422118
 20
280.49999999999989
 30
0.0
 11
263.10091651422152
 21
280.49999999999989
 31
0.0
  0
LINE
  5
6C3
  8
0
 62
     0
 10
400.60091651422118
 20
279.0
 30
0.0
 11
263.10091651422152
 21
279.0
 31
0.0
  0
LINE
  5
6C4
  8
0
 62
     0
 10
400.60091651422113
 20
277.49999999999989
 30
0.0
 11
263.10091651422141
 21
277.49999999999989
 31
0.0
  0
LINE
  5
6C5
  8
0
 62
     0
 10
400.60091651422113
 20
275.99999999999989
 30
0.0
 11
263.10091651422141
 21
275.99999999999989
 31
0.0
  0
LINE
  5
6C6
  8
0
 62
     0
 10
400.60091651422113
 20
274.5
 30
0.0
 11
263.10091651422141
 21
274.5
 31
0.0
  0
LINE
  5
6C7
  8
0
 62
     0
 10
400.60091651422113
 20
272.99999999999989
 30
0.0
 11
263.10091651422141
 21
272.99999999999989
 31
0.0
  0
LINE
  5
6C8
  8
0
 62
     0
 10
400.60091651422113
 20
271.49999999999989
 30
0.0
 11
263.10091651422141
 21
271.49999999999989
 31
0.0
  0
LINE
  5
6C9
  8
0
 62
     0
 10
400.60091651422113
 20
269.99999999999989
 30
0.0
 11
263.10091651422141
 21
269.99999999999989
 31
0.0
  0
LINE
  5
6CA
  8
0
 62
     0
 10
400.60091651422113
 20
268.5
 30
0.0
 11
263.10091651422141
 21
268.5
 31
0.0
  0
LINE
  5
6CB
  8
0
 62
     0
 10
400.60091651422113
 20
266.99999999999989
 30
0.0
 11
263.10091651422141
 21
266.99999999999989
 31
0.0
  0
LINE
  5
6CC
  8
0
 62
     0
 10
400.60091651422113
 20
265.49999999999989
 30
0.0
 11
263.10091651422141
 21
265.49999999999989
 31
0.0
  0
LINE
  5
6CD
  8
0
 62
     0
 10
400.60091651422113
 20
264.0
 30
0.0
 11
263.10091651422141
 21
264.0
 31
0.0
  0
LINE
  5
6CE
  8
0
 62
     0
 10
400.60091651422113
 20
262.5
 30
0.0
 11
263.10091651422141
 21
262.5
 31
0.0
  0
LINE
  5
6CF
  8
0
 62
     0
 10
400.60091651422113
 20
260.99999999999989
 30
0.0
 11
263.10091651422141
 21
260.99999999999989
 31
0.0
  0
LINE
  5
6D0
  8
0
 62
     0
 10
400.60091651422113
 20
259.49999999999989
 30
0.0
 11
263.10091651422141
 21
259.49999999999989
 31
0.0
  0
LINE
  5
6D1
  8
0
 62
     0
 10
400.60091651422113
 20
258.0
 30
0.0
 11
263.10091651422141
 21
258.0
 31
0.0
  0
LINE
  5
6D2
  8
0
 62
     0
 10
400.60091651422113
 20
256.49999999999989
 30
0.0
 11
263.10091651422141
 21
256.49999999999989
 31
0.0
  0
LINE
  5
6D3
  8
0
 62
     0
 10
400.60091651422113
 20
254.99999999999989
 30
0.0
 11
263.10091651422141
 21
255.0
 31
0.0
  0
LINE
  5
6D4
  8
0
 62
     0
 10
400.60091651422113
 20
253.5
 30
0.0
 11
263.10091651422141
 21
253.5
 31
0.0
  0
LINE
  5
6D5
  8
0
 62
     0
 10
400.60091651422113
 20
252.0
 30
0.0
 11
263.10091651422141
 21
252.0
 31
0.0
  0
LINE
  5
6D6
  8
0
 62
     0
 10
400.60091651422113
 20
250.49999999999989
 30
0.0
 11
263.10091651422141
 21
250.5
 31
0.0
  0
LINE
  5
6D7
  8
0
 62
     0
 10
400.60091651422113
 20
248.99999999999989
 30
0.0
 11
263.10091651422141
 21
249.0
 31
0.0
  0
LINE
  5
6D8
  8
0
 62
     0
 10
400.60091651422113
 20
247.5
 30
0.0
 11
263.10091651422141
 21
247.5
 31
0.0
  0
LINE
  5
6D9
  8
0
 62
     0
 10
400.60091651422113
 20
245.99999999999989
 30
0.0
 11
263.10091651422141
 21
246.0
 31
0.0
  0
LINE
  5
6DA
  8
0
 62
     0
 10
400.60091651422113
 20
244.49999999999989
 30
0.0
 11
263.10091651422141
 21
244.5
 31
0.0
  0
LINE
  5
6DB
  8
0
 62
     0
 10
400.60091651422113
 20
242.99999999999989
 30
0.0
 11
263.1009165142213
 21
243.0
 31
0.0
  0
LINE
  5
6DC
  8
0
 62
     0
 10
400.60091651422113
 20
241.5
 30
0.0
 11
263.1009165142213
 21
241.5
 31
0.0
  0
LINE
  5
6DD
  8
0
 62
     0
 10
400.60091651422113
 20
239.99999999999989
 30
0.0
 11
263.1009165142213
 21
240.0
 31
0.0
  0
LINE
  5
6DE
  8
0
 62
     0
 10
400.60091651422113
 20
238.49999999999989
 30
0.0
 11
263.1009165142213
 21
238.5
 31
0.0
  0
LINE
  5
6DF
  8
0
 62
     0
 10
400.60091651422113
 20
237.0
 30
0.0
 11
263.1009165142213
 21
237.0
 31
0.0
  0
LINE
  5
6E0
  8
0
 62
     0
 10
400.60091651422113
 20
235.49999999999989
 30
0.0
 11
263.1009165142213
 21
235.5
 31
0.0
  0
LINE
  5
6E1
  8
0
 62
     0
 10
400.60091651422113
 20
233.99999999999989
 30
0.0
 11
263.1009165142213
 21
234.0
 31
0.0
  0
LINE
  5
6E2
  8
0
 62
     0
 10
400.60091651422113
 20
232.49999999999989
 30
0.0
 11
263.1009165142213
 21
232.5
 31
0.0
  0
LINE
  5
6E3
  8
0
 62
     0
 10
400.60091651422113
 20
231.0
 30
0.0
 11
263.1009165142213
 21
231.0
 31
0.0
  0
LINE
  5
6E4
  8
0
 62
     0
 10
400.60091651422113
 20
229.49999999999989
 30
0.0
 11
263.1009165142213
 21
229.5
 31
0.0
  0
LINE
  5
6E5
  8
0
 62
     0
 10
400.60091651422113
 20
227.99999999999989
 30
0.0
 11
263.1009165142213
 21
228.0
 31
0.0
  0
ENDBLK
  5
6E7
  8
0
  0
ENDSEC
  0
SECTION
  2
ENTITIES
  0
LINE
  5
368
  8
0
 10
261.47591651422113
 20
154.62500450375751
 30
0.0
 11
402.22591651421811
 21
154.62500450375751
 31
0.0
  0
LINE
  5
369
  8
0
 10
402.22591651421811
 20
100.00000450375769
 30
0.0
 11
261.47591651422113
 21
100.00000450375769
 31
0.0
  0
LINE
  5
36A
  8
0
 10
261.47591651422113
 20
100.00000450375769
 30
0.0
 11
261.47591651422113
 21
154.62500450375751
 31
0.0
  0
LINE
  5
36B
  8
0
 10
402.22591651421811
 20
100.00000450375769
 30
0.0
 11
402.22591651421811
 21
154.62500450375751
 31
0.0
  0
LINE
  5
36C
  8
0
 10
261.47591651422158
 20
100.00000450375769
 30
0.0
 11
403.47591651422152
 21
100.00000450375769
 31
0.0
  0
LINE
  5
36D
  8
0
 10
403.47591651422152
 20
0.0000045037577365
 30
0.0
 11
261.47591651422158
 21
0.0000045037577365
 31
0.0
  0
LINE
  5
36E
  8
0
 10
261.47591651422158
 20
100.00000450375769
 30
0.0
 11
261.47591651422158
 21
0.0000045037577365
 31
0.0
  0
LINE
  5
36F
  8
0
 10
403.47591651422152
 20
0.0000045037577365
 30
0.0
 11
403.47591651422152
 21
100.00000450375769
 31
0.0
  0
LINE
  5
370
  8
0
 10
402.47591651422181
 20
150.87500450375791
 30
0.0
 11
402.22591651422272
 21
150.87500450375791
 31
0.0
  0
LINE
  5
371
  8
0
 10
402.22591651422272
 20
142.87500450375759
 30
0.0
 11
402.47591651422181
 21
142.87500450375759
 31
0.0
  0
LINE
  5
372
  8
0
 10
402.47591651422181
 20
150.87500450375771
 30
0.0
 11
402.47591651422181
 21
150.73871054564151
 31
0.0
  0
LINE
  5
373
  8
0
 10
402.47591651422181
 20
150.738707808914
 30
0.0
 11
402.47591651422181
 21
149.70343162850389
 31
0.0
  0
LINE
  5
374
  8
0
 10
402.47591651422181
 20
149.7034309459126
 30
0.0
 11
402.47591651422181
 21
147.91028068416779
 31
0.0
  0
LINE
  5
375
  8
0
 10
402.47591651422181
 20
147.91027904781151
 30
0.0
 11
402.47591651422181
 21
146.87500450375771
 31
0.0
  0
LINE
  5
376
  8
0
 10
402.47591651422181
 20
146.8750006451335
 30
0.0
 11
402.47591651422181
 21
145.8397336868492
 31
0.0
  0
LINE
  5
377
  8
0
 10
402.47591651422181
 20
145.83972832334771
 30
0.0
 11
402.47591651422181
 21
144.8750080898088
 31
0.0
  0
LINE
  5
378
  8
0
 10
402.47591651422181
 20
144.87500450375771
 30
0.0
 11
402.47591651422181
 21
144.04658147133071
 31
0.0
  0
LINE
  5
379
  8
0
 10
402.47591651422181
 20
144.0465773790115
 30
0.0
 11
402.47591651422181
 21
143.01130285251921
 31
0.0
  0
LINE
  5
37A
  8
0
 10
402.47591651422181
 20
143.01130119860139
 30
0.0
 11
402.47591651422181
 21
142.87500450375771
 31
0.0
  0
ARC
  5
37B
  8
0
 10
326.72591651422113
 20
40.50000450375812
 30
0.0
 40
0.7499999999999965
 50
359.99999999999937
 51
179.99999999999969
  0
ARC
  5
37C
  8
0
 10
326.72591651422113
 20
40.50000450375812
 30
0.0
 40
0.7500000000000036
 50
180.00000000000031
 51
359.99999999999881
  0
ARC
  5
37D
  8
0
 10
266.22591651422113
 20
29.000004503758142
 30
0.0
 40
1.5000000000000011
 50
359.99999999999937
 51
179.9999999999994
  0
ARC
  5
37E
  8
0
 10
266.22591651422113
 20
29.000004503758142
 30
0.0
 40
1.5
 50
180.0
 51
359.99999999999949
  0
ARC
  5
37F
  8
0
 10
264.8509165142209
 20
6.62500450375813
 30
0.0
 40
0.999999999999996
 50
359.9999999999996
 51
179.9999999999996
  0
ARC
  5
380
  8
0
 10
264.8509165142209
 20
6.62500450375813
 30
0.0
 40
1.0000000000000011
 50
180.00000000000011
 51
359.99999999999937
  0
ARC
  5
381
  8
0
 10
288.60091651422141
 20
14.50000450375815
 30
0.0
 40
4.0
 50
359.99999999999937
 51
179.9999999999996
  0
ARC
  5
382
  8
0
 10
288.60091651422141
 20
14.50000450375815
 30
0.0
 40
4.0
 50
180.0000000000002
 51
359.99999999999937
  0
CIRCLE
  5
383
  8
0
 10
284.2259165142213
 20
44.250004503757722
 30
0.0
 40
11.18749999999998
  0
LINE
  5
384
  8
0
 10
458.526415825833
 20
154.62500450375751
 30
0.0
 11
598.27641582582714
 21
154.62500450375751
 31
0.0
  0
LINE
  5
385
  8
0
 10
458.526415825833
 20
100.00000450375769
 30
0.0
 11
458.526415825833
 21
154.62500450375751
 31
0.0
  0
LINE
  5
386
  8
0
 10
598.27641582582714
 20
100.00000450375769
 30
0.0
 11
598.27641582582714
 21
154.62500450375751
 31
0.0
  0
LINE
  5
387
  8
0
 10
516.40141582582851
 20
6.0000045037577348
 30
0.0
 11
540.40141582582714
 21
6.0000045037584178
 31
0.0
  0
LINE
  5
388
  8
0
 10
516.40141582582646
 20
86.080200527385671
 30
0.0
 11
540.40141582582623
 21
86.080200527385912
 31
0.0
  0
LINE
  5
389
  8
0
 10
540.40141582582714
 20
4.0000045037577836
 30
0.0
 11
540.40141582582737
 21
98.375004503758362
 31
0.0
  0
LINE
  5
38A
  8
0
 10
541.39390142657362
 20
98.375004503758362
 30
0.0
 11
541.39390142657362
 21
4.0000045037577836
 31
0.0
  0
LINE
  5
38B
  8
0
 10
540.40141582582714
 20
4.0000045037577836
 30
0.0
 11
541.39390142657362
 21
4.0000045037577827
 31
0.0
  0
LINE
  5
38C
  8
0
 10
541.39390142657362
 20
98.375004503758362
 30
0.0
 11
540.40141582582737
 21
98.375004503758362
 31
0.0
  0
LINE
  5
38D
  8
0
 10
515.39863779700045
 20
4.0000045037578227
 30
0.0
 11
515.39863779700067
 21
98.375004503758404
 31
0.0
  0
LINE
  5
38E
  8
0
 10
516.40141582582726
 20
98.375004503758404
 30
0.0
 11
516.40141582582714
 21
4.000004503757828
 31
0.0
  0
LINE
  5
38F
  8
0
 10
515.39863779700045
 20
4.0000045037578227
 30
0.0
 11
516.40141582582714
 21
4.0000045037578218
 31
0.0
  0
LINE
  5
390
  8
0
 10
516.40141582582726
 20
98.375004503758404
 30
0.0
 11
515.39863779700067
 21
98.375004503758404
 31
0.0
  0
LINE
  5
391
  8
0
 10
558.40141582582714
 20
6.0000045037577348
 30
0.0
 11
582.40141582582714
 21
6.0000045037577348
 31
0.0
  0
LINE
  5
392
  8
0
 10
558.40141582582726
 20
86.080200527385514
 30
0.0
 11
582.40141582582737
 21
86.080200527385514
 31
0.0
  0
LINE
  5
393
  8
0
 10
557.4104154804985
 20
4.0000045037577632
 30
0.0
 11
557.4104154804985
 21
98.375004503758333
 31
0.0
  0
LINE
  5
394
  8
0
 10
558.40141582582726
 20
98.375004503758333
 30
0.0
 11
558.40141582582714
 21
4.0000045037577632
 31
0.0
  0
LINE
  5
395
  8
0
 10
557.4104154804985
 20
4.0000045037577632
 30
0.0
 11
558.40141582582714
 21
4.0000045037577632
 31
0.0
  0
LINE
  5
396
  8
0
 10
558.40141582582726
 20
98.375004503758333
 30
0.0
 11
557.4104154804985
 21
98.375004503758333
 31
0.0
  0
LINE
  5
397
  8
0
 10
582.40141582582714
 20
4.0000045037577223
 30
0.0
 11
582.40141582582737
 21
98.375004503758291
 31
0.0
  0
LINE
  5
398
  8
0
 10
583.39343114259646
 20
98.375004503758291
 30
0.0
 11
583.39343114259623
 21
4.0000045037577214
 31
0.0
  0
LINE
  5
399
  8
0
 10
583.39343114259623
 20
4.0000045037577214
 30
0.0
 11
582.40141582582714
 21
4.0000045037577223
 31
0.0
  0
LINE
  5
39A
  8
0
 10
583.39343114259646
 20
98.375004503758291
 30
0.0
 11
582.40141582582737
 21
98.375004503758291
 31
0.0
  0
LINE
  5
39B
  8
0
 10
474.40141582582709
 20
6.0000045037573919
 30
0.0
 11
498.40141582582709
 21
6.0000045037577348
 31
0.0
  0
LINE
  5
39C
  8
0
 10
474.40141582582618
 20
86.080200527385244
 30
0.0
 11
498.40141582582618
 21
86.080200527385514
 31
0.0
  0
LINE
  5
39D
  8
0
 10
498.40141582582709
 20
4.0000045037578484
 30
0.0
 11
498.40141582582743
 21
98.375004503758404
 31
0.0
  0
LINE
  5
39E
  8
0
 10
499.40141582582731
 20
98.375004503758404
 30
0.0
 11
499.40141582582709
 21
4.0000045037578484
 31
0.0
  0
LINE
  5
39F
  8
0
 10
498.40141582582709
 20
4.0000045037578484
 30
0.0
 11
499.40141582582709
 21
4.0000045037578484
 31
0.0
  0
LINE
  5
3A0
  8
0
 10
499.40141582582731
 20
98.375004503758404
 30
0.0
 11
498.40141582582743
 21
98.375004503758404
 31
0.0
  0
LINE
  5
3A1
  8
0
 10
473.40141582582709
 20
4.0000045037578911
 30
0.0
 11
473.40141582582743
 21
98.375004503758475
 31
0.0
  0
LINE
  5
3A2
  8
0
 10
474.40141582582731
 20
98.375004503758475
 30
0.0
 11
474.40141582582709
 21
4.0000045037578911
 31
0.0
  0
LINE
  5
3A3
  8
0
 10
473.40141582582709
 20
4.0000045037578911
 30
0.0
 11
474.40141582582709
 21
4.0000045037578911
 31
0.0
  0
LINE
  5
3A4
  8
0
 10
474.40141582582731
 20
98.375004503758475
 30
0.0
 11
473.40141582582743
 21
98.375004503758475
 31
0.0
  0
LINE
  5
3A5
  8
0
 10
460.15141582582692
 20
98.375004503759627
 30
0.0
 11
460.15141582582692
 21
4.0000045037577321
 31
0.0
  0
LINE
  5
3A6
  8
0
 10
460.15141582582692
 20
4.0000045037577321
 30
0.0
 11
473.40141582582589
 21
4.0000045037577321
 31
0.0
  0
LINE
  5
3A7
  8
0
 10
473.40141582582589
 20
4.0000045037577321
 30
0.0
 11
473.40141582582589
 21
98.375004503759627
 31
0.0
1001
ACAD
1000
ASC_BOUNDS
1002
{
1070
    19
1005
50B
1002
}
  0
LINE
  5
3A8
  8
0
 10
473.40141582582589
 20
98.375004503759627
 30
0.0
 11
460.15141582582692
 21
98.375004503759627
 31
0.0
  0
LINE
  5
3A9
  8
0
 10
515.39863779700022
 20
98.375004503758404
 30
0.0
 11
499.40141582582692
 21
98.375004503758404
 31
0.0
  0
LINE
  5
3AA
  8
0
 10
499.40141582582692
 20
98.375004503758404
 30
0.0
 11
499.40141582582692
 21
4.0000045037578484
 31
0.0
1001
ACAD
1000
ASC_BOUNDS
1002
{
1070
    19
1005
50B
1002
}
  0
LINE
  5
3AB
  8
0
 10
499.40141582582692
 20
4.0000045037578484
 30
0.0
 11
515.39863779700022
 21
4.0000045037578484
 31
0.0
  0
LINE
  5
3AC
  8
0
 10
515.39863779700022
 20
4.0000045037578484
 30
0.0
 11
515.39863779700022
 21
98.375004503758404
 31
0.0
1001
ACAD
1000
ASC_BOUNDS
1002
{
1070
    19
1005
50B
1002
}
  0
LINE
  5
3AD
  8
0
 10
596.65141582582692
 20
98.375004503758404
 30
0.0
 11
583.39343114259589
 21
98.375004503758404
 31
0.0
  0
LINE
  5
3AE
  8
0
 10
583.39343114259589
 20
98.375004503758404
 30
0.0
 11
583.39343114259589
 21
4.0000045037578484
 31
0.0
1001
ACAD
1000
ASC_BOUNDS
1002
{
1070
    19
1005
50B
1002
}
  0
LINE
  5
3AF
  8
0
 10
583.39343114259589
 20
4.0000045037578484
 30
0.0
 11
596.65141582582692
 21
4.0000045037578484
 31
0.0
  0
LINE
  5
3B0
  8
0
 10
596.65141582582692
 20
4.0000045037578484
 30
0.0
 11
596.65141582582692
 21
98.375004503758404
 31
0.0
  0
LINE
  5
3B1
  8
0
 10
557.41041548049839
 20
98.375004503758404
 30
0.0
 11
541.39390142657339
 21
98.375004503758404
 31
0.0
  0
LINE
  5
3B2
  8
0
 10
541.39390142657339
 20
98.375004503758404
 30
0.0
 11
541.39390142657339
 21
4.0000045037578484
 31
0.0
1001
ACAD
1000
ASC_BOUNDS
1002
{
1070
    19
1005
50B
1002
}
  0
LINE
  5
3B3
  8
0
 10
541.39390142657339
 20
4.0000045037578484
 30
0.0
 11
557.41041548049839
 21
4.0000045037578484
 31
0.0
  0
LINE
  5
3B4
  8
0
 10
557.41041548049839
 20
4.0000045037578484
 30
0.0
 11
557.41041548049839
 21
98.375004503758404
 31
0.0
1001
ACAD
1000
ASC_BOUNDS
1002
{
1070
    19
1005
50B
1002
}
  0
LINE
  5
3B5
  8
0
 10
458.5264158258276
 20
100.00000450375769
 30
0.0
 11
598.27641582582726
 21
100.00000450375769
 31
0.0
  0
LINE
  5
3B6
  8
0
 10
598.27641582582726
 20
0.0000045037577365
 30
0.0
 11
458.5264158258276
 21
0.0000045037577365
 31
0.0
  0
LINE
  5
3B7
  8
0
 10
458.5264158258276
 20
0.0000045037577365
 30
0.0
 11
458.5264158258276
 21
100.00000450375769
 31
0.0
  0
LINE
  5
3B8
  8
0
 10
460.15141582582709
 20
4.0000045037565908
 30
0.0
 11
460.15141582582618
 21
98.375004503757125
 31
0.0
1001
ACAD
1000
ASC_BOUNDS
1002
{
1070
    19
1005
50B
1002
}
  0
LINE
  5
3B9
  8
0
 10
460.15141582582618
 20
98.375004503757125
 30
0.0
 11
596.65141582582623
 21
98.375004503758575
 31
0.0
1001
ACAD
1000
ASC_BOUNDS
1002
{
1070
    19
1005
50B
1005
50B
1005
50B
1005
50B
1002
}
  0
LINE
  5
3BA
  8
0
 10
596.65141582582623
 20
98.375004503758575
 30
0.0
 11
596.65141582582714
 21
4.0000045037579977
 31
0.0
1001
ACAD
1000
ASC_BOUNDS
1002
{
1070
    19
1005
50B
1002
}
  0
LINE
  5
3BB
  8
0
 10
596.65141582582714
 20
4.000004503758019
 30
0.0
 11
460.15141582582709
 21
4.0000045037566121
 31
0.0
1001
ACAD
1000
ASC_BOUNDS
1002
{
1070
    19
1005
50B
1005
50B
1005
50B
1005
50B
1002
}
  0
LINE
  5
3BC
  8
0
 10
598.27641582582726
 20
0.0000045037577365
 30
0.0
 11
598.27641582582726
 21
100.00000450375769
 31
0.0
  0
ARC
  5
3BD
  8
0
 10
528.40141582582692
 20
124.62500450375821
 30
0.0
 40
8.25
 50
179.99999999999969
 51
359.99999999999881
  0
ARC
  5
3BE
  8
0
 10
528.40141582582692
 20
124.62500450375821
 30
0.0
 40
8.25
 50
359.9999999999996
 51
179.99999999999969
  0
ARC
  5
3BF
  8
0
 10
528.40141582582692
 20
124.62500450375821
 30
0.0
 40
7.6874999999999956
 50
0.0000000000006934
 51
180.00000000000011
  0
ARC
  5
3C0
  8
0
 10
528.40141582582692
 20
124.62500450375821
 30
0.0
 40
7.687499999999992
 50
180.00000000000011
 51
359.9999999999996
  0
LINE
  5
3C1
  8
0
 10
533.52391659981447
 20
122.1831486549608
 30
0.0
 11
533.32897612362387
 21
121.7342399248021
 31
0.0
  0
LINE
  5
3C2
  8
0
 10
533.32897612362387
 20
121.7342399248021
 30
0.0
 11
532.87808326648133
 21
121.57699786131001
 31
0.0
  0
LINE
  5
3C3
  8
0
 10
532.87808326648133
 20
121.57699786131001
 30
0.0
 11
532.55355449663978
 21
121.6412339724212
 31
0.0
  0
LINE
  5
3C4
  8
0
 10
532.55355449663978
 20
121.6412339724212
 30
0.0
 11
532.31806342521145
 21
121.8339423057545
 31
0.0
  0
LINE
  5
3C5
  8
0
 10
532.31806342521145
 20
121.8339423057545
 30
0.0
 11
532.12709120298916
 21
122.591878813691
 31
0.0
  0
LINE
  5
3C6
  8
0
 10
532.12709120298916
 20
122.591878813691
 30
0.0
 11
532.31111898076699
 21
123.3557677025799
 31
0.0
  0
LINE
  5
3C7
  8
0
 10
532.31111898076699
 20
123.3557677025799
 30
0.0
 11
532.54090568711615
 21
123.54549984543701
 31
0.0
  0
LINE
  5
3C8
  8
0
 10
532.54090568711615
 20
123.54549984543701
 30
0.0
 11
532.8622102506082
 21
123.6087438930561
 31
0.0
  0
LINE
  5
3C9
  8
0
 10
532.8622102506082
 20
123.6087438930561
 30
0.0
 11
533.33046421886229
 21
123.46539071845289
 31
0.0
  0
LINE
  5
3CA
  8
0
 10
533.33046421886229
 20
123.46539071845289
 30
0.0
 11
533.52391659981447
 21
123.04029151210371
 31
0.0
  0
LINE
  5
3CB
  8
0
 10
533.52391659981447
 20
123.04029151210371
 30
0.0
 11
534.66677374267169
 21
123.04029151210371
 31
0.0
  0
LINE
  5
3CC
  8
0
 10
534.66677374267169
 20
123.04029151210371
 30
0.0
 11
534.50655548870338
 21
123.6879849644846
 31
0.0
  0
LINE
  5
3CD
  8
0
 10
534.50655548870338
 20
123.6879849644846
 30
0.0
 11
534.13899596489409
 21
124.16677960734179
 31
0.0
  0
LINE
  5
3CE
  8
0
 10
534.13899596489409
 20
124.16677960734179
 30
0.0
 11
533.57996818711615
 21
124.4625385359132
 31
0.0
  0
LINE
  5
3CF
  8
0
 10
533.57996818711615
 20
124.4625385359132
 30
0.0
 11
532.84534517124325
 21
124.56112484543701
 31
0.0
  0
LINE
  5
3D0
  8
0
 10
532.84534517124325
 20
124.56112484543701
 30
0.0
 11
532.04735409981447
 21
124.42918040099261
 31
0.0
  0
LINE
  5
3D1
  8
0
 10
532.04735409981447
 20
124.42918040099261
 30
0.0
 11
531.43711104425893
 21
124.03334706765919
 31
0.0
  0
LINE
  5
3D2
  8
0
 10
531.43711104425893
 20
124.03334706765919
 30
0.0
 11
531.04983425854471
 21
123.4093391311513
 31
0.0
  0
LINE
  5
3D3
  8
0
 10
531.04983425854471
 20
123.4093391311513
 30
0.0
 11
530.92074199663989
 21
122.592870877183
 31
0.0
  0
LINE
  5
3D4
  8
0
 10
530.92074199663989
 20
122.592870877183
 30
0.0
 11
531.05045429822735
 21
121.7745425041672
 31
0.0
  0
LINE
  5
3D5
  8
0
 10
531.05045429822735
 20
121.7745425041672
 30
0.0
 11
531.43959120298916
 21
121.1509065914688
 31
0.0
  0
LINE
  5
3D6
  8
0
 10
531.43959120298916
 20
121.1509065914688
 30
0.0
 11
532.05491858394146
 21
120.75618932956399
 31
0.0
  0
LINE
  5
3D7
  8
0
 10
532.05491858394146
 20
120.75618932956399
 30
0.0
 11
532.86320231410025
 21
120.6246169089291
 31
0.0
  0
LINE
  5
3D8
  8
0
 10
532.86320231410025
 20
120.6246169089291
 30
0.0
 11
533.58629259187819
 21
120.7267994486116
 31
0.0
  0
LINE
  5
3D9
  8
0
 10
533.58629259187819
 20
120.7267994486116
 30
0.0
 11
534.14246818711626
 21
121.03334706765919
 31
0.0
  0
LINE
  5
3DA
  8
0
 10
534.14246818711626
 20
121.03334706765919
 30
0.0
 11
534.50990370298928
 21
121.5251625438497
 31
0.0
  0
LINE
  5
3DB
  8
0
 10
534.50990370298928
 20
121.5251625438497
 30
0.0
 11
534.66677374267169
 21
122.1831486549608
 31
0.0
  0
LINE
  5
3DC
  8
0
 10
534.66677374267169
 20
122.1831486549608
 30
0.0
 11
533.52391659981447
 21
122.1831486549608
 31
0.0
  0
LINE
  5
3DD
  8
0
 10
526.30218922204699
 20
122.957222843884
 30
0.0
 11
527.47976858712616
 21
122.957222843884
 31
0.0
  0
LINE
  5
3DE
  8
0
 10
527.47976858712616
 20
122.957222843884
 30
0.0
 11
527.62659398395169
 21
123.4651593518205
 31
0.0
  0
LINE
  5
3DF
  8
0
 10
527.62659398395169
 20
123.4651593518205
 30
0.0
 11
528.82996699982448
 21
123.4651593518205
 31
0.0
  0
LINE
  5
3E0
  8
0
 10
528.82996699982448
 20
123.4651593518205
 30
0.0
 11
528.97183207918977
 21
122.957222843884
 31
0.0
  0
LINE
  5
3E1
  8
0
 10
528.97183207918977
 20
122.957222843884
 30
0.0
 11
530.17520509506289
 21
122.957222843884
 31
0.0
  0
LINE
  5
3E2
  8
0
 10
530.17520509506289
 20
122.957222843884
 30
0.0
 11
528.8458400156976
 21
126.76674665340779
 31
0.0
  0
LINE
  5
3E3
  8
0
 10
528.8458400156976
 20
126.76674665340779
 30
0.0
 11
527.61667334903109
 21
126.76674665340791
 31
0.0
  0
LINE
  5
3E4
  8
0
 10
527.61667334903109
 20
126.76674665340791
 30
0.0
 11
526.30218922204699
 21
122.957222843884
 31
0.0
  0
LINE
  5
3E5
  8
0
 10
527.84683207918977
 20
124.2905561772174
 30
0.0
 11
528.23274477760242
 21
125.5941276057888
 31
0.0
  0
LINE
  5
3E6
  8
0
 10
528.23274477760242
 20
125.5941276057888
 30
0.0
 11
528.60972890458652
 21
124.2905561772174
 31
0.0
  0
LINE
  5
3E7
  8
0
 10
528.60972890458652
 20
124.2905561772174
 30
0.0
 11
527.84683207918977
 21
124.2905561772174
 31
0.0
  0
LINE
  5
3E8
  8
0
 10
522.54145803178528
 20
124.6976111530643
 30
0.0
 11
524.24086279369021
 21
124.6976111530643
 31
0.0
  0
LINE
  5
3E9
  8
0
 10
524.24086279369021
 20
124.6976111530643
 30
0.0
 11
525.00871993654732
 21
124.7363016292548
 31
0.0
  0
LINE
  5
3EA
  8
0
 10
525.00871993654732
 20
124.7363016292548
 30
0.0
 11
525.42141834924576
 21
124.8682460736992
 31
0.0
  0
LINE
  5
3EB
  8
0
 10
525.42141834924576
 20
124.8682460736992
 30
0.0
 11
525.82965247622985
 21
125.2511825816357
 31
0.0
  0
LINE
  5
3EC
  8
0
 10
525.82965247622985
 20
125.2511825816357
 30
0.0
 11
525.97002946035695
 21
125.8384841689373
 31
0.0
  0
LINE
  5
3ED
  8
0
 10
525.97002946035695
 20
125.8384841689373
 30
0.0
 11
525.8261802540078
 21
126.4014802006833
 31
0.0
  0
LINE
  5
3EE
  8
0
 10
525.8261802540078
 20
126.4014802006833
 30
0.0
 11
525.3827278730555
 21
126.72638099433409
 31
0.0
  0
LINE
  5
3EF
  8
0
 10
525.3827278730555
 20
126.72638099433409
 30
0.0
 11
525.72796596829346
 21
127.04384131179449
 31
0.0
  0
LINE
  5
3F0
  8
0
 10
525.72796596829346
 20
127.04384131179449
 30
0.0
 11
525.84304533337286
 21
127.4962222641754
 31
0.0
  0
LINE
  5
3F1
  8
0
 10
525.84304533337286
 20
127.4962222641754
 30
0.0
 11
525.68927549210298
 21
128.05624210544531
 31
0.0
  0
LINE
  5
3F2
  8
0
 10
525.68927549210298
 20
128.05624210544531
 30
0.0
 11
525.24681517464273
 21
128.396023851477
 31
0.0
  0
LINE
  5
3F3
  8
0
 10
525.24681517464273
 20
128.396023851477
 30
0.0
 11
524.85147787305539
 21
128.48134131179449
 31
0.0
  0
LINE
  5
3F4
  8
0
 10
524.85147787305539
 20
128.48134131179449
 30
0.0
 11
524.11784692067431
 21
128.50713496258811
 31
0.0
  0
LINE
  5
3F5
  8
0
 10
524.11784692067431
 20
128.50713496258811
 30
0.0
 11
522.54145803178528
 21
128.50713496258811
 31
0.0
  0
LINE
  5
3F6
  8
0
 10
522.54145803178528
 20
128.50713496258811
 30
0.0
 11
522.54145803178528
 21
124.6976111530643
 31
0.0
  0
LINE
  5
3F7
  8
0
 10
523.74780723813478
 20
125.5865000419532
 30
0.0
 11
523.74780723813478
 21
126.2849127403659
 31
0.0
  0
LINE
  5
3F8
  8
0
 10
523.74780723813478
 20
126.2849127403659
 30
0.0
 11
524.29641834924587
 21
126.2849127403659
 31
0.0
  0
LINE
  5
3F9
  8
0
 10
524.29641834924587
 20
126.2849127403659
 30
0.0
 11
524.70564453972202
 21
126.20554766100079
 31
0.0
  0
LINE
  5
3FA
  8
0
 10
524.70564453972202
 20
126.20554766100079
 30
0.0
 11
524.82717231749984
 21
125.9386825816357
 31
0.0
  0
LINE
  5
3FB
  8
0
 10
524.82717231749984
 20
125.9386825816357
 30
0.0
 11
524.70812469845214
 21
125.6688413117944
 31
0.0
  0
LINE
  5
3FC
  8
0
 10
524.70812469845214
 20
125.6688413117944
 30
0.0
 11
524.30733104765864
 21
125.5865000419532
 31
0.0
  0
LINE
  5
3FD
  8
0
 10
524.30733104765864
 20
125.5865000419532
 30
0.0
 11
523.74780723813478
 21
125.5865000419532
 31
0.0
  0
LINE
  5
3FE
  8
0
 10
523.74780723813478
 20
126.98332543877861
 30
0.0
 11
523.74780723813478
 21
127.6182460736992
 31
0.0
  0
LINE
  5
3FF
  8
0
 10
523.74780723813478
 20
127.6182460736992
 30
0.0
 11
524.08213263496009
 21
127.6182460736992
 31
0.0
  0
LINE
  5
400
  8
0
 10
524.08213263496009
 20
127.6182460736992
 30
0.0
 11
524.59056517464273
 21
127.55078575623889
 31
0.0
  0
LINE
  5
401
  8
0
 10
524.59056517464273
 20
127.55078575623889
 30
0.0
 11
524.70018819051575
 21
127.30078575623889
 31
0.0
  0
LINE
  5
402
  8
0
 10
524.70018819051575
 20
127.30078575623889
 30
0.0
 11
524.59800565083299
 21
127.0557460736992
 31
0.0
  0
LINE
  5
403
  8
0
 10
524.59800565083299
 20
127.0557460736992
 30
0.0
 11
524.24582311115057
 21
126.98332543877861
 31
0.0
  0
LINE
  5
404
  8
0
 10
524.24582311115057
 20
126.98332543877861
 30
0.0
 11
523.74780723813478
 21
126.98332543877861
 31
0.0
  0
ARC
  5
405
  8
0
 10
528.40141582582623
 20
124.6250045037589
 30
0.0
 40
9.0000000000000178
 50
179.99999999999969
 51
359.99999999999881
  0
ARC
  5
406
  8
0
 10
528.40141582582623
 20
124.6250045037589
 30
0.0
 40
9.0
 50
359.99999999999937
 51
179.99999999999969
  0
ARC
  5
407
  8
0
 10
528.4014158258243
 20
146.87500450375771
 30
0.0
 40
4.0
 50
90.0
 51
270.0
  0
ARC
  5
408
  8
0
 10
528.4014158258243
 20
146.87500450375771
 30
0.0
 40
4.0000000000000133
 50
270.0
 51
90.0
  0
LINE
  5
409
  8
0
 10
458.27641582582839
 20
39.75000450375807
 30
0.0
 11
458.5264158258276
 21
39.75000450375807
 31
0.0
  0
LINE
  5
40A
  8
0
 10
458.5264158258276
 20
41.250004503758412
 30
0.0
 11
458.27641582582839
 21
41.250004503758412
 31
0.0
  0
LINE
  5
40B
  8
0
 10
458.27641582582748
 20
27.500004503757971
 30
0.0
 11
458.52641582582669
 21
27.500004503757971
 31
0.0
  0
LINE
  5
40C
  8
0
 10
458.52641582582669
 20
30.50000450375796
 30
0.0
 11
458.27641582582748
 21
30.50000450375796
 31
0.0
  0
LINE
  5
40D
  8
0
 10
458.27641582582748
 20
5.6250045037580758
 30
0.0
 11
458.52641582582669
 21
5.6250045037580758
 31
0.0
  0
LINE
  5
40E
  8
0
 10
458.52641582582669
 20
7.625004503757963
 30
0.0
 11
458.27641582582748
 21
7.625004503757963
 31
0.0
  0
LINE
  5
40F
  8
0
 10
458.27641582582748
 20
40.50000450375812
 30
0.0
 11
458.27641582582748
 21
40.694118787585019
 31
0.0
  0
LINE
  5
410
  8
0
 10
458.27641582582748
 20
40.694119208277179
 30
0.0
 11
458.27641582582748
 21
41.030334589648028
 31
0.0
  0
LINE
  5
411
  8
0
 10
458.27641582582748
 20
41.030335256035492
 30
0.0
 11
458.27641582582748
 21
41.14952270009038
 31
0.0
  0
LINE
  5
412
  8
0
 10
458.27641582582748
 20
41.149523556596463
 30
0.0
 11
458.27641582582748
 21
41.224448873474927
 31
0.0
  0
LINE
  5
413
  8
0
 10
458.27641582582748
 20
41.224450808908692
 30
0.0
 11
458.27641582582748
 21
41.250004503758127
 31
0.0
  0
LINE
  5
414
  8
0
 10
458.27641582582748
 20
39.750004503758142
 30
0.0
 11
458.27641582582748
 21
39.775558198605118
 31
0.0
  0
LINE
  5
415
  8
0
 10
458.27641582582748
 20
39.775560134041342
 30
0.0
 11
458.27641582582748
 21
39.850485450919813
 31
0.0
  0
LINE
  5
416
  8
0
 10
458.27641582582748
 20
39.8504863074252
 30
0.0
 11
458.27641582582748
 21
39.96967375147981
 31
0.0
  0
LINE
  5
417
  8
0
 10
458.27641582582748
 20
39.969674417868241
 30
0.0
 11
458.27641582582748
 21
40.305889799238642
 31
0.0
  0
LINE
  5
418
  8
0
 10
458.27641582582748
 20
40.305890219931229
 30
0.0
 11
458.27641582582748
 21
40.50000450375812
 31
0.0
  0
LINE
  5
419
  8
0
 10
458.276415825828
 20
29.000005468413558
 30
0.0
 11
458.276415825828
 21
29.750004503758142
 31
0.0
  0
LINE
  5
41A
  8
0
 10
458.276415825828
 20
29.750005547768129
 30
0.0
 11
458.276415825828
 21
30.29904168195733
 31
0.0
  0
LINE
  5
41B
  8
0
 10
458.276415825828
 20
30.299042609434789
 30
0.0
 11
458.276415825828
 21
30.448893243191741
 31
0.0
  0
LINE
  5
41C
  8
0
 10
458.276415825828
 20
30.448893321248359
 30
0.0
 11
458.276415825828
 21
30.500004503758142
 31
0.0
  0
LINE
  5
41D
  8
0
 10
458.276415825828
 20
27.500004503758142
 30
0.0
 11
458.276415825828
 21
27.551113789843139
 31
0.0
  0
LINE
  5
41E
  8
0
 10
458.276415825828
 20
27.551115764324539
 30
0.0
 11
458.276415825828
 21
27.70096639808148
 31
0.0
  0
LINE
  5
41F
  8
0
 10
458.276415825828
 20
27.70096654002537
 30
0.0
 11
458.276415825828
 21
27.939344110111541
 31
0.0
  0
LINE
  5
420
  8
0
 10
458.276415825828
 20
27.939344331978312
 30
0.0
 11
458.276415825828
 21
29.000004503758131
 31
0.0
  0
LINE
  5
421
  8
0
 10
458.276415825828
 20
6.6250045037581291
 30
0.0
 11
458.276415825828
 21
6.8838235488606498
 31
0.0
  0
LINE
  5
422
  8
0
 10
458.276415825828
 20
6.8838238598009589
 30
0.0
 11
458.276415825828
 21
7.3321111142962136
 31
0.0
  0
LINE
  5
423
  8
0
 10
458.276415825828
 20
7.332111284944677
 30
0.0
 11
458.276415825828
 21
7.4910299075425666
 31
0.0
  0
LINE
  5
424
  8
0
 10
458.276415825828
 20
7.4910302776755158
 30
0.0
 11
458.276415825828
 21
7.5909303300471986
 31
0.0
  0
LINE
  5
425
  8
0
 10
458.276415825828
 20
7.5909310142280528
 30
0.0
 11
458.276415825828
 21
7.62500450375813
 31
0.0
  0
LINE
  5
426
  8
0
 10
458.276415825828
 20
5.62500450375813
 30
0.0
 11
458.276415825828
 21
5.6590784673935657
 31
0.0
  0
LINE
  5
427
  8
0
 10
458.276415825828
 20
5.659078677469064
 30
0.0
 11
458.276415825828
 21
5.7589790422399183
 31
0.0
  0
LINE
  5
428
  8
0
 10
458.276415825828
 20
5.7589790999736943
 30
0.0
 11
458.276415825828
 21
5.917897722571583
 31
0.0
  0
LINE
  5
429
  8
0
 10
458.276415825828
 20
5.917897786665125
 30
0.0
 11
458.276415825828
 21
6.12500450375813
 31
0.0
  0
LINE
  5
42A
  8
0
 10
458.276415825828
 20
6.1250047278860302
 30
0.0
 11
458.276415825828
 21
6.3661853976965928
 31
0.0
  0
LINE
  5
42B
  8
0
 10
458.276415825828
 20
6.3661854586556084
 30
0.0
 11
458.276415825828
 21
6.625004262593543
 31
0.0
  0
LINE
  5
42C
  8
0
 10
458.27641582582743
 20
10.50000450375841
 30
0.0
 11
458.5264158258264
 21
10.50000450375841
 31
0.0
  0
LINE
  5
42D
  8
0
 10
458.5264158258264
 20
18.50000450375796
 30
0.0
 11
458.27641582582743
 21
18.50000450375796
 31
0.0
  0
LINE
  5
42E
  8
0
 10
458.27641582582783
 20
14.500004986086079
 30
0.0
 11
458.27641582582783
 21
17.32843162850434
 31
0.0
  0
LINE
  5
42F
  8
0
 10
458.27641582582783
 20
17.32843240529893
 30
0.0
 11
458.27641582582783
 21
17.964105871300109
 31
0.0
  0
LINE
  5
430
  8
0
 10
458.27641582582783
 20
17.964106118895899
 30
0.0
 11
458.27641582582783
 21
18.363707772104039
 31
0.0
  0
LINE
  5
431
  8
0
 10
458.27641582582783
 20
18.36370780891442
 30
0.0
 11
458.27641582582783
 21
18.500004503758159
 31
0.0
  0
LINE
  5
432
  8
0
 10
458.27641582582783
 20
10.500004503758159
 30
0.0
 11
458.27641582582783
 21
10.636301198601901
 31
0.0
  0
LINE
  5
433
  8
0
 10
458.27641582582783
 20
10.63630139712216
 30
0.0
 11
458.27641582582783
 21
11.03590265768692
 31
0.0
  0
LINE
  5
434
  8
0
 10
458.27641582582783
 20
11.035902888620409
 30
0.0
 11
458.27641582582783
 21
11.671577379011969
 31
0.0
  0
LINE
  5
435
  8
0
 10
458.27641582582783
 20
11.671577635386861
 30
0.0
 11
458.27641582582783
 21
12.500003981751931
 31
0.0
  0
LINE
  5
436
  8
0
 10
458.27641582582783
 20
12.50000450375815
 30
0.0
 11
458.27641582582783
 21
13.4647280795146
 31
0.0
  0
LINE
  5
437
  8
0
 10
458.27641582582783
 20
13.464728323348069
 30
0.0
 11
458.27641582582783
 21
14.50000450375815
 31
0.0
  0
LINE
  5
438
  8
0
 10
73.541856421551756
 20
154.62500450375751
 30
0.0
 11
213.2918564215461
 21
154.62500450375751
 31
0.0
  0
LINE
  5
439
  8
0
 10
213.2918564215461
 20
100.00000450375769
 30
0.0
 11
73.541856421551756
 21
100.00000450375769
 31
0.0
  0
LINE
  5
43A
  8
0
 10
73.541856421551756
 20
154.62500450375751
 30
0.0
 11
73.541856421551756
 21
100.00000450375769
 31
0.0
  0
LINE
  5
43B
  8
0
 10
213.2918564215461
 20
100.00000450375769
 30
0.0
 11
213.2918564215461
 21
154.62500450375751
 31
0.0
  0
LINE
  5
43C
  8
0
 10
73.541856421551984
 20
100.00000450375769
 30
0.0
 11
213.2918564215517
 21
100.00000450375769
 31
0.0
  0
LINE
  5
43D
  8
0
 10
213.2918564215517
 20
0.0000045037577365
 30
0.0
 11
73.541856421551984
 21
0.0000045037577365
 31
0.0
  0
LINE
  5
43E
  8
0
 10
213.2918564215517
 20
100.00000450375769
 30
0.0
 11
213.2918564215517
 21
0.0000045037577365
 31
0.0
  0
LINE
  5
43F
  8
0
 10
73.541856421551984
 20
0.0000045037577365
 30
0.0
 11
73.541856421551984
 21
100.00000450375769
 31
0.0
  0
ARC
  5
440
  8
0
 10
143.41685642155261
 20
124.6250045037586
 30
0.0
 40
8.2500000000000124
 50
179.9999999999996
 51
359.99999999999858
  0
ARC
  5
441
  8
0
 10
143.41685642155261
 20
124.6250045037586
 30
0.0
 40
8.2499999999999911
 50
359.99999999999949
 51
179.9999999999998
  0
ARC
  5
442
  8
0
 10
143.41685642155261
 20
124.6250045037586
 30
0.0
 40
7.6875
 50
0.0000000000006355
 51
179.9999999999998
  0
ARC
  5
443
  8
0
 10
143.41685642155261
 20
124.6250045037586
 30
0.0
 40
7.6874999999999831
 50
180.00000000000031
 51
359.9999999999996
  0
LINE
  5
444
  8
0
 10
148.5393571955403
 20
122.1831486549612
 30
0.0
 11
148.34441671934991
 21
121.73423992480249
 31
0.0
  0
LINE
  5
445
  8
0
 10
148.34441671934991
 20
121.73423992480249
 30
0.0
 11
147.8935238622071
 21
121.5769978613104
 31
0.0
  0
LINE
  5
446
  8
0
 10
147.8935238622071
 20
121.5769978613104
 30
0.0
 11
147.56899509236581
 21
121.6412339724216
 31
0.0
  0
LINE
  5
447
  8
0
 10
147.56899509236581
 20
121.6412339724216
 30
0.0
 11
147.3335040209372
 21
121.8339423057549
 31
0.0
  0
LINE
  5
448
  8
0
 10
147.3335040209372
 20
121.8339423057549
 30
0.0
 11
147.142531798715
 21
122.59187881369139
 31
0.0
  0
LINE
  5
449
  8
0
 10
147.142531798715
 20
122.59187881369139
 30
0.0
 11
147.3265595764928
 21
123.35576770258029
 31
0.0
  0
LINE
  5
44A
  8
0
 10
147.3265595764928
 20
123.35576770258029
 30
0.0
 11
147.55634628284199
 21
123.5454998454374
 31
0.0
  0
LINE
  5
44B
  8
0
 10
147.55634628284199
 20
123.5454998454374
 30
0.0
 11
147.87765084633401
 21
123.6087438930565
 31
0.0
  0
LINE
  5
44C
  8
0
 10
147.87765084633401
 20
123.6087438930565
 30
0.0
 11
148.34590481458801
 21
123.46539071845331
 31
0.0
  0
LINE
  5
44D
  8
0
 10
148.34590481458801
 20
123.46539071845331
 30
0.0
 11
148.5393571955403
 21
123.0402915121041
 31
0.0
  0
LINE
  5
44E
  8
0
 10
148.5393571955403
 20
123.0402915121041
 30
0.0
 11
149.68221433839739
 21
123.0402915121041
 31
0.0
  0
LINE
  5
44F
  8
0
 10
149.68221433839739
 20
123.0402915121041
 30
0.0
 11
149.52199608442919
 21
123.687984964485
 31
0.0
  0
LINE
  5
450
  8
0
 10
149.52199608442919
 20
123.687984964485
 30
0.0
 11
149.15443656061981
 21
124.16677960734221
 31
0.0
  0
LINE
  5
451
  8
0
 10
149.15443656061981
 20
124.16677960734221
 30
0.0
 11
148.59540878284199
 21
124.46253853591359
 31
0.0
  0
LINE
  5
452
  8
0
 10
148.59540878284199
 20
124.46253853591359
 30
0.0
 11
147.860785766969
 21
124.5611248454374
 31
0.0
  0
LINE
  5
453
  8
0
 10
147.860785766969
 20
124.5611248454374
 30
0.0
 11
147.0627946955403
 21
124.429180400993
 31
0.0
  0
LINE
  5
454
  8
0
 10
147.0627946955403
 20
124.429180400993
 30
0.0
 11
146.4525516399849
 21
124.0333470676597
 31
0.0
  0
LINE
  5
455
  8
0
 10
146.4525516399849
 20
124.0333470676597
 30
0.0
 11
146.0652748542704
 21
123.4093391311517
 31
0.0
  0
LINE
  5
456
  8
0
 10
146.0652748542704
 20
123.4093391311517
 30
0.0
 11
145.93618259236581
 21
122.5928708771835
 31
0.0
  0
LINE
  5
457
  8
0
 10
145.93618259236581
 20
122.5928708771835
 30
0.0
 11
146.0658948939531
 21
121.7745425041676
 31
0.0
  0
LINE
  5
458
  8
0
 10
146.0658948939531
 20
121.7745425041676
 30
0.0
 11
146.455031798715
 21
121.15090659146919
 31
0.0
  0
LINE
  5
459
  8
0
 10
146.455031798715
 20
121.15090659146919
 30
0.0
 11
147.07035917966729
 21
120.75618932956441
 31
0.0
  0
LINE
  5
45A
  8
0
 10
147.07035917966729
 20
120.75618932956441
 30
0.0
 11
147.87864290982611
 21
120.6246169089295
 31
0.0
  0
LINE
  5
45B
  8
0
 10
147.87864290982611
 20
120.6246169089295
 30
0.0
 11
148.60173318760391
 21
120.726799448612
 31
0.0
  0
LINE
  5
45C
  8
0
 10
148.60173318760391
 20
120.726799448612
 30
0.0
 11
149.15790878284199
 21
121.03334706765961
 31
0.0
  0
LINE
  5
45D
  8
0
 10
149.15790878284199
 20
121.03334706765961
 30
0.0
 11
149.525344298715
 21
121.5251625438501
 31
0.0
  0
LINE
  5
45E
  8
0
 10
149.525344298715
 20
121.5251625438501
 30
0.0
 11
149.68221433839739
 21
122.1831486549612
 31
0.0
  0
LINE
  5
45F
  8
0
 10
149.68221433839739
 20
122.1831486549612
 30
0.0
 11
148.5393571955403
 21
122.1831486549612
 31
0.0
  0
LINE
  5
460
  8
0
 10
141.31762981777271
 20
122.9572228438844
 30
0.0
 11
142.49520918285199
 21
122.9572228438844
 31
0.0
  0
LINE
  5
461
  8
0
 10
142.49520918285199
 20
122.9572228438844
 30
0.0
 11
142.6420345796775
 21
123.465159351821
 31
0.0
  0
LINE
  5
462
  8
0
 10
142.6420345796775
 20
123.465159351821
 30
0.0
 11
143.8454075955506
 21
123.465159351821
 31
0.0
  0
LINE
  5
463
  8
0
 10
143.8454075955506
 20
123.465159351821
 30
0.0
 11
143.9872726749156
 21
122.9572228438844
 31
0.0
  0
LINE
  5
464
  8
0
 10
143.9872726749156
 20
122.9572228438844
 30
0.0
 11
145.19064569078861
 21
122.9572228438844
 31
0.0
  0
LINE
  5
465
  8
0
 10
145.19064569078861
 20
122.9572228438844
 30
0.0
 11
143.8612806114235
 21
126.7667466534083
 31
0.0
  0
LINE
  5
466
  8
0
 10
143.8612806114235
 20
126.7667466534083
 30
0.0
 11
142.63211394475681
 21
126.7667466534083
 31
0.0
  0
LINE
  5
467
  8
0
 10
142.63211394475681
 20
126.7667466534083
 30
0.0
 11
141.31762981777271
 21
122.9572228438844
 31
0.0
  0
LINE
  5
468
  8
0
 10
142.8622726749156
 20
124.29055617721779
 30
0.0
 11
143.2481853733284
 21
125.5941276057892
 31
0.0
  0
LINE
  5
469
  8
0
 10
143.2481853733284
 20
125.5941276057892
 30
0.0
 11
143.6251695003125
 21
124.29055617721779
 31
0.0
  0
LINE
  5
46A
  8
0
 10
143.6251695003125
 20
124.29055617721779
 30
0.0
 11
142.8622726749156
 21
124.29055617721779
 31
0.0
  0
LINE
  5
46B
  8
0
 10
137.55689862751129
 20
124.6976111530647
 30
0.0
 11
139.25630338941619
 21
124.6976111530647
 31
0.0
  0
LINE
  5
46C
  8
0
 10
139.25630338941619
 20
124.6976111530647
 30
0.0
 11
140.0241605322733
 21
124.73630162925519
 31
0.0
  0
LINE
  5
46D
  8
0
 10
140.0241605322733
 20
124.73630162925519
 30
0.0
 11
140.43685894497159
 21
124.86824607369959
 31
0.0
  0
LINE
  5
46E
  8
0
 10
140.43685894497159
 20
124.86824607369959
 30
0.0
 11
140.84509307195589
 21
125.2511825816361
 31
0.0
  0
LINE
  5
46F
  8
0
 10
140.84509307195589
 20
125.2511825816361
 30
0.0
 11
140.9854700560827
 21
125.8384841689377
 31
0.0
  0
LINE
  5
470
  8
0
 10
140.9854700560827
 20
125.8384841689377
 30
0.0
 11
140.84162084973349
 21
126.40148020068381
 31
0.0
  0
LINE
  5
471
  8
0
 10
140.84162084973349
 20
126.40148020068381
 30
0.0
 11
140.39816846878119
 21
126.72638099433451
 31
0.0
  0
LINE
  5
472
  8
0
 10
140.39816846878119
 20
126.72638099433451
 30
0.0
 11
140.7434065640193
 21
127.04384131179491
 31
0.0
  0
LINE
  5
473
  8
0
 10
140.7434065640193
 20
127.04384131179491
 30
0.0
 11
140.85848592909861
 21
127.4962222641758
 31
0.0
  0
LINE
  5
474
  8
0
 10
140.85848592909861
 20
127.4962222641758
 30
0.0
 11
140.7047160878289
 21
128.05624210544559
 31
0.0
  0
LINE
  5
475
  8
0
 10
140.7047160878289
 20
128.05624210544559
 30
0.0
 11
140.26225577036851
 21
128.39602385147739
 31
0.0
  0
LINE
  5
476
  8
0
 10
140.26225577036851
 20
128.39602385147739
 30
0.0
 11
139.86691846878119
 21
128.48134131179489
 31
0.0
  0
LINE
  5
477
  8
0
 10
139.86691846878119
 20
128.48134131179489
 30
0.0
 11
139.13328751640029
 21
128.50713496258851
 31
0.0
  0
LINE
  5
478
  8
0
 10
139.13328751640029
 20
128.50713496258851
 30
0.0
 11
137.55689862751129
 21
128.50713496258851
 31
0.0
  0
LINE
  5
479
  8
0
 10
137.55689862751129
 20
128.50713496258851
 30
0.0
 11
137.55689862751129
 21
124.6976111530647
 31
0.0
  0
LINE
  5
47A
  8
0
 10
138.7632478338605
 20
125.5865000419536
 30
0.0
 11
138.7632478338605
 21
126.28491274036629
 31
0.0
  0
LINE
  5
47B
  8
0
 10
138.7632478338605
 20
126.28491274036629
 30
0.0
 11
139.31185894497159
 21
126.28491274036629
 31
0.0
  0
LINE
  5
47C
  8
0
 10
139.31185894497159
 20
126.28491274036629
 30
0.0
 11
139.72108513544771
 21
126.20554766100121
 31
0.0
  0
LINE
  5
47D
  8
0
 10
139.72108513544771
 20
126.20554766100121
 30
0.0
 11
139.84261291322559
 21
125.9386825816361
 31
0.0
  0
LINE
  5
47E
  8
0
 10
139.84261291322559
 20
125.9386825816361
 30
0.0
 11
139.72356529417809
 21
125.66884131179479
 31
0.0
  0
LINE
  5
47F
  8
0
 10
139.72356529417809
 20
125.66884131179479
 30
0.0
 11
139.32277164338441
 21
125.5865000419536
 31
0.0
  0
LINE
  5
480
  8
0
 10
139.32277164338441
 20
125.5865000419536
 30
0.0
 11
138.7632478338605
 21
125.5865000419536
 31
0.0
  0
LINE
  5
481
  8
0
 10
138.7632478338605
 20
126.983325438779
 30
0.0
 11
138.7632478338605
 21
127.61824607369959
 31
0.0
  0
LINE
  5
482
  8
0
 10
138.7632478338605
 20
127.61824607369959
 30
0.0
 11
139.09757323068581
 21
127.61824607369959
 31
0.0
  0
LINE
  5
483
  8
0
 10
139.09757323068581
 20
127.61824607369959
 30
0.0
 11
139.60600577036851
 21
127.55078575623931
 31
0.0
  0
LINE
  5
484
  8
0
 10
139.60600577036851
 20
127.55078575623931
 30
0.0
 11
139.7156287862415
 21
127.30078575623931
 31
0.0
  0
LINE
  5
485
  8
0
 10
139.7156287862415
 20
127.30078575623931
 30
0.0
 11
139.61344624655879
 21
127.05574607369959
 31
0.0
  0
LINE
  5
486
  8
0
 10
139.61344624655879
 20
127.05574607369959
 30
0.0
 11
139.26126370687641
 21
126.983325438779
 31
0.0
  0
LINE
  5
487
  8
0
 10
139.26126370687641
 20
126.983325438779
 30
0.0
 11
138.7632478338605
 21
126.983325438779
 31
0.0
  0
ARC
  5
488
  8
0
 10
143.41685642155221
 20
124.6250045037593
 30
0.0
 40
9.0000000000000089
 50
179.99999999999969
 51
359.99999999999881
  0
ARC
  5
489
  8
0
 10
143.41685642155221
 20
124.6250045037593
 30
0.0
 40
9.0000000000000089
 50
359.99999999999949
 51
179.99999999999969
  0
LINE
  5
48A
  8
0
 10
213.29185642155201
 20
39.75000450375807
 30
0.0
 11
213.5418564215511
 21
39.75000450375807
 31
0.0
  0
LINE
  5
48B
  8
0
 10
213.5418564215511
 20
41.250004503758412
 30
0.0
 11
213.29185642155201
 21
41.250004503758412
 31
0.0
  0
LINE
  5
48C
  8
0
 10
213.29185642155201
 20
27.500004503757971
 30
0.0
 11
213.5418564215511
 21
27.500004503757971
 31
0.0
  0
LINE
  5
48D
  8
0
 10
213.5418564215511
 20
30.50000450375796
 30
0.0
 11
213.29185642155201
 21
30.50000450375796
 31
0.0
  0
LINE
  5
48E
  8
0
 10
213.29185642155201
 20
5.6250045037580758
 30
0.0
 11
213.5418564215511
 21
5.6250045037580758
 31
0.0
  0
LINE
  5
48F
  8
0
 10
213.5418564215511
 20
7.625004503757963
 30
0.0
 11
213.29185642155201
 21
7.625004503757963
 31
0.0
  0
LINE
  5
490
  8
0
 10
213.54185642155221
 20
41.250004503758127
 30
0.0
 11
213.54185642155221
 21
41.224450808908692
 31
0.0
  0
LINE
  5
491
  8
0
 10
213.54185642155221
 20
41.224448873474927
 30
0.0
 11
213.54185642155221
 21
41.030335256035492
 31
0.0
  0
LINE
  5
492
  8
0
 10
213.54185642155221
 20
41.030334589648042
 30
0.0
 11
213.54185642155221
 21
40.694119208277179
 31
0.0
  0
LINE
  5
493
  8
0
 10
213.54185642155221
 20
40.694118787585019
 30
0.0
 11
213.54185642155221
 21
40.500004503758127
 31
0.0
  0
LINE
  5
494
  8
0
 10
213.54185642155221
 20
40.50000450375812
 30
0.0
 11
213.54185642155221
 21
40.305890219931229
 31
0.0
  0
LINE
  5
495
  8
0
 10
213.54185642155221
 20
40.305889799238642
 30
0.0
 11
213.54185642155221
 21
39.969674417868212
 31
0.0
  0
LINE
  5
496
  8
0
 10
213.54185642155221
 20
39.96967375147981
 30
0.0
 11
213.54185642155221
 21
39.775560134041342
 31
0.0
  0
LINE
  5
497
  8
0
 10
213.54185642155221
 20
39.775558198605118
 30
0.0
 11
213.54185642155221
 21
39.750004503758142
 31
0.0
  0
LINE
  5
498
  8
0
 10
213.54185642155201
 20
30.500004503758142
 30
0.0
 11
213.54185642155201
 21
30.44889332124837
 31
0.0
  0
LINE
  5
499
  8
0
 10
213.54185642155201
 20
30.448893243191751
 30
0.0
 11
213.54185642155201
 21
29.75000554776814
 31
0.0
  0
LINE
  5
49A
  8
0
 10
213.54185642155201
 20
29.750004503758142
 30
0.0
 11
213.54185642155201
 21
29.388233071411928
 31
0.0
  0
LINE
  5
49B
  8
0
 10
213.54185642155201
 20
29.388231991884851
 30
0.0
 11
213.54185642155201
 21
29.00000546841358
 31
0.0
  0
LINE
  5
49C
  8
0
 10
213.54185642155201
 20
29.000004503758131
 30
0.0
 11
213.54185642155201
 21
28.611776083844109
 31
0.0
  0
LINE
  5
49D
  8
0
 10
213.54185642155201
 20
28.611775936104351
 30
0.0
 11
213.54185642155201
 21
28.250005400270229
 31
0.0
  0
LINE
  5
49E
  8
0
 10
213.54185642155201
 20
28.250004503758142
 30
0.0
 11
213.54185642155201
 21
27.939344331978312
 31
0.0
  0
LINE
  5
49F
  8
0
 10
213.54185642155201
 20
27.939344110111541
 30
0.0
 11
213.54185642155201
 21
27.551115764324539
 31
0.0
  0
LINE
  5
4A0
  8
0
 10
213.54185642155201
 20
27.551113789843139
 30
0.0
 11
213.54185642155201
 21
27.500004503758142
 31
0.0
  0
LINE
  5
4A1
  8
0
 10
213.54185642155201
 20
7.62500450375813
 30
0.0
 11
213.54185642155201
 21
7.5909310142280564
 31
0.0
  0
LINE
  5
4A2
  8
0
 10
213.54185642155201
 20
7.5909303300472004
 30
0.0
 11
213.54185642155201
 21
7.4910302776755184
 31
0.0
  0
LINE
  5
4A3
  8
0
 10
213.54185642155201
 20
7.491029907542571
 30
0.0
 11
213.54185642155201
 21
7.3321112849446823
 31
0.0
  0
LINE
  5
4A4
  8
0
 10
213.54185642155201
 20
7.3321111142962181
 30
0.0
 11
213.54185642155201
 21
6.8838238598009669
 31
0.0
  0
LINE
  5
4A5
  8
0
 10
213.54185642155201
 20
6.8838235488606561
 30
0.0
 11
213.54185642155201
 21
6.6250045037581371
 31
0.0
  0
LINE
  5
4A6
  8
0
 10
213.54185642155201
 20
6.6250042625935386
 30
0.0
 11
213.54185642155201
 21
6.3661854586556057
 31
0.0
  0
LINE
  5
4A7
  8
0
 10
213.54185642155201
 20
6.3661853976965892
 30
0.0
 11
213.54185642155201
 21
6.1250047278860258
 31
0.0
  0
LINE
  5
4A8
  8
0
 10
213.54185642155201
 20
6.1250045037581273
 30
0.0
 11
213.54185642155201
 21
5.9178977866651188
 31
0.0
  0
LINE
  5
4A9
  8
0
 10
213.54185642155201
 20
5.9178977225715803
 30
0.0
 11
213.54185642155201
 21
5.7589790999736907
 31
0.0
  0
LINE
  5
4AA
  8
0
 10
213.54185642155201
 20
5.7589790422399139
 30
0.0
 11
213.54185642155201
 21
5.6590786774690622
 31
0.0
  0
LINE
  5
4AB
  8
0
 10
213.54185642155201
 20
5.6590784673935657
 30
0.0
 11
213.54185642155201
 21
5.62500450375813
 31
0.0
  0
LINE
  5
4AC
  8
0
 10
213.29185642155201
 20
10.50000450375841
 30
0.0
 11
213.5418564215511
 21
10.50000450375841
 31
0.0
  0
LINE
  5
4AD
  8
0
 10
213.5418564215511
 20
18.50000450375796
 30
0.0
 11
213.29185642155201
 21
18.50000450375796
 31
0.0
  0
LINE
  5
4AE
  8
0
 10
213.54185642155201
 20
18.500004503758159
 30
0.0
 11
213.54185642155201
 21
17.328432405298969
 31
0.0
  0
LINE
  5
4AF
  8
0
 10
213.54185642155201
 20
17.328431628504362
 30
0.0
 11
213.54185642155201
 21
15.53528068416826
 31
0.0
  0
LINE
  5
4B0
  8
0
 10
213.54185642155201
 20
15.53528044549109
 30
0.0
 11
213.54185642155201
 21
14.5000049860861
 31
0.0
  0
LINE
  5
4B1
  8
0
 10
213.54185642155201
 20
14.50000450375815
 30
0.0
 11
213.54185642155201
 21
13.46472832334806
 31
0.0
  0
LINE
  5
4B2
  8
0
 10
213.54185642155201
 20
13.464728079514581
 30
0.0
 11
213.54185642155201
 21
12.50000450375815
 31
0.0
  0
LINE
  5
4B3
  8
0
 10
213.54185642155201
 20
12.50000398175192
 30
0.0
 11
213.54185642155201
 21
11.035902888620409
 31
0.0
  0
LINE
  5
4B4
  8
0
 10
213.54185642155201
 20
11.035902657686909
 30
0.0
 11
213.54185642155201
 21
10.500004503758159
 31
0.0
  0
LINE
  5
4B5
  8
0
 10
261.4759165142213
 20
364.62715505698679
 30
0.0
 11
261.47591651422113
 21
224.87715505699251
 31
0.0
  0
LINE
  5
4B6
  8
0
 10
261.47591651422113
 20
224.87715505699251
 30
0.0
 11
402.22591651421811
 21
224.87715505699219
 31
0.0
  0
LINE
  5
4B7
  8
0
 10
402.22591651421811
 20
224.87715505699219
 30
0.0
 11
402.22591651421862
 21
364.62715505698651
 31
0.0
  0
LINE
  5
4B8
  8
0
 10
402.22591651421862
 20
364.62715505698651
 30
0.0
 11
261.4759165142213
 21
364.62715505698679
 31
0.0
  0
LINE
  5
4B9
  8
0
 10
400.6009165142213
 20
363.00215505698679
 30
0.0
 11
400.60091651422113
 21
226.50215505698691
 31
0.0
1001
ACAD
1000
ASC_BOUNDS
1002
{
1070
    19
1005
514
1002
}
  0
LINE
  5
4BA
  8
0
 10
400.60091651422113
 20
226.50215505698691
 30
0.0
 11
263.1009165142213
 21
226.50215505698719
 31
0.0
1001
ACAD
1000
ASC_BOUNDS
1002
{
1070
    19
1005
514
1002
}
  0
LINE
  5
4BB
  8
0
 10
263.1009165142213
 20
226.50215505698719
 30
0.0
 11
263.10091651422158
 21
363.00215505698719
 31
0.0
1001
ACAD
1000
ASC_BOUNDS
1002
{
1070
    19
1005
514
1002
}
  0
LINE
  5
4BC
  8
0
 10
263.10091651422158
 20
363.00215505698719
 30
0.0
 11
400.6009165142213
 21
363.00215505698679
 31
0.0
1001
ACAD
1000
ASC_BOUNDS
1002
{
1070
    19
1005
514
1002
}
  0
LINE
  5
4BD
  8
0
 10
402.22591651421811
 20
224.87715505698679
 30
0.0
 11
403.47591651422181
 21
224.87715505698679
 31
0.0
  0
LINE
  5
4BE
  8
0
 10
403.47591651422181
 20
224.87715505698679
 30
0.0
 11
403.47591651422181
 21
364.62715505698668
 31
0.0
  0
LINE
  5
4BF
  8
0
 10
403.47591651422181
 20
364.62715505698668
 30
0.0
 11
402.22591651421862
 21
364.62715505698668
 31
0.0
  0
LINE
  5
4C0
  8
0
 10
402.47591651422152
 20
298.7521550569839
 30
0.0
 11
402.22591651422152
 21
298.7521550569839
 31
0.0
  0
LINE
  5
4C1
  8
0
 10
402.22591651422152
 20
290.75215505698429
 30
0.0
 11
402.47591651422152
 21
290.75215505698429
 31
0.0
  0
LINE
  5
4C2
  8
0
 10
402.47591651422198
 20
294.7521539082681
 30
0.0
 11
402.47591651422198
 21
293.7168788765735
 31
0.0
  0
LINE
  5
4C3
  8
0
 10
402.47591651422198
 20
293.71687844195009
 30
0.0
 11
402.47591651422198
 21
291.9237279322374
 31
0.0
  0
LINE
  5
4C4
  8
0
 10
402.47591651422198
 20
291.92372638802323
 30
0.0
 11
402.47591651422198
 21
291.28805344184582
 31
0.0
  0
LINE
  5
4C5
  8
0
 10
402.47591651422198
 20
291.2880529724838
 30
0.0
 11
402.47591651422198
 21
290.88845175182729
 31
0.0
  0
LINE
  5
4C6
  8
0
 10
402.47591651422198
 20
290.88845054968391
 30
0.0
 11
402.47591651422198
 21
290.7521550569835
 31
0.0
  0
LINE
  5
4C7
  8
0
 10
402.47591651422198
 20
298.75215505698361
 30
0.0
 11
402.47591651422198
 21
298.61586073702392
 31
0.0
  0
LINE
  5
4C8
  8
0
 10
402.47591651422198
 20
298.61585836213987
 30
0.0
 11
402.47591651422198
 21
298.21625791422639
 31
0.0
  0
LINE
  5
4C9
  8
0
 10
402.47591651422198
 20
298.2162566721214
 30
0.0
 11
402.47591651422198
 21
295.78743229036752
 31
0.0
  0
LINE
  5
4CA
  8
0
 10
402.47591651422198
 20
295.78743123739372
 30
0.0
 11
402.47591651422198
 21
294.75215505698361
 31
0.0
  0
LINE
  5
4CB
  8
0
 10
327.4759165142209
 20
224.62715505698759
 30
0.0
 11
327.4759165142209
 21
224.87715505698671
 31
0.0
  0
LINE
  5
4CC
  8
0
 10
325.9759165142209
 20
224.87715505698671
 30
0.0
 11
325.9759165142209
 21
224.62715505698759
 31
0.0
  0
LINE
  5
4CD
  8
0
 10
267.7259165142209
 20
224.62715505698759
 30
0.0
 11
267.7259165142209
 21
224.87715505698671
 31
0.0
  0
LINE
  5
4CE
  8
0
 10
264.7259165142209
 20
224.87715505698671
 30
0.0
 11
264.7259165142209
 21
224.62715505698759
 31
0.0
  0
LINE
  5
4CF
  8
0
 10
263.85091651422039
 20
224.87715505698671
 30
0.0
 11
263.85091651422039
 21
224.62715505698759
 31
0.0
  0
LINE
  5
4D0
  8
0
 10
327.47591651422141
 20
224.62715505698651
 30
0.0
 11
327.45036088393817
 21
224.62715505698651
 31
0.0
  0
LINE
  5
4D1
  8
0
 10
327.45036057383169
 20
224.62715505698651
 30
0.0
 11
327.37543607896561
 21
224.62715505698651
 31
0.0
  0
LINE
  5
4D2
  8
0
 10
327.37543556705958
 20
224.62715505698651
 30
0.0
 11
327.25624726650489
 21
224.62715505698651
 31
0.0
  0
LINE
  5
4D3
  8
0
 10
327.25624660011113
 20
224.62715505698651
 30
0.0
 11
326.92003121874558
 21
224.62715505698651
 31
0.0
  0
LINE
  5
4D4
  8
0
 10
326.92003079804817
 20
224.62715505698651
 30
0.0
 11
326.53180223039431
 21
224.62715505698651
 31
0.0
  0
LINE
  5
4D5
  8
0
 10
326.53180180970708
 20
224.62715505698651
 30
0.0
 11
326.19558642833141
 21
224.62715505698651
 31
0.0
  0
LINE
  5
4D6
  8
0
 10
326.19558576194908
 20
224.62715505698651
 30
0.0
 11
326.00147214450448
 21
224.62715505698651
 31
0.0
  0
LINE
  5
4D7
  8
0
 10
326.0014702090798
 20
224.62715505698651
 30
0.0
 11
325.9759165142213
 21
224.62715505698651
 31
0.0
  0
LINE
  5
4D8
  8
0
 10
267.7259165142213
 20
224.62715505698671
 30
0.0
 11
267.52495461989793
 21
224.62715505698671
 31
0.0
  0
LINE
  5
4D9
  8
0
 10
267.52495447795809
 20
224.62715505698671
 30
0.0
 11
266.97591860224702
 21
224.62715505698671
 31
0.0
  0
LINE
  5
4DA
  8
0
 10
266.97591651422141
 20
224.62715505698671
 30
0.0
 11
266.61414792312348
 21
224.62715505698671
 31
0.0
  0
LINE
  5
4DB
  8
0
 10
266.61414508187499
 20
224.62715505698671
 30
0.0
 11
266.22591844353792
 21
224.62715505698671
 31
0.0
  0
LINE
  5
4DC
  8
0
 10
266.2259165142213
 20
224.62715505698671
 30
0.0
 11
265.83768902609859
 21
224.62715505698671
 31
0.0
  0
LINE
  5
4DD
  8
0
 10
265.83768794656748
 20
224.62715505698671
 30
0.0
 11
264.92687840854461
 21
224.62715505698671
 31
0.0
  0
LINE
  5
4DE
  8
0
 10
264.9268761351554
 20
224.62715505698671
 30
0.0
 11
264.77702777478771
 21
224.62715505698671
 31
0.0
  0
LINE
  5
4DF
  8
0
 10
264.77702769674079
 20
224.62715505698671
 30
0.0
 11
264.72591651422141
 21
224.62715505698671
 31
0.0
  0
LINE
  5
4E0
  8
0
 10
264.72481566004689
 20
224.62715505698671
 30
0.0
 11
264.59209746911853
 21
224.62715505698671
 31
0.0
  0
LINE
  5
4E1
  8
0
 10
264.5920969082008
 20
224.62715505698671
 30
0.0
 11
264.35091830725167
 21
224.62715505698671
 31
0.0
  0
LINE
  5
4E2
  8
0
 10
264.35091651422113
 20
224.62715505698671
 30
0.0
 11
264.14380973303452
 21
224.62715505698671
 31
0.0
  0
LINE
  5
4E3
  8
0
 10
264.14380884452339
 20
224.62715505698671
 30
0.0
 11
263.98489111043659
 21
224.62715505698671
 31
0.0
  0
LINE
  5
4E4
  8
0
 10
263.98489042791039
 20
224.62715505698671
 30
0.0
 11
263.88499068793197
 21
224.62715505698671
 31
0.0
  0
LINE
  5
4E5
  8
0
 10
263.88498810736218
 20
224.62715505698671
 30
0.0
 11
263.85091651422113
 21
224.62715505698671
 31
0.0
  0
LINE
  5
4E6
  8
0
 10
292.6009165142209
 20
224.62715505698759
 30
0.0
 11
292.6009165142209
 21
224.87715505698671
 31
0.0
  0
LINE
  5
4E7
  8
0
 10
284.60091651422113
 20
224.87715505698671
 30
0.0
 11
284.60091651422113
 21
224.62715505698759
 31
0.0
  0
LINE
  5
4E8
  8
0
 10
292.60091651422141
 20
224.6271550569866
 30
0.0
 11
292.0650183602981
 21
224.6271550569866
 31
0.0
  0
LINE
  5
4E9
  8
0
 10
292.06501812935932
 20
224.6271550569866
 30
0.0
 11
291.42934497122269
 21
224.6271550569866
 31
0.0
  0
LINE
  5
4EA
  8
0
 10
291.42934363896762
 20
224.6271550569866
 30
0.0
 11
290.60091860224787
 21
224.6271550569866
 31
0.0
  0
LINE
  5
4EB
  8
0
 10
290.60091651422141
 20
224.6271550569866
 30
0.0
 11
289.63619293846932
 21
224.6271550569866
 31
0.0
  0
LINE
  5
4EC
  8
0
 10
289.63619269463152
 20
224.6271550569866
 30
0.0
 11
288.60091651422141
 21
224.6271550569866
 31
0.0
  0
LINE
  5
4ED
  8
0
 10
288.60091458491428
 20
224.6271550569866
 30
0.0
 11
285.7724900720707
 21
224.6271550569866
 31
0.0
  0
LINE
  5
4EE
  8
0
 10
285.77248938947542
 20
224.6271550569866
 30
0.0
 11
284.7372132090652
 21
224.6271550569866
 31
0.0
  0
LINE
  5
4EF
  8
0
 10
284.73721047234682
 20
224.6271550569866
 30
0.0
 11
284.60091651422141
 21
224.6271550569866
 31
0.0
  0
INSERT
  5
50B
  8
0
  6
CONTINUOUS
  2
*X3
 10
0.0
 20
0.0
 30
0.0
1001
GRADIENTCOLOR1ACI
1070
     5
1001
GRADIENTCOLOR2ACI
1070
     2
1001
ACAD
1000
HATCH
1002
{
1070
    19
1000
NET
1040
12.0
1040
0.0
1000
ASC_BOUNDS
1070
     4
1070
     1
1070
     4
1005
3BA
1005
3BB
1005
3AE
1005
3B9
1070
     1
1070
     4
1005
3B4
1005
3BB
1005
3B2
1005
3B9
1070
     1
1070
     4
1005
3AC
1005
3BB
1005
3AA
1005
3B9
1070
     1
1070
     4
1005
3A7
1005
3BB
1005
3B8
1005
3B9
1000
ASC_SEEDPOINT
1011
467.16727699407642
1021
0.0
1031
0.0
1021
78.351266413684925
1031
0.0
1000
R14_HATCH_DATA
1000
50B
1011
1.0
1021
0.0
1031
0.0
1021
0.0
1031
0.0
1011
0.0
1021
0.0
1031
0.0
1021
1.0
1031
0.0
1011
0.0
1021
0.0
1031
0.0
1021
0.0
1031
1.0
1040
0.0
1010
0.0
1020
0.0
1030
1.0
1000
NET
1070
     0
1070
     1
1071
        4
1071
        7
1070
     0
1070
     1
1071
        4
1040
473.40141582582589
1040
98.375004503757282
1040
460.15141582582618
1040
98.375004503757125
1040
460.15141582582709
1040
4.000004503756613
1040
473.40141582582589
1040
4.0000045037567409
1071
        4
1005
3B9
1005
3B8
1005
3BB
1005
3A7
1071
        7
1070
     0
1070
     1
1071
        4
1040
515.39863779700022
1040
98.375004503757722
1040
499.40141582582692
1040
98.375004503757566
1040
499.40141582582692
1040
4.0000045037570251
1040
515.39863779700022
1040
4.0000045037571956
1071
        4
1005
3B9
1005
3AA
1005
3BB
1005
3AC
1071
        7
1070
     0
1070
     1
1071
        4
1040
557.41041548049839
1040
98.375004503758163
1040
541.39390142657339
1040
98.375004503757992
1040
541.39390142657339
1040
4.0000045037574523
1040
557.41041548049839
1040
4.000004503757622
1071
        4
1005
3B9
1005
3B2
1005
3BB
1005
3B4
1071
        7
1070
     0
1070
     1
1071
        4
1040
596.65141582582623
1040
98.375004503758575
1040
583.39343114259589
1040
98.375004503758433
1040
583.39343114259589
1040
4.000004503757892
1040
596.65141582582714
1040
4.0000045037580056
1071
        4
1005
3B9
1005
3AE
1005
3BB
1005
3BA
1070
     1
1070
     1
1040
0.0
1040
12.0
1070
     0
1070
     2
1040
0.0
1040
-28.74818335581336
1040
0.0
1040
0.0
1040
1.5
1070
     0
1040
1.5707963267948959
1040
-28.74818335581336
1040
0.0
1040
-1.5
1040
0.0000000000000001
1070
     0
1040
0.1604879827066072
1071
        4
1040
467.16727699407642
1040
78.351266413684925
1040
0.0
1040
508.2720280649811
1040
49.9448931704801
1040
0.0
1040
549.69791202473994
1040
46.895621640226409
1040
0.0
1040
590.8026630956449
1040
42.883422348272681
1040
0.0
1002
}
  0
INSERT
  5
514
  8
0
  6
CONTINUOUS
  2
*X4
 10
0.0
 20
0.0
 30
0.0
1001
GRADIENTCOLOR1ACI
1070
     5
1001
GRADIENTCOLOR2ACI
1070
     2
1001
ACAD
1000
HATCH
1002
{
1070
    19
1000
ANSI31
1040
12.0
1040
2.3561944901923439
1000
ASC_BOUNDS
1070
     1
1070
     1
1070
     4
1005
4B9
1005
4BA
1005
4BB
1005
4BC
1000
ASC_SEEDPOINT
1011
329.13101595162988
1021
0.0
1031
0.0
1021
283.8688326899275
1031
0.0
1000
R14_HATCH_DATA
1000
514
1011
1.0
1021
0.0
1031
0.0
1021
0.0
1031
0.0
1011
0.0
1021
0.0
1031
0.0
1021
1.0
1031
0.0
1011
0.0
1021
0.0
1031
0.0
1021
0.0
1031
1.0
1040
0.0
1010
0.0
1020
0.0
1030
1.0
1000
ANSI31
1070
     0
1070
     1
1071
        1
1071
        7
1070
     0
1070
     1
1071
        4
1040
400.6009165142213
1040
363.00215505698679
1040
263.10091651422158
1040
363.00215505698719
1040
263.1009165142213
1040
226.50215505698719
1040
400.60091651422113
1040
226.50215505698691
1071
        4
1005
4BC
1005
4BB
1005
4BA
1005
4B9
1070
     1
1070
     1
1040
2.3561944901923439
1040
12.0
1070
     0
1070
     1
1040
3.1415926535897931
1040
0.0
1040
0.0
1040
-0.0000000000000002
1040
-1.5
1070
     0
1040
1.0625155853284181
1071
        1
1040
329.13101595162988
1040
283.8688326899275
1040
0.0
1002
}
  0
ENDSEC
  0
EOF
