  0
SECTION
  2
HEADER
  9
$ACADVER
  1
AC1009
  9
$INSBASE
 10
0.0
 20
0.0
 30
0.0
  9
$EXTMIN
 10
-0.0338981372997296
 20
-0.0197112221439966
 30
-0.0015258207003583
  9
$EXTMAX
 10
1110.7395972211341
 20
685.49033834735883
 30
0.0000000349246037
  9
$LIMMIN
 10
0.0
 20
0.0
  9
$LIMMAX
 10
12.0
 20
9.0
  9
$ORTHOMODE
 70
     1
  9
$REGENMODE
 70
     1
  9
$FILLMODE
 70
     1
  9
$QTEXTMODE
 70
     0
  9
$MIRRTEXT
 70
     0
  9
$DRAGMODE
 70
     2
  9
$LTSCALE
 40
1.0
  9
$OSMODE
 70
    37
  9
$ATTMODE
 70
     1
  9
$TEXTSIZE
 40
0.2
  9
$TRACEWID
 40
0.05
  9
$TEXTSTYLE
  7
ROMANS
  9
$CLAYER
  8
0
  9
$CELTYPE
  6
BYLAYER
  9
$CECOLOR
 62
   256
  9
$DIMSCALE
 40
1.0
  9
$DIMASZ
 40
0.09375
  9
$DIMEXO
 40
0.0625
  9
$DIMDLI
 40
0.375
  9
$DIMRND
 40
0.0
  9
$DIMDLE
 40
0.0
  9
$DIMEXE
 40
0.03125
  9
$DIMTP
 40
0.0
  9
$DIMTM
 40
0.0
  9
$DIMTXT
 40
0.09375
  9
$DIMCEN
 40
0.09375
  9
$DIMTSZ
 40
0.0
  9
$DIMTOL
 70
     0
  9
$DIMLIM
 70
     0
  9
$DIMTIH
 70
     0
  9
$DIMTOH
 70
     0
  9
$DIMSE1
 70
     0
  9
$DIMSE2
 70
     0
  9
$DIMTAD
 70
     0
  9
$DIMZIN
 70
     0
  9
$DIMBLK
  1

  9
$DIMASO
 70
     1
  9
$DIMSHO
 70
     1
  9
$DIMPOST
  1

  9
$DIMAPOST
  1

  9
$DIMALT
 70
     0
  9
$DIMALTD
 70
     2
  9
$DIMALTF
 40
25.399999999999999
  9
$DIMLFAC
 40
1.0
  9
$DIMTOFL
 70
     0
  9
$DIMTVP
 40
0.0
  9
$DIMTIX
 70
     0
  9
$DIMSOXD
 70
     0
  9
$DIMSAH
 70
     0
  9
$DIMBLK1
  1

  9
$DIMBLK2
  1

  9
$DIMSTYLE
  2
BAC
  9
$DIMCLRD
 70
     0
  9
$DIMCLRE
 70
     6
  9
$DIMCLRT
 70
     0
  9
$DIMTFAC
 40
1.0
  9
$DIMGAP
 40
0.0625
  9
$LUNITS
 70
     5
  9
$LUPREC
 70
     6
  9
$SKETCHINC
 40
0.1
  9
$FILLETRAD
 40
0.5
  9
$AUNITS
 70
     0
  9
$AUPREC
 70
     0
  9
$MENU
  1
.
  9
$ELEVATION
 40
0.0
  9
$PELEVATION
 40
0.0
  9
$THICKNESS
 40
0.0
  9
$LIMCHECK
 70
     0
  9
$BLIPMODE
 70
     0
  9
$CHAMFERA
 40
0.5
  9
$CHAMFERB
 40
0.5
  9
$SKPOLY
 70
     0
  9
$TDCREATE
 40
2456834.650311864
  9
$TDUPDATE
 40
2456834.6533442591
  9
$TDINDWG
 40
0.0030342245
  9
$TDUSRTIMER
 40
0.0030337616
  9
$USRTIMER
 70
     1
  9
$ANGBASE
 50
0.0
  9
$ANGDIR
 70
     0
  9
$PDMODE
 70
     0
  9
$PDSIZE
 40
0.0
  9
$PLINEWID
 40
0.0
  9
$COORDS
 70
     1
  9
$SPLFRAME
 70
     0
  9
$SPLINETYPE
 70
     6
  9
$SPLINESEGS
 70
     8
  9
$ATTDIA
 70
     0
  9
$ATTREQ
 70
     1
  9
$HANDLING
 70
     1
  9
$HANDSEED
  5
2298
  9
$SURFTAB1
 70
     6
  9
$SURFTAB2
 70
     6
  9
$SURFTYPE
 70
     6
  9
$SURFU
 70
     6
  9
$SURFV
 70
     6
  9
$UCSNAME
  2

  9
$UCSORG
 10
0.0
 20
0.0
 30
0.0
  9
$UCSXDIR
 10
1.0
 20
0.0
 30
0.0
  9
$UCSYDIR
 10
0.0
 20
1.0
 30
0.0
  9
$PUCSNAME
  2

  9
$PUCSORG
 10
0.0
 20
0.0
 30
0.0
  9
$PUCSXDIR
 10
1.0
 20
0.0
 30
0.0
  9
$PUCSYDIR
 10
0.0
 20
1.0
 30
0.0
  9
$USERI1
 70
     0
  9
$USERI2
 70
     0
  9
$USERI3
 70
     0
  9
$USERI4
 70
     0
  9
$USERI5
 70
     0
  9
$USERR1
 40
0.0
  9
$USERR2
 40
0.0
  9
$USERR3
 40
0.0
  9
$USERR4
 40
0.0
  9
$USERR5
 40
0.0
  9
$WORLDVIEW
 70
     1
  9
$SHADEDGE
 70
     3
  9
$SHADEDIF
 70
    70
  9
$TILEMODE
 70
     1
  9
$MAXACTVP
 70
    48
  9
$PLIMCHECK
 70
     0
  9
$PEXTMIN
 10
1.0000000000000000E+020
 20
1.0000000000000000E+020
 30
1.0000000000000000E+020
  9
$PEXTMAX
 10
-1.0000000000000000E+020
 20
-1.0000000000000000E+020
 30
-1.0000000000000000E+020
  9
$PLIMMIN
 10
0.0
 20
0.0
  9
$PLIMMAX
 10
12.0
 20
9.0
  9
$UNITMODE
 70
     0
  9
$VISRETAIN
 70
     1
  9
$PLINEGEN
 70
     0
  9
$PSLTSCALE
 70
     1
  0
ENDSEC
  0
SECTION
  2
TABLES
  0
TABLE
  2
VPORT
 70
     1
  0
VPORT
  2
*ACTIVE
 70
     0
 10
0.0
 20
0.0
 11
1.0
 21
1.0
 12
555.35284954191695
 22
342.73531356260742
 13
0.0
 23
0.0
 14
0.5
 24
0.5
 15
0.5
 25
0.5
 16
0.0
 26
0.0
 36
1.0
 17
0.0
 27
0.0
 37
0.0
 40
690.06998338038636
 41
1.7702552719200879
 42
50.0
 43
0.0
 44
0.0
 50
0.0
 51
0.0
 71
     0
 72
   100
 73
     1
 74
     1
 75
     0
 76
     0
 77
     0
 78
     0
  0
ENDTAB
  0
TABLE
  2
LTYPE
 70
    20
  0
LTYPE
  2
CONTINUOUS
 70
     0
  3
Solid line
 72
    65
 73
     0
 40
0.0
  0
LTYPE
  2
CENTER
 70
     0
  3
Center ____ _ ____ _ ____ _ ____ _ ____ _ ____
 72
    65
 73
     4
 40
2.0
 49
1.25
 49
-0.25
 49
0.25
 49
-0.25
  0
LTYPE
  2
CENTER2
 70
     0
  3
Center (.5x) ___ _ ___ _ ___ _ ___ _ ___ _ ___
 72
    65
 73
     4
 40
1.125
 49
0.75
 49
-0.125
 49
0.125
 49
-0.125
  0
LTYPE
  2
HIDDEN
 70
     0
  3
Hidden __ __ __ __ __ __ __ __ __ __ __ __ __ _
 72
    65
 73
     2
 40
0.375
 49
0.25
 49
-0.125
  0
LTYPE
  2
HIDDEN2
 70
     0
  3
Hidden (.5x) _ _ _ _ _ _ _ _ _ _ _ _ _ _ _ _ _
 72
    65
 73
     2
 40
0.1875
 49
0.125
 49
-0.0625
  0
LTYPE
  2
PHANTOM2
 70
     0
  3
Phantom (.5x) ___ _ _ ___ _ _ ___ _ _ ___ _ _
 72
    65
 73
     6
 40
1.25
 49
0.625
 49
-0.125
 49
0.125
 49
-0.125
 49
0.125
 49
-0.125
  0
LTYPE
  2
AMCONSTR
 70
     0
  3
_______________________
 72
    65
 73
     2
 40
9999.0
 49
9999.0
 49
0.0
  0
LTYPE
  2
AMZIGZAG2
 70
     0
  3
/\/-/\/-/\/-/\/-/\/-/\/
 72
    65
 73
     2
 40
0.4401
 49
0.0001
 49
-0.4400000000000001
  0
LTYPE
  2
ACANSTGB
 70
     0
  3
__ . . __ . .
 72
    65
 73
     6
 40
0.35433070866
 49
0.15748031496
 49
-0.03937007874
 49
0.03937007874
 49
-0.03937007874
 49
0.03937007874
 49
-0.03937007874
  0
LTYPE
  2
ACANSTGL
 70
     0
  3
_ _ _ _ _
 72
    65
 73
     2
 40
0.11811023622
 49
0.07874015748
 49
-0.03937007874
  0
ENDTAB
  0
TABLE
  2
LAYER
 70
     8
  0
LAYER
  2
0
 70
     0
 62
     7
  6
CONTINUOUS
  0
ENDTAB
  0
TABLE
  2
STYLE
 70
    11
  0
STYLE
  2
STANDARD
 70
     0
 40
0.0
 41
1.0
 50
0.0
 71
     0
 42
0.2
  3
txt
  4

  0
STYLE
  2
ROMANS
 70
     0
 40
0.0
 41
0.75
 50
0.0
 71
     0
 42
0.2
  3
romans.shx
  4

  0
STYLE
  2

 70
     1
 40
0.0
 41
1.0
 50
0.0
 71
     0
 42
0.2
  3
genltshp.shx
  4

  0
STYLE
  2
ACANSGDT
 70
     0
 40
0.0
 41
1.0
 50
0.0
 71
     0
 42
0.2
  3
amgdt.shx
  4

  0
ENDTAB
  0
TABLE
  2
VIEW
 70
     0
  0
ENDTAB
  0
TABLE
  2
UCS
 70
     0
  0
ENDTAB
  0
TABLE
  2
APPID
 70
    15
  0
APPID
  2
ACAD
 70
     0
  0
APPID
  2
ACAD_MLEADERVER
 70
     0
  0
APPID
  2
ACAD_DSTYLE_DIMJAG
 70
     0
  0
APPID
  2
ACAD_DSTYLE_DIMTALN
 70
     0
  0
APPID
  2
ACAD_PSEXT
 70
     0
  0
APPID
  2
ACADANNOPO
 70
     0
  0
APPID
  2
MCAD_NO_VIS
 70
     0
  0
APPID
  2
ACAD_TEMP_GRAPHIC
 70
     0
  0
APPID
  2
ACATTRIBSERVICES
 70
     0
  0
APPID
  2
DESIGNERASSEMBLIES
 70
     0
  0
APPID
  2
ACAD_DSTYLE_DIMBREAK
 70
     0
  0
APPID
  2
ACAD_NAV_VCDISPLAY
 70
     0
  0
APPID
  2
GRADIENTCOLOR1ACI
 70
     0
  0
APPID
  2
GRADIENTCOLOR2ACI
 70
     0
  0
APPID
  2
ACAD_EXEMPT_FROM_CAD_STANDARDS
 70
     0
  0
ENDTAB
  0
TABLE
  2
DIMSTYLE
 70
    14
  0
DIMSTYLE
  2
BAC
 70
     0
  3

  4

  5

  6

  7

 40
1.0
 41
0.09375
 42
0.0625
 43
0.375
 44
0.03125
 45
0.0
 46
0.0
 47
0.0
 48
0.0
140
0.09375
141
0.09375
142
0.0
143
25.399999999999999
144
1.0
145
0.0
146
1.0
147
0.0625
 71
     0
 72
     0
 73
     0
 74
     0
 75
     0
 76
     0
 77
     0
 78
     0
170
     0
171
     2
172
     0
173
     0
174
     0
175
     0
176
     0
177
     6
178
     0
  0
DIMSTYLE
  2
AM_ANSI
 70
     0
  3

  4
mm
  5

  6

  7

 40
1.0
 41
0.12
 42
0.05
 43
0.5
 44
0.1
 45
0.0
 46
0.0
 47
0.1
 48
0.1
140
0.12
141
0.0
142
0.0
143
25.399999999999999
144
1.0
145
0.0
146
0.71
147
0.06
 71
     0
 72
     0
 73
     1
 74
     1
 75
     0
 76
     0
 77
     0
 78
     7
170
     0
171
     2
172
     0
173
     0
174
     0
175
     0
176
   256
177
   256
178
     2
  0
DIMSTYLE
  2
AM_ANSI$3
 70
     0
  3

  4
mm
  5

  6

  7

 40
1.0
 41
0.12
 42
0.05
 43
0.5
 44
0.1
 45
0.0
 46
0.0
 47
0.1
 48
0.1
140
0.12
141
0.0
142
0.0
143
25.399999999999999
144
1.0
145
0.0
146
0.71
147
0.06
 71
     0
 72
     0
 73
     1
 74
     1
 75
     0
 76
     0
 77
     0
 78
     7
170
     0
171
     2
172
     0
173
     0
174
     0
175
     0
176
   256
177
   256
178
     2
  0
DIMSTYLE
  2
AM_ANSI$4
 70
     0
  3

  4
mm
  5

  6

  7

 40
1.0
 41
0.12
 42
0.05
 43
0.5
 44
0.1
 45
0.0
 46
0.0
 47
0.1
 48
0.1
140
0.12
141
0.0
142
0.0
143
25.399999999999999
144
1.0
145
0.0
146
0.71
147
0.06
 71
     0
 72
     0
 73
     1
 74
     1
 75
     0
 76
     0
 77
     0
 78
     7
170
     0
171
     2
172
     0
173
     0
174
     0
175
     0
176
   256
177
   256
178
     2
  0
DIMSTYLE
  2
AM_ANSI$7
 70
     0
  3

  4
mm
  5

  6

  7

 40
1.0
 41
0.12
 42
0.05
 43
0.5
 44
0.1
 45
0.0
 46
0.0
 47
0.1
 48
0.1
140
0.12
141
0.0
142
0.0
143
25.399999999999999
144
1.0
145
0.0
146
0.71
147
0.06
 71
     0
 72
     0
 73
     1
 74
     1
 75
     0
 76
     0
 77
     0
 78
     7
170
     0
171
     2
172
     0
173
     0
174
     0
175
     0
176
   256
177
   256
178
     2
  0
DIMSTYLE
  2
AM_ANSI$SF
 70
     0
  3

  4
mm
  5

  6

  7

 40
1.0
 41
0.12
 42
0.05
 43
0.5
 44
0.1
 45
0.0
 46
0.0
 47
0.1
 48
0.1
140
0.12
141
0.0
142
0.0
143
25.399999999999999
144
1.0
145
0.0
146
0.71
147
0.06
 71
     0
 72
     0
 73
     1
 74
     1
 75
     1
 76
     1
 77
     0
 78
     7
170
     0
171
     2
172
     0
173
     0
174
     0
175
     0
176
   256
177
   256
178
     2
  0
DIMSTYLE
  2
AM_ANSI$SH
 70
     0
  3

  4
mm
  5

  6
GENAXEH
  7

 40
1.0
 41
0.12
 42
0.05
 43
0.5
 44
0.1
 45
0.0
 46
0.0
 47
0.1
 48
0.1
140
0.12
141
0.0
142
0.0
143
25.399999999999999
144
1.0
145
0.0
146
0.71
147
0.06
 71
     0
 72
     0
 73
     1
 74
     1
 75
     1
 76
     1
 77
     0
 78
     7
170
     0
171
     2
172
     0
173
     1
174
     0
175
     0
176
   256
177
   256
178
     2
  0
DIMSTYLE
  2
STANDARD
 70
     0
  3

  4

  5

  6

  7

 40
1.0
 41
0.18
 42
0.0625
 43
0.38
 44
0.18
 45
0.0
 46
0.0
 47
0.0
 48
0.0
140
0.18
141
0.09
142
0.0
143
25.399999999999999
144
1.0
145
0.0
146
1.0
147
0.09
 71
     0
 72
     0
 73
     1
 74
     1
 75
     0
 76
     0
 77
     0
 78
     0
170
     0
171
     2
172
     0
173
     0
174
     0
175
     0
176
     0
177
     0
178
     0
  0
ENDTAB
  0
ENDSEC
  0
SECTION
  2
BLOCKS
  0
BLOCK
  8
0
  2
$MODEL_SPACE
 70
     0
 10
0.0
 20
0.0
 30
0.0
  3
$MODEL_SPACE
  1

  0
ENDBLK
  5
1A
  8
0
  0
BLOCK
 67
     1
  8
0
  2
$PAPER_SPACE
 70
     0
 10
0.0
 20
0.0
 30
0.0
  3
$PAPER_SPACE
  1

  0
ENDBLK
  5
17
 67
     1
  8
0
  0
BLOCK
  8
0
  2
*U0
 70
     1
 10
0.0
 20
0.0
 30
0.0
  3
*U0
  1

  0
ENDBLK
  5
17A
  8
0
  0
BLOCK
  8
0
  2
GENAXEH
 70
     0
 10
0.0
 20
0.0
 30
0.0
  3
GENAXEH
  1

  0
LINE
  5
1AD
  8
0
 10
-1.0
 20
0.0
 30
0.0
 11
1.0
 21
0.0
 31
0.0
  0
ENDBLK
  5
1AF
  8
0
  0
BLOCK
  8
0
  2
*X4
 70
     1
 10
0.0
 20
0.0
 30
0.0
  3
*X4
  1

  0
LINE
  5
1E13
  8
0
 62
     0
 10
622.85890232830775
 20
682.99999999999989
 30
0.0
 11
485.35890232830781
 21
682.99999999999989
 31
0.0
  0
LINE
  5
1E14
  8
0
 62
     0
 10
622.85890232830775
 20
681.49999999999977
 30
0.0
 11
485.35890232830781
 21
681.49999999999977
 31
0.0
  0
LINE
  5
1E15
  8
0
 62
     0
 10
622.85890232830775
 20
679.99999999999977
 30
0.0
 11
485.35890232830781
 21
679.99999999999977
 31
0.0
  0
LINE
  5
1E16
  8
0
 62
     0
 10
622.85890232830775
 20
678.49999999999989
 30
0.0
 11
485.35890232830781
 21
678.49999999999989
 31
0.0
  0
LINE
  5
1E17
  8
0
 62
     0
 10
622.85890232830775
 20
676.99999999999977
 30
0.0
 11
485.35890232830781
 21
676.99999999999977
 31
0.0
  0
LINE
  5
1E18
  8
0
 62
     0
 10
622.85890232830775
 20
675.49999999999989
 30
0.0
 11
485.35890232830781
 21
675.49999999999989
 31
0.0
  0
LINE
  5
1E19
  8
0
 62
     0
 10
622.85890232830775
 20
673.99999999999989
 30
0.0
 11
485.35890232830781
 21
673.99999999999989
 31
0.0
  0
LINE
  5
1E1A
  8
0
 62
     0
 10
622.85890232830775
 20
672.49999999999977
 30
0.0
 11
485.35890232830781
 21
672.49999999999977
 31
0.0
  0
LINE
  5
1E1B
  8
0
 62
     0
 10
622.85890232830775
 20
670.99999999999989
 30
0.0
 11
485.35890232830781
 21
670.99999999999989
 31
0.0
  0
LINE
  5
1E1C
  8
0
 62
     0
 10
622.85890232830775
 20
669.49999999999989
 30
0.0
 11
485.35890232830781
 21
669.49999999999989
 31
0.0
  0
LINE
  5
1E1D
  8
0
 62
     0
 10
622.85890232830775
 20
667.99999999999977
 30
0.0
 11
485.35890232830781
 21
667.99999999999977
 31
0.0
  0
LINE
  5
1E1E
  8
0
 62
     0
 10
622.85890232830775
 20
666.49999999999989
 30
0.0
 11
485.35890232830781
 21
666.49999999999989
 31
0.0
  0
LINE
  5
1E1F
  8
0
 62
     0
 10
622.85890232830775
 20
664.99999999999977
 30
0.0
 11
485.35890232830781
 21
664.99999999999977
 31
0.0
  0
LINE
  5
1E20
  8
0
 62
     0
 10
622.85890232830775
 20
663.49999999999977
 30
0.0
 11
485.35890232830781
 21
663.49999999999977
 31
0.0
  0
LINE
  5
1E21
  8
0
 62
     0
 10
622.85890232830775
 20
661.99999999999989
 30
0.0
 11
485.35890232830781
 21
661.99999999999989
 31
0.0
  0
LINE
  5
1E22
  8
0
 62
     0
 10
622.85890232830775
 20
660.49999999999977
 30
0.0
 11
485.35890232830781
 21
660.49999999999977
 31
0.0
  0
LINE
  5
1E23
  8
0
 62
     0
 10
622.85890232830775
 20
658.99999999999977
 30
0.0
 11
485.35890232830781
 21
658.99999999999977
 31
0.0
  0
LINE
  5
1E24
  8
0
 62
     0
 10
622.85890232830775
 20
657.49999999999989
 30
0.0
 11
485.35890232830781
 21
657.49999999999989
 31
0.0
  0
LINE
  5
1E25
  8
0
 62
     0
 10
622.85890232830775
 20
655.99999999999977
 30
0.0
 11
485.35890232830781
 21
655.99999999999977
 31
0.0
  0
LINE
  5
1E26
  8
0
 62
     0
 10
622.85890232830775
 20
654.49999999999989
 30
0.0
 11
485.35890232830781
 21
654.49999999999989
 31
0.0
  0
LINE
  5
1E27
  8
0
 62
     0
 10
622.85890232830775
 20
652.99999999999989
 30
0.0
 11
485.35890232830781
 21
652.99999999999989
 31
0.0
  0
LINE
  5
1E28
  8
0
 62
     0
 10
622.85890232830775
 20
651.49999999999977
 30
0.0
 11
485.35890232830781
 21
651.49999999999977
 31
0.0
  0
LINE
  5
1E29
  8
0
 62
     0
 10
622.85890232830775
 20
649.99999999999989
 30
0.0
 11
485.35890232830781
 21
649.99999999999989
 31
0.0
  0
LINE
  5
1E2A
  8
0
 62
     0
 10
622.85890232830764
 20
648.49999999999989
 30
0.0
 11
485.35890232830781
 21
648.49999999999989
 31
0.0
  0
LINE
  5
1E2B
  8
0
 62
     0
 10
622.85890232830764
 20
646.99999999999977
 30
0.0
 11
485.35890232830781
 21
646.99999999999977
 31
0.0
  0
LINE
  5
1E2C
  8
0
 62
     0
 10
622.85890232830764
 20
645.49999999999989
 30
0.0
 11
485.35890232830781
 21
645.49999999999989
 31
0.0
  0
LINE
  5
1E2D
  8
0
 62
     0
 10
622.85890232830764
 20
643.99999999999977
 30
0.0
 11
485.35890232830781
 21
643.99999999999977
 31
0.0
  0
LINE
  5
1E2E
  8
0
 62
     0
 10
622.85890232830764
 20
642.49999999999977
 30
0.0
 11
485.35890232830769
 21
642.49999999999977
 31
0.0
  0
LINE
  5
1E2F
  8
0
 62
     0
 10
622.85890232830764
 20
640.99999999999989
 30
0.0
 11
485.35890232830769
 21
640.99999999999989
 31
0.0
  0
LINE
  5
1E30
  8
0
 62
     0
 10
622.85890232830764
 20
639.49999999999977
 30
0.0
 11
485.35890232830769
 21
639.49999999999977
 31
0.0
  0
LINE
  5
1E31
  8
0
 62
     0
 10
622.85890232830764
 20
637.99999999999989
 30
0.0
 11
485.35890232830769
 21
637.99999999999989
 31
0.0
  0
LINE
  5
1E32
  8
0
 62
     0
 10
622.85890232830764
 20
636.49999999999989
 30
0.0
 11
485.35890232830769
 21
636.49999999999989
 31
0.0
  0
LINE
  5
1E33
  8
0
 62
     0
 10
622.85890232830764
 20
634.99999999999977
 30
0.0
 11
485.35890232830769
 21
634.99999999999977
 31
0.0
  0
LINE
  5
1E34
  8
0
 62
     0
 10
622.85890232830764
 20
633.49999999999989
 30
0.0
 11
485.35890232830769
 21
633.49999999999989
 31
0.0
  0
LINE
  5
1E35
  8
0
 62
     0
 10
622.85890232830764
 20
631.99999999999989
 30
0.0
 11
485.35890232830769
 21
631.99999999999989
 31
0.0
  0
LINE
  5
1E36
  8
0
 62
     0
 10
622.85890232830764
 20
630.49999999999977
 30
0.0
 11
485.35890232830769
 21
630.49999999999977
 31
0.0
  0
LINE
  5
1E37
  8
0
 62
     0
 10
622.85890232830764
 20
628.99999999999989
 30
0.0
 11
485.35890232830769
 21
628.99999999999989
 31
0.0
  0
LINE
  5
1E38
  8
0
 62
     0
 10
622.85890232830764
 20
627.49999999999977
 30
0.0
 11
485.35890232830769
 21
627.49999999999977
 31
0.0
  0
LINE
  5
1E39
  8
0
 62
     0
 10
622.85890232830764
 20
625.99999999999977
 30
0.0
 11
485.35890232830769
 21
625.99999999999977
 31
0.0
  0
LINE
  5
1E3A
  8
0
 62
     0
 10
622.85890232830764
 20
624.49999999999989
 30
0.0
 11
485.35890232830769
 21
624.49999999999989
 31
0.0
  0
LINE
  5
1E3B
  8
0
 62
     0
 10
622.85890232830764
 20
622.99999999999977
 30
0.0
 11
485.35890232830769
 21
622.99999999999977
 31
0.0
  0
LINE
  5
1E3C
  8
0
 62
     0
 10
622.85890232830764
 20
621.49999999999977
 30
0.0
 11
485.35890232830769
 21
621.49999999999977
 31
0.0
  0
LINE
  5
1E3D
  8
0
 62
     0
 10
622.85890232830764
 20
619.99999999999989
 30
0.0
 11
485.35890232830769
 21
619.99999999999989
 31
0.0
  0
LINE
  5
1E3E
  8
0
 62
     0
 10
622.85890232830764
 20
618.49999999999977
 30
0.0
 11
485.35890232830769
 21
618.49999999999977
 31
0.0
  0
LINE
  5
1E3F
  8
0
 62
     0
 10
622.85890232830764
 20
616.99999999999989
 30
0.0
 11
485.35890232830769
 21
616.99999999999989
 31
0.0
  0
LINE
  5
1E40
  8
0
 62
     0
 10
622.85890232830764
 20
615.49999999999989
 30
0.0
 11
485.35890232830769
 21
615.49999999999989
 31
0.0
  0
LINE
  5
1E41
  8
0
 62
     0
 10
622.85890232830764
 20
613.99999999999977
 30
0.0
 11
485.35890232830769
 21
613.99999999999977
 31
0.0
  0
LINE
  5
1E42
  8
0
 62
     0
 10
622.85890232830764
 20
612.49999999999989
 30
0.0
 11
485.35890232830769
 21
612.49999999999989
 31
0.0
  0
LINE
  5
1E43
  8
0
 62
     0
 10
622.85890232830764
 20
610.99999999999989
 30
0.0
 11
485.35890232830769
 21
610.99999999999989
 31
0.0
  0
LINE
  5
1E44
  8
0
 62
     0
 10
622.85890232830764
 20
609.49999999999977
 30
0.0
 11
485.35890232830769
 21
609.49999999999977
 31
0.0
  0
LINE
  5
1E45
  8
0
 62
     0
 10
622.85890232830764
 20
607.99999999999989
 30
0.0
 11
485.35890232830769
 21
607.99999999999989
 31
0.0
  0
LINE
  5
1E46
  8
0
 62
     0
 10
622.85890232830764
 20
606.49999999999977
 30
0.0
 11
485.35890232830769
 21
606.49999999999977
 31
0.0
  0
LINE
  5
1E47
  8
0
 62
     0
 10
622.85890232830764
 20
604.99999999999977
 30
0.0
 11
485.35890232830769
 21
604.99999999999977
 31
0.0
  0
LINE
  5
1E48
  8
0
 62
     0
 10
622.85890232830764
 20
603.49999999999989
 30
0.0
 11
485.35890232830769
 21
603.49999999999989
 31
0.0
  0
LINE
  5
1E49
  8
0
 62
     0
 10
622.85890232830764
 20
601.99999999999977
 30
0.0
 11
485.35890232830769
 21
601.99999999999977
 31
0.0
  0
LINE
  5
1E4A
  8
0
 62
     0
 10
622.85890232830764
 20
600.49999999999989
 30
0.0
 11
485.35890232830769
 21
600.49999999999989
 31
0.0
  0
LINE
  5
1E4B
  8
0
 62
     0
 10
622.85890232830764
 20
598.99999999999989
 30
0.0
 11
485.35890232830769
 21
598.99999999999989
 31
0.0
  0
LINE
  5
1E4C
  8
0
 62
     0
 10
622.85890232830764
 20
597.49999999999977
 30
0.0
 11
485.35890232830769
 21
597.49999999999977
 31
0.0
  0
LINE
  5
1E4D
  8
0
 62
     0
 10
622.85890232830764
 20
595.99999999999989
 30
0.0
 11
485.35890232830769
 21
595.99999999999989
 31
0.0
  0
LINE
  5
1E4E
  8
0
 62
     0
 10
622.85890232830764
 20
594.49999999999989
 30
0.0
 11
485.35890232830769
 21
594.49999999999989
 31
0.0
  0
LINE
  5
1E4F
  8
0
 62
     0
 10
622.85890232830764
 20
592.99999999999977
 30
0.0
 11
485.35890232830769
 21
592.99999999999977
 31
0.0
  0
LINE
  5
1E50
  8
0
 62
     0
 10
622.85890232830764
 20
591.49999999999989
 30
0.0
 11
485.35890232830769
 21
591.49999999999989
 31
0.0
  0
LINE
  5
1E51
  8
0
 62
     0
 10
622.85890232830764
 20
589.99999999999977
 30
0.0
 11
485.35890232830769
 21
589.99999999999977
 31
0.0
  0
LINE
  5
1E52
  8
0
 62
     0
 10
622.85890232830764
 20
588.49999999999977
 30
0.0
 11
485.35890232830769
 21
588.49999999999977
 31
0.0
  0
LINE
  5
1E53
  8
0
 62
     0
 10
622.85890232830764
 20
586.99999999999989
 30
0.0
 11
485.35890232830758
 21
586.99999999999989
 31
0.0
  0
LINE
  5
1E54
  8
0
 62
     0
 10
622.85890232830764
 20
585.49999999999977
 30
0.0
 11
485.35890232830758
 21
585.49999999999977
 31
0.0
  0
LINE
  5
1E55
  8
0
 62
     0
 10
622.85890232830764
 20
583.99999999999977
 30
0.0
 11
485.35890232830758
 21
583.99999999999977
 31
0.0
  0
LINE
  5
1E56
  8
0
 62
     0
 10
622.85890232830764
 20
582.49999999999989
 30
0.0
 11
485.35890232830758
 21
582.49999999999989
 31
0.0
  0
LINE
  5
1E57
  8
0
 62
     0
 10
622.85890232830752
 20
580.99999999999977
 30
0.0
 11
485.35890232830758
 21
580.99999999999977
 31
0.0
  0
LINE
  5
1E58
  8
0
 62
     0
 10
622.85890232830752
 20
579.49999999999989
 30
0.0
 11
485.35890232830758
 21
579.49999999999989
 31
0.0
  0
LINE
  5
1E59
  8
0
 62
     0
 10
622.85890232830752
 20
577.99999999999989
 30
0.0
 11
485.35890232830758
 21
577.99999999999989
 31
0.0
  0
LINE
  5
1E5A
  8
0
 62
     0
 10
622.85890232830752
 20
576.49999999999977
 30
0.0
 11
485.35890232830758
 21
576.49999999999977
 31
0.0
  0
LINE
  5
1E5B
  8
0
 62
     0
 10
622.85890232830752
 20
574.99999999999989
 30
0.0
 11
485.35890232830758
 21
574.99999999999989
 31
0.0
  0
LINE
  5
1E5C
  8
0
 62
     0
 10
622.85890232830752
 20
573.49999999999977
 30
0.0
 11
485.35890232830758
 21
573.49999999999977
 31
0.0
  0
LINE
  5
1E5D
  8
0
 62
     0
 10
622.85890232830752
 20
571.99999999999977
 30
0.0
 11
485.35890232830758
 21
571.99999999999977
 31
0.0
  0
LINE
  5
1E5E
  8
0
 62
     0
 10
622.85890232830752
 20
570.49999999999989
 30
0.0
 11
485.35890232830758
 21
570.49999999999989
 31
0.0
  0
LINE
  5
1E5F
  8
0
 62
     0
 10
622.85890232830752
 20
568.99999999999977
 30
0.0
 11
485.35890232830758
 21
568.99999999999977
 31
0.0
  0
LINE
  5
1E60
  8
0
 62
     0
 10
622.85890232830752
 20
567.49999999999977
 30
0.0
 11
485.35890232830758
 21
567.49999999999977
 31
0.0
  0
LINE
  5
1E61
  8
0
 62
     0
 10
622.85890232830752
 20
565.99999999999989
 30
0.0
 11
485.35890232830758
 21
565.99999999999989
 31
0.0
  0
LINE
  5
1E62
  8
0
 62
     0
 10
622.85890232830752
 20
564.49999999999977
 30
0.0
 11
485.35890232830758
 21
564.49999999999977
 31
0.0
  0
LINE
  5
1E63
  8
0
 62
     0
 10
622.85890232830752
 20
562.99999999999989
 30
0.0
 11
485.35890232830758
 21
562.99999999999989
 31
0.0
  0
LINE
  5
1E64
  8
0
 62
     0
 10
622.85890232830752
 20
561.49999999999989
 30
0.0
 11
485.35890232830758
 21
561.49999999999989
 31
0.0
  0
LINE
  5
1E65
  8
0
 62
     0
 10
622.85890232830752
 20
559.99999999999977
 30
0.0
 11
485.35890232830758
 21
559.99999999999977
 31
0.0
  0
LINE
  5
1E66
  8
0
 62
     0
 10
622.85890232830752
 20
558.49999999999989
 30
0.0
 11
485.35890232830758
 21
558.49999999999989
 31
0.0
  0
LINE
  5
1E67
  8
0
 62
     0
 10
622.85890232830752
 20
556.99999999999989
 30
0.0
 11
485.35890232830758
 21
556.99999999999989
 31
0.0
  0
LINE
  5
1E68
  8
0
 62
     0
 10
622.85890232830752
 20
555.49999999999977
 30
0.0
 11
485.35890232830758
 21
555.49999999999977
 31
0.0
  0
LINE
  5
1E69
  8
0
 62
     0
 10
622.85890232830752
 20
553.99999999999989
 30
0.0
 11
485.35890232830758
 21
553.99999999999989
 31
0.0
  0
LINE
  5
1E6A
  8
0
 62
     0
 10
622.85890232830752
 20
552.49999999999977
 30
0.0
 11
485.35890232830758
 21
552.49999999999977
 31
0.0
  0
LINE
  5
1E6B
  8
0
 62
     0
 10
622.85890232830752
 20
550.99999999999977
 30
0.0
 11
485.35890232830758
 21
550.99999999999977
 31
0.0
  0
LINE
  5
1E6C
  8
0
 62
     0
 10
622.85890232830752
 20
549.49999999999989
 30
0.0
 11
485.35890232830758
 21
549.49999999999989
 31
0.0
  0
LINE
  5
1E6D
  8
0
 62
     0
 10
622.85890232830752
 20
547.99999999999977
 30
0.0
 11
485.35890232830758
 21
547.99999999999977
 31
0.0
  0
LINE
  5
1E6E
  8
0
 62
     0
 10
622.85890232830695
 20
541.99999999999989
 30
0.0
 11
485.35890232830712
 21
541.99999999999989
 31
0.0
  0
LINE
  5
1E6F
  8
0
 62
     0
 10
622.85890232830695
 20
540.49999999999989
 30
0.0
 11
485.35890232830712
 21
540.49999999999989
 31
0.0
  0
LINE
  5
1E70
  8
0
 62
     0
 10
622.85890232830695
 20
538.99999999999977
 30
0.0
 11
485.35890232830712
 21
538.99999999999977
 31
0.0
  0
LINE
  5
1E71
  8
0
 62
     0
 10
622.85890232830695
 20
537.49999999999989
 30
0.0
 11
485.35890232830712
 21
537.49999999999989
 31
0.0
  0
LINE
  5
1E72
  8
0
 62
     0
 10
622.85890232830695
 20
535.99999999999977
 30
0.0
 11
485.35890232830712
 21
535.99999999999977
 31
0.0
  0
LINE
  5
1E73
  8
0
 62
     0
 10
622.85890232830695
 20
534.49999999999977
 30
0.0
 11
485.35890232830712
 21
534.49999999999977
 31
0.0
  0
LINE
  5
1E74
  8
0
 62
     0
 10
622.85890232830695
 20
532.99999999999989
 30
0.0
 11
485.35890232830712
 21
532.99999999999989
 31
0.0
  0
LINE
  5
1E75
  8
0
 62
     0
 10
622.85890232830695
 20
531.49999999999977
 30
0.0
 11
485.35890232830712
 21
531.49999999999977
 31
0.0
  0
LINE
  5
1E76
  8
0
 62
     0
 10
622.85890232830695
 20
529.99999999999977
 30
0.0
 11
485.35890232830712
 21
529.99999999999977
 31
0.0
  0
LINE
  5
1E77
  8
0
 62
     0
 10
622.85890232830695
 20
528.49999999999989
 30
0.0
 11
485.35890232830701
 21
528.49999999999989
 31
0.0
  0
LINE
  5
1E78
  8
0
 62
     0
 10
622.85890232830695
 20
526.99999999999977
 30
0.0
 11
485.35890232830701
 21
526.99999999999977
 31
0.0
  0
LINE
  5
1E79
  8
0
 62
     0
 10
622.85890232830695
 20
525.49999999999989
 30
0.0
 11
485.35890232830701
 21
525.49999999999989
 31
0.0
  0
LINE
  5
1E7A
  8
0
 62
     0
 10
622.85890232830695
 20
523.99999999999989
 30
0.0
 11
485.35890232830701
 21
523.99999999999989
 31
0.0
  0
LINE
  5
1E7B
  8
0
 62
     0
 10
622.85890232830695
 20
522.49999999999977
 30
0.0
 11
485.35890232830701
 21
522.49999999999977
 31
0.0
  0
LINE
  5
1E7C
  8
0
 62
     0
 10
622.85890232830695
 20
520.99999999999989
 30
0.0
 11
485.35890232830701
 21
520.99999999999989
 31
0.0
  0
LINE
  5
1E7D
  8
0
 62
     0
 10
622.85890232830695
 20
519.49999999999989
 30
0.0
 11
485.35890232830701
 21
519.49999999999989
 31
0.0
  0
LINE
  5
1E7E
  8
0
 62
     0
 10
622.85890232830695
 20
517.99999999999977
 30
0.0
 11
485.35890232830701
 21
517.99999999999977
 31
0.0
  0
LINE
  5
1E7F
  8
0
 62
     0
 10
622.85890232830695
 20
516.49999999999989
 30
0.0
 11
485.35890232830701
 21
516.49999999999989
 31
0.0
  0
LINE
  5
1E80
  8
0
 62
     0
 10
622.85890232830695
 20
514.99999999999977
 30
0.0
 11
485.35890232830701
 21
514.99999999999977
 31
0.0
  0
LINE
  5
1E81
  8
0
 62
     0
 10
622.85890232830695
 20
513.49999999999977
 30
0.0
 11
485.35890232830701
 21
513.49999999999977
 31
0.0
  0
LINE
  5
1E82
  8
0
 62
     0
 10
622.85890232830695
 20
511.99999999999989
 30
0.0
 11
485.35890232830701
 21
511.99999999999989
 31
0.0
  0
LINE
  5
1E83
  8
0
 62
     0
 10
622.85890232830695
 20
510.49999999999989
 30
0.0
 11
485.35890232830701
 21
510.49999999999989
 31
0.0
  0
LINE
  5
1E84
  8
0
 62
     0
 10
622.85890232830695
 20
508.99999999999989
 30
0.0
 11
485.35890232830701
 21
508.99999999999989
 31
0.0
  0
LINE
  5
1E85
  8
0
 62
     0
 10
622.85890232830695
 20
507.49999999999989
 30
0.0
 11
485.35890232830701
 21
507.49999999999989
 31
0.0
  0
LINE
  5
1E86
  8
0
 62
     0
 10
622.85890232830695
 20
505.99999999999989
 30
0.0
 11
485.35890232830701
 21
505.99999999999989
 31
0.0
  0
LINE
  5
1E87
  8
0
 62
     0
 10
622.85890232830695
 20
504.49999999999989
 30
0.0
 11
485.35890232830701
 21
504.49999999999989
 31
0.0
  0
LINE
  5
1E88
  8
0
 62
     0
 10
622.85890232830695
 20
502.99999999999989
 30
0.0
 11
485.35890232830701
 21
502.99999999999989
 31
0.0
  0
LINE
  5
1E89
  8
0
 62
     0
 10
622.85890232830695
 20
501.49999999999989
 30
0.0
 11
485.35890232830701
 21
501.49999999999989
 31
0.0
  0
LINE
  5
1E8A
  8
0
 62
     0
 10
622.85890232830695
 20
499.99999999999989
 30
0.0
 11
485.35890232830701
 21
499.99999999999989
 31
0.0
  0
LINE
  5
1E8B
  8
0
 62
     0
 10
622.85890232830695
 20
498.49999999999989
 30
0.0
 11
485.35890232830701
 21
498.49999999999989
 31
0.0
  0
LINE
  5
1E8C
  8
0
 62
     0
 10
622.85890232830695
 20
496.99999999999989
 30
0.0
 11
485.35890232830701
 21
496.99999999999989
 31
0.0
  0
LINE
  5
1E8D
  8
0
 62
     0
 10
622.85890232830695
 20
495.49999999999989
 30
0.0
 11
485.35890232830701
 21
495.49999999999989
 31
0.0
  0
LINE
  5
1E8E
  8
0
 62
     0
 10
622.85890232830695
 20
493.99999999999989
 30
0.0
 11
485.35890232830701
 21
493.99999999999989
 31
0.0
  0
LINE
  5
1E8F
  8
0
 62
     0
 10
622.85890232830695
 20
492.49999999999989
 30
0.0
 11
485.35890232830701
 21
492.49999999999989
 31
0.0
  0
LINE
  5
1E90
  8
0
 62
     0
 10
622.85890232830695
 20
490.99999999999989
 30
0.0
 11
485.35890232830701
 21
490.99999999999989
 31
0.0
  0
LINE
  5
1E91
  8
0
 62
     0
 10
622.85890232830695
 20
489.49999999999989
 30
0.0
 11
485.35890232830701
 21
489.49999999999989
 31
0.0
  0
LINE
  5
1E92
  8
0
 62
     0
 10
622.85890232830695
 20
487.99999999999989
 30
0.0
 11
485.35890232830701
 21
487.99999999999989
 31
0.0
  0
LINE
  5
1E93
  8
0
 62
     0
 10
622.85890232830695
 20
486.49999999999989
 30
0.0
 11
485.35890232830701
 21
486.49999999999989
 31
0.0
  0
LINE
  5
1E94
  8
0
 62
     0
 10
622.85890232830695
 20
484.99999999999989
 30
0.0
 11
485.35890232830701
 21
484.99999999999989
 31
0.0
  0
LINE
  5
1E95
  8
0
 62
     0
 10
622.85890232830695
 20
483.49999999999989
 30
0.0
 11
485.35890232830701
 21
483.49999999999989
 31
0.0
  0
LINE
  5
1E96
  8
0
 62
     0
 10
622.85890232830695
 20
481.99999999999989
 30
0.0
 11
485.35890232830701
 21
481.99999999999989
 31
0.0
  0
LINE
  5
1E97
  8
0
 62
     0
 10
622.85890232830695
 20
480.49999999999989
 30
0.0
 11
485.35890232830701
 21
480.49999999999989
 31
0.0
  0
LINE
  5
1E98
  8
0
 62
     0
 10
622.85890232830695
 20
478.99999999999989
 30
0.0
 11
485.35890232830701
 21
478.99999999999989
 31
0.0
  0
LINE
  5
1E99
  8
0
 62
     0
 10
622.85890232830695
 20
477.49999999999989
 30
0.0
 11
485.35890232830701
 21
477.49999999999989
 31
0.0
  0
LINE
  5
1E9A
  8
0
 62
     0
 10
622.85890232830695
 20
475.99999999999989
 30
0.0
 11
485.35890232830701
 21
475.99999999999989
 31
0.0
  0
LINE
  5
1E9B
  8
0
 62
     0
 10
622.85890232830695
 20
474.49999999999989
 30
0.0
 11
485.35890232830701
 21
474.49999999999989
 31
0.0
  0
LINE
  5
1E9C
  8
0
 62
     0
 10
622.85890232830695
 20
472.99999999999989
 30
0.0
 11
485.35890232830701
 21
472.99999999999989
 31
0.0
  0
LINE
  5
1E9D
  8
0
 62
     0
 10
622.85890232830695
 20
471.49999999999989
 30
0.0
 11
485.35890232830701
 21
471.49999999999989
 31
0.0
  0
LINE
  5
1E9E
  8
0
 62
     0
 10
622.85890232830695
 20
469.99999999999989
 30
0.0
 11
485.35890232830701
 21
469.99999999999989
 31
0.0
  0
LINE
  5
1E9F
  8
0
 62
     0
 10
622.85890232830695
 20
468.49999999999989
 30
0.0
 11
485.35890232830701
 21
468.49999999999989
 31
0.0
  0
LINE
  5
1EA0
  8
0
 62
     0
 10
622.85890232830695
 20
466.99999999999989
 30
0.0
 11
485.35890232830701
 21
466.99999999999989
 31
0.0
  0
LINE
  5
1EA1
  8
0
 62
     0
 10
622.85890232830695
 20
465.49999999999989
 30
0.0
 11
485.35890232830701
 21
465.49999999999989
 31
0.0
  0
LINE
  5
1EA2
  8
0
 62
     0
 10
622.85890232830695
 20
463.99999999999989
 30
0.0
 11
485.35890232830701
 21
463.99999999999989
 31
0.0
  0
LINE
  5
1EA3
  8
0
 62
     0
 10
622.85890232830695
 20
462.49999999999989
 30
0.0
 11
485.35890232830701
 21
462.49999999999989
 31
0.0
  0
LINE
  5
1EA4
  8
0
 62
     0
 10
622.85890232830695
 20
460.99999999999989
 30
0.0
 11
485.35890232830701
 21
460.99999999999989
 31
0.0
  0
LINE
  5
1EA5
  8
0
 62
     0
 10
622.85890232830695
 20
459.49999999999989
 30
0.0
 11
485.35890232830701
 21
459.49999999999989
 31
0.0
  0
LINE
  5
1EA6
  8
0
 62
     0
 10
622.85890232830695
 20
457.99999999999989
 30
0.0
 11
485.35890232830701
 21
457.99999999999989
 31
0.0
  0
LINE
  5
1EA7
  8
0
 62
     0
 10
622.85890232830695
 20
456.49999999999989
 30
0.0
 11
485.35890232830701
 21
456.49999999999989
 31
0.0
  0
LINE
  5
1EA8
  8
0
 62
     0
 10
622.85890232830695
 20
454.99999999999989
 30
0.0
 11
485.35890232830701
 21
454.99999999999989
 31
0.0
  0
LINE
  5
1EA9
  8
0
 62
     0
 10
622.85890232830695
 20
453.49999999999989
 30
0.0
 11
485.35890232830701
 21
453.49999999999989
 31
0.0
  0
LINE
  5
1EAA
  8
0
 62
     0
 10
622.85890232830695
 20
451.99999999999989
 30
0.0
 11
485.35890232830701
 21
451.99999999999989
 31
0.0
  0
LINE
  5
1EAB
  8
0
 62
     0
 10
622.85890232830695
 20
450.49999999999989
 30
0.0
 11
485.35890232830701
 21
450.49999999999989
 31
0.0
  0
LINE
  5
1EAC
  8
0
 62
     0
 10
622.85890232830695
 20
448.99999999999989
 30
0.0
 11
485.35890232830701
 21
448.99999999999989
 31
0.0
  0
LINE
  5
1EAD
  8
0
 62
     0
 10
622.85890232830695
 20
447.49999999999989
 30
0.0
 11
485.35890232830701
 21
447.49999999999989
 31
0.0
  0
LINE
  5
1EAE
  8
0
 62
     0
 10
622.85890232830695
 20
445.99999999999989
 30
0.0
 11
485.35890232830701
 21
445.99999999999989
 31
0.0
  0
LINE
  5
1EAF
  8
0
 62
     0
 10
622.85890232830695
 20
444.49999999999989
 30
0.0
 11
485.35890232830701
 21
444.49999999999989
 31
0.0
  0
LINE
  5
1EB0
  8
0
 62
     0
 10
622.85890232830695
 20
442.99999999999989
 30
0.0
 11
485.35890232830701
 21
442.99999999999989
 31
0.0
  0
LINE
  5
1EB1
  8
0
 62
     0
 10
622.85890232830695
 20
441.49999999999989
 30
0.0
 11
485.35890232830701
 21
441.49999999999989
 31
0.0
  0
LINE
  5
1EB2
  8
0
 62
     0
 10
622.85890232830684
 20
439.99999999999989
 30
0.0
 11
485.35890232830701
 21
439.99999999999989
 31
0.0
  0
LINE
  5
1EB3
  8
0
 62
     0
 10
622.85890232830684
 20
438.49999999999989
 30
0.0
 11
485.35890232830701
 21
438.49999999999989
 31
0.0
  0
LINE
  5
1EB4
  8
0
 62
     0
 10
622.85890232830684
 20
436.99999999999989
 30
0.0
 11
485.35890232830701
 21
436.99999999999989
 31
0.0
  0
LINE
  5
1EB5
  8
0
 62
     0
 10
622.85890232830684
 20
435.49999999999989
 30
0.0
 11
485.35890232830701
 21
435.49999999999989
 31
0.0
  0
LINE
  5
1EB6
  8
0
 62
     0
 10
622.85890232830684
 20
433.99999999999989
 30
0.0
 11
485.35890232830701
 21
433.99999999999989
 31
0.0
  0
LINE
  5
1EB7
  8
0
 62
     0
 10
622.85890232830684
 20
432.49999999999989
 30
0.0
 11
485.35890232830701
 21
432.49999999999989
 31
0.0
  0
LINE
  5
1EB8
  8
0
 62
     0
 10
622.85890232830684
 20
430.99999999999989
 30
0.0
 11
485.35890232830701
 21
430.99999999999989
 31
0.0
  0
LINE
  5
1EB9
  8
0
 62
     0
 10
622.85890232830684
 20
429.49999999999989
 30
0.0
 11
485.35890232830701
 21
429.49999999999989
 31
0.0
  0
LINE
  5
1EBA
  8
0
 62
     0
 10
622.85890232830684
 20
427.99999999999989
 30
0.0
 11
485.35890232830701
 21
427.99999999999989
 31
0.0
  0
LINE
  5
1EBB
  8
0
 62
     0
 10
622.85890232830684
 20
426.49999999999989
 30
0.0
 11
485.35890232830701
 21
426.49999999999989
 31
0.0
  0
LINE
  5
1EBC
  8
0
 62
     0
 10
622.85890232830684
 20
424.99999999999989
 30
0.0
 11
485.35890232830701
 21
424.99999999999989
 31
0.0
  0
LINE
  5
1EBD
  8
0
 62
     0
 10
622.85890232830684
 20
423.49999999999989
 30
0.0
 11
485.35890232830701
 21
423.49999999999989
 31
0.0
  0
LINE
  5
1EBE
  8
0
 62
     0
 10
622.85890232830684
 20
421.99999999999989
 30
0.0
 11
485.35890232830701
 21
421.99999999999989
 31
0.0
  0
LINE
  5
1EBF
  8
0
 62
     0
 10
622.85890232830684
 20
420.49999999999989
 30
0.0
 11
485.35890232830701
 21
420.49999999999989
 31
0.0
  0
LINE
  5
1EC0
  8
0
 62
     0
 10
622.85890232830684
 20
418.99999999999989
 30
0.0
 11
485.3589023283069
 21
418.99999999999989
 31
0.0
  0
LINE
  5
1EC1
  8
0
 62
     0
 10
622.85890232830684
 20
417.49999999999989
 30
0.0
 11
485.3589023283069
 21
417.49999999999989
 31
0.0
  0
LINE
  5
1EC2
  8
0
 62
     0
 10
622.85890232830684
 20
415.99999999999989
 30
0.0
 11
485.3589023283069
 21
415.99999999999989
 31
0.0
  0
LINE
  5
1EC3
  8
0
 62
     0
 10
622.85890232830684
 20
414.49999999999989
 30
0.0
 11
485.3589023283069
 21
414.49999999999989
 31
0.0
  0
LINE
  5
1EC4
  8
0
 62
     0
 10
622.85890232830684
 20
412.99999999999989
 30
0.0
 11
485.3589023283069
 21
412.99999999999989
 31
0.0
  0
LINE
  5
1EC5
  8
0
 62
     0
 10
622.85890232830684
 20
411.49999999999989
 30
0.0
 11
485.3589023283069
 21
411.49999999999989
 31
0.0
  0
LINE
  5
1EC6
  8
0
 62
     0
 10
622.85890232830684
 20
409.99999999999989
 30
0.0
 11
485.3589023283069
 21
409.99999999999989
 31
0.0
  0
LINE
  5
1EC7
  8
0
 62
     0
 10
622.85890232830684
 20
408.49999999999989
 30
0.0
 11
485.3589023283069
 21
408.49999999999989
 31
0.0
  0
LINE
  5
1EC8
  8
0
 62
     0
 10
622.85890232830684
 20
406.99999999999989
 30
0.0
 11
485.3589023283069
 21
406.99999999999989
 31
0.0
  0
LINE
  5
1EC9
  8
0
 62
     0
 10
622.85890232830695
 20
400.99999999999989
 30
0.0
 11
485.35890232830701
 21
400.99999999999989
 31
0.0
  0
LINE
  5
1ECA
  8
0
 62
     0
 10
622.85890232830695
 20
399.5
 30
0.0
 11
485.35890232830701
 21
399.5
 31
0.0
  0
LINE
  5
1ECB
  8
0
 62
     0
 10
622.85890232830695
 20
398.0
 30
0.0
 11
485.35890232830701
 21
398.0
 31
0.0
  0
LINE
  5
1ECC
  8
0
 62
     0
 10
622.85890232830695
 20
396.49999999999989
 30
0.0
 11
485.35890232830701
 21
396.49999999999989
 31
0.0
  0
LINE
  5
1ECD
  8
0
 62
     0
 10
622.85890232830695
 20
395.0
 30
0.0
 11
485.35890232830701
 21
395.0
 31
0.0
  0
LINE
  5
1ECE
  8
0
 62
     0
 10
622.85890232830695
 20
393.5
 30
0.0
 11
485.35890232830701
 21
393.5
 31
0.0
  0
LINE
  5
1ECF
  8
0
 62
     0
 10
622.85890232830695
 20
391.99999999999989
 30
0.0
 11
485.35890232830701
 21
391.99999999999989
 31
0.0
  0
LINE
  5
1ED0
  8
0
 62
     0
 10
622.85890232830695
 20
390.49999999999989
 30
0.0
 11
485.35890232830701
 21
390.49999999999989
 31
0.0
  0
LINE
  5
1ED1
  8
0
 62
     0
 10
622.85890232830695
 20
389.0
 30
0.0
 11
485.35890232830701
 21
389.0
 31
0.0
  0
LINE
  5
1ED2
  8
0
 62
     0
 10
622.85890232830695
 20
387.5
 30
0.0
 11
485.35890232830701
 21
387.5
 31
0.0
  0
LINE
  5
1ED3
  8
0
 62
     0
 10
622.85890232830695
 20
385.99999999999989
 30
0.0
 11
485.35890232830701
 21
385.99999999999989
 31
0.0
  0
LINE
  5
1ED4
  8
0
 62
     0
 10
622.85890232830695
 20
384.49999999999989
 30
0.0
 11
485.35890232830701
 21
384.49999999999989
 31
0.0
  0
LINE
  5
1ED5
  8
0
 62
     0
 10
622.85890232830695
 20
383.0
 30
0.0
 11
485.35890232830701
 21
383.0
 31
0.0
  0
LINE
  5
1ED6
  8
0
 62
     0
 10
622.85890232830695
 20
381.49999999999989
 30
0.0
 11
485.35890232830701
 21
381.49999999999989
 31
0.0
  0
LINE
  5
1ED7
  8
0
 62
     0
 10
622.85890232830695
 20
379.99999999999989
 30
0.0
 11
485.35890232830701
 21
379.99999999999989
 31
0.0
  0
LINE
  5
1ED8
  8
0
 62
     0
 10
622.85890232830695
 20
378.5
 30
0.0
 11
485.35890232830701
 21
378.5
 31
0.0
  0
LINE
  5
1ED9
  8
0
 62
     0
 10
622.85890232830695
 20
377.0
 30
0.0
 11
485.35890232830701
 21
377.0
 31
0.0
  0
LINE
  5
1EDA
  8
0
 62
     0
 10
622.85890232830695
 20
375.49999999999989
 30
0.0
 11
485.35890232830701
 21
375.49999999999989
 31
0.0
  0
LINE
  5
1EDB
  8
0
 62
     0
 10
622.85890232830695
 20
373.99999999999989
 30
0.0
 11
485.35890232830701
 21
373.99999999999989
 31
0.0
  0
LINE
  5
1EDC
  8
0
 62
     0
 10
622.85890232830695
 20
372.5
 30
0.0
 11
485.35890232830701
 21
372.5
 31
0.0
  0
LINE
  5
1EDD
  8
0
 62
     0
 10
622.85890232830695
 20
370.99999999999989
 30
0.0
 11
485.35890232830701
 21
370.99999999999989
 31
0.0
  0
LINE
  5
1EDE
  8
0
 62
     0
 10
622.85890232830695
 20
369.49999999999989
 30
0.0
 11
485.35890232830701
 21
369.49999999999989
 31
0.0
  0
LINE
  5
1EDF
  8
0
 62
     0
 10
622.85890232830695
 20
368.0
 30
0.0
 11
485.35890232830701
 21
368.0
 31
0.0
  0
LINE
  5
1EE0
  8
0
 62
     0
 10
622.85890232830695
 20
366.5
 30
0.0
 11
485.35890232830701
 21
366.5
 31
0.0
  0
LINE
  5
1EE1
  8
0
 62
     0
 10
622.85890232830695
 20
364.99999999999989
 30
0.0
 11
485.35890232830701
 21
364.99999999999989
 31
0.0
  0
LINE
  5
1EE2
  8
0
 62
     0
 10
622.85890232830695
 20
363.49999999999989
 30
0.0
 11
485.35890232830701
 21
363.49999999999989
 31
0.0
  0
LINE
  5
1EE3
  8
0
 62
     0
 10
622.85890232830695
 20
362.0
 30
0.0
 11
485.35890232830701
 21
362.0
 31
0.0
  0
LINE
  5
1EE4
  8
0
 62
     0
 10
622.85890232830695
 20
360.49999999999989
 30
0.0
 11
485.35890232830701
 21
360.49999999999989
 31
0.0
  0
LINE
  5
1EE5
  8
0
 62
     0
 10
622.85890232830695
 20
358.99999999999989
 30
0.0
 11
485.35890232830701
 21
358.99999999999989
 31
0.0
  0
LINE
  5
1EE6
  8
0
 62
     0
 10
622.85890232830695
 20
357.49999999999989
 30
0.0
 11
485.35890232830701
 21
357.49999999999989
 31
0.0
  0
LINE
  5
1EE7
  8
0
 62
     0
 10
622.85890232830695
 20
356.0
 30
0.0
 11
485.35890232830701
 21
356.0
 31
0.0
  0
LINE
  5
1EE8
  8
0
 62
     0
 10
622.85890232830695
 20
354.49999999999989
 30
0.0
 11
485.35890232830701
 21
354.49999999999989
 31
0.0
  0
LINE
  5
1EE9
  8
0
 62
     0
 10
622.85890232830695
 20
352.99999999999989
 30
0.0
 11
485.35890232830701
 21
352.99999999999989
 31
0.0
  0
LINE
  5
1EEA
  8
0
 62
     0
 10
622.85890232830695
 20
351.5
 30
0.0
 11
485.35890232830701
 21
351.5
 31
0.0
  0
LINE
  5
1EEB
  8
0
 62
     0
 10
622.85890232830695
 20
350.0
 30
0.0
 11
485.35890232830701
 21
350.0
 31
0.0
  0
LINE
  5
1EEC
  8
0
 62
     0
 10
622.85890232830695
 20
348.49999999999989
 30
0.0
 11
485.35890232830701
 21
348.49999999999989
 31
0.0
  0
LINE
  5
1EED
  8
0
 62
     0
 10
622.85890232830695
 20
346.99999999999989
 30
0.0
 11
485.35890232830701
 21
346.99999999999989
 31
0.0
  0
LINE
  5
1EEE
  8
0
 62
     0
 10
622.85890232830695
 20
345.5
 30
0.0
 11
485.35890232830701
 21
345.5
 31
0.0
  0
LINE
  5
1EEF
  8
0
 62
     0
 10
622.85890232830695
 20
343.99999999999989
 30
0.0
 11
485.35890232830701
 21
343.99999999999989
 31
0.0
  0
LINE
  5
1EF0
  8
0
 62
     0
 10
622.85890232830695
 20
342.49999999999989
 30
0.0
 11
485.35890232830701
 21
342.49999999999989
 31
0.0
  0
LINE
  5
1EF1
  8
0
 62
     0
 10
622.85890232830695
 20
341.0
 30
0.0
 11
485.35890232830701
 21
341.0
 31
0.0
  0
LINE
  5
1EF2
  8
0
 62
     0
 10
622.85890232830695
 20
339.5
 30
0.0
 11
485.35890232830701
 21
339.5
 31
0.0
  0
LINE
  5
1EF3
  8
0
 62
     0
 10
622.85890232830695
 20
337.99999999999989
 30
0.0
 11
485.35890232830701
 21
337.99999999999989
 31
0.0
  0
LINE
  5
1EF4
  8
0
 62
     0
 10
622.85890232830695
 20
336.49999999999989
 30
0.0
 11
485.35890232830701
 21
336.49999999999989
 31
0.0
  0
LINE
  5
1EF5
  8
0
 62
     0
 10
622.85890232830695
 20
335.0
 30
0.0
 11
485.35890232830701
 21
335.0
 31
0.0
  0
LINE
  5
1EF6
  8
0
 62
     0
 10
622.85890232830684
 20
333.49999999999989
 30
0.0
 11
485.35890232830701
 21
333.49999999999989
 31
0.0
  0
LINE
  5
1EF7
  8
0
 62
     0
 10
622.85890232830684
 20
331.99999999999989
 30
0.0
 11
485.35890232830701
 21
331.99999999999989
 31
0.0
  0
LINE
  5
1EF8
  8
0
 62
     0
 10
622.85890232830684
 20
330.5
 30
0.0
 11
485.35890232830701
 21
330.5
 31
0.0
  0
LINE
  5
1EF9
  8
0
 62
     0
 10
622.85890232830684
 20
329.0
 30
0.0
 11
485.35890232830701
 21
329.0
 31
0.0
  0
LINE
  5
1EFA
  8
0
 62
     0
 10
622.85890232830684
 20
327.49999999999989
 30
0.0
 11
485.35890232830701
 21
327.49999999999989
 31
0.0
  0
LINE
  5
1EFB
  8
0
 62
     0
 10
622.85890232830684
 20
325.99999999999989
 30
0.0
 11
485.35890232830701
 21
325.99999999999989
 31
0.0
  0
LINE
  5
1EFC
  8
0
 62
     0
 10
622.85890232830684
 20
324.5
 30
0.0
 11
485.35890232830701
 21
324.5
 31
0.0
  0
LINE
  5
1EFD
  8
0
 62
     0
 10
622.85890232830684
 20
322.99999999999989
 30
0.0
 11
485.35890232830701
 21
322.99999999999989
 31
0.0
  0
LINE
  5
1EFE
  8
0
 62
     0
 10
622.85890232830684
 20
321.49999999999989
 30
0.0
 11
485.35890232830701
 21
321.49999999999989
 31
0.0
  0
LINE
  5
1EFF
  8
0
 62
     0
 10
622.85890232830684
 20
319.99999999999989
 30
0.0
 11
485.35890232830701
 21
319.99999999999989
 31
0.0
  0
LINE
  5
1F00
  8
0
 62
     0
 10
622.85890232830684
 20
318.5
 30
0.0
 11
485.35890232830701
 21
318.5
 31
0.0
  0
LINE
  5
1F01
  8
0
 62
     0
 10
622.85890232830684
 20
316.99999999999989
 30
0.0
 11
485.35890232830701
 21
316.99999999999989
 31
0.0
  0
LINE
  5
1F02
  8
0
 62
     0
 10
622.85890232830684
 20
315.49999999999989
 30
0.0
 11
485.3589023283069
 21
315.49999999999989
 31
0.0
  0
LINE
  5
1F03
  8
0
 62
     0
 10
622.85890232830684
 20
314.0
 30
0.0
 11
485.3589023283069
 21
314.0
 31
0.0
  0
LINE
  5
1F04
  8
0
 62
     0
 10
622.85890232830684
 20
312.5
 30
0.0
 11
485.3589023283069
 21
312.5
 31
0.0
  0
LINE
  5
1F05
  8
0
 62
     0
 10
622.85890232830684
 20
310.99999999999989
 30
0.0
 11
485.3589023283069
 21
310.99999999999989
 31
0.0
  0
LINE
  5
1F06
  8
0
 62
     0
 10
622.85890232830684
 20
309.49999999999989
 30
0.0
 11
485.3589023283069
 21
309.49999999999989
 31
0.0
  0
LINE
  5
1F07
  8
0
 62
     0
 10
622.85890232830684
 20
308.0
 30
0.0
 11
485.3589023283069
 21
308.0
 31
0.0
  0
LINE
  5
1F08
  8
0
 62
     0
 10
622.85890232830684
 20
306.49999999999989
 30
0.0
 11
485.3589023283069
 21
306.49999999999989
 31
0.0
  0
LINE
  5
1F09
  8
0
 62
     0
 10
622.85890232830684
 20
304.99999999999989
 30
0.0
 11
485.3589023283069
 21
304.99999999999989
 31
0.0
  0
LINE
  5
1F0A
  8
0
 62
     0
 10
622.85890232830684
 20
303.5
 30
0.0
 11
485.3589023283069
 21
303.5
 31
0.0
  0
LINE
  5
1F0B
  8
0
 62
     0
 10
622.85890232830684
 20
302.0
 30
0.0
 11
485.3589023283069
 21
302.0
 31
0.0
  0
LINE
  5
1F0C
  8
0
 62
     0
 10
622.85890232830684
 20
300.49999999999989
 30
0.0
 11
485.3589023283069
 21
300.49999999999989
 31
0.0
  0
LINE
  5
1F0D
  8
0
 62
     0
 10
622.85890232830684
 20
298.99999999999989
 30
0.0
 11
485.3589023283069
 21
298.99999999999989
 31
0.0
  0
LINE
  5
1F0E
  8
0
 62
     0
 10
622.85890232830684
 20
297.5
 30
0.0
 11
485.3589023283069
 21
297.5
 31
0.0
  0
LINE
  5
1F0F
  8
0
 62
     0
 10
622.85890232830684
 20
295.99999999999989
 30
0.0
 11
485.3589023283069
 21
295.99999999999989
 31
0.0
  0
LINE
  5
1F10
  8
0
 62
     0
 10
622.85890232830684
 20
294.49999999999989
 30
0.0
 11
485.3589023283069
 21
294.49999999999989
 31
0.0
  0
LINE
  5
1F11
  8
0
 62
     0
 10
622.85890232830684
 20
292.99999999999989
 30
0.0
 11
485.3589023283069
 21
292.99999999999989
 31
0.0
  0
LINE
  5
1F12
  8
0
 62
     0
 10
622.85890232830684
 20
291.5
 30
0.0
 11
485.3589023283069
 21
291.5
 31
0.0
  0
LINE
  5
1F13
  8
0
 62
     0
 10
622.85890232830684
 20
290.0
 30
0.0
 11
485.3589023283069
 21
290.0
 31
0.0
  0
LINE
  5
1F14
  8
0
 62
     0
 10
622.85890232830684
 20
288.49999999999989
 30
0.0
 11
485.3589023283069
 21
288.49999999999989
 31
0.0
  0
LINE
  5
1F15
  8
0
 62
     0
 10
622.85890232830673
 20
287.0
 30
0.0
 11
485.3589023283069
 21
287.0
 31
0.0
  0
LINE
  5
1F16
  8
0
 62
     0
 10
622.85890232830673
 20
285.5
 30
0.0
 11
485.3589023283069
 21
285.5
 31
0.0
  0
LINE
  5
1F17
  8
0
 62
     0
 10
622.85890232830673
 20
283.99999999999989
 30
0.0
 11
485.3589023283069
 21
283.99999999999989
 31
0.0
  0
LINE
  5
1F18
  8
0
 62
     0
 10
622.85890232830673
 20
282.49999999999989
 30
0.0
 11
485.35890232830678
 21
282.49999999999989
 31
0.0
  0
LINE
  5
1F19
  8
0
 62
     0
 10
622.85890232830673
 20
281.0
 30
0.0
 11
485.35890232830678
 21
281.0
 31
0.0
  0
LINE
  5
1F1A
  8
0
 62
     0
 10
622.85890232830673
 20
279.49999999999989
 30
0.0
 11
485.35890232830678
 21
279.49999999999989
 31
0.0
  0
LINE
  5
1F1B
  8
0
 62
     0
 10
622.85890232830673
 20
277.99999999999989
 30
0.0
 11
485.35890232830678
 21
277.99999999999989
 31
0.0
  0
LINE
  5
1F1C
  8
0
 62
     0
 10
622.85890232830673
 20
276.5
 30
0.0
 11
485.35890232830678
 21
276.5
 31
0.0
  0
LINE
  5
1F1D
  8
0
 62
     0
 10
622.85890232830673
 20
275.0
 30
0.0
 11
485.35890232830678
 21
275.0
 31
0.0
  0
LINE
  5
1F1E
  8
0
 62
     0
 10
622.85890232830673
 20
273.49999999999989
 30
0.0
 11
485.35890232830678
 21
273.49999999999989
 31
0.0
  0
LINE
  5
1F1F
  8
0
 62
     0
 10
622.85890232830673
 20
271.99999999999989
 30
0.0
 11
485.35890232830678
 21
271.99999999999989
 31
0.0
  0
LINE
  5
1F20
  8
0
 62
     0
 10
622.85890232830673
 20
270.5
 30
0.0
 11
485.35890232830678
 21
270.5
 31
0.0
  0
LINE
  5
1F21
  8
0
 62
     0
 10
622.85890232830673
 20
268.99999999999989
 30
0.0
 11
485.35890232830678
 21
268.99999999999989
 31
0.0
  0
LINE
  5
1F22
  8
0
 62
     0
 10
622.85890232830673
 20
267.49999999999989
 30
0.0
 11
485.35890232830678
 21
267.49999999999989
 31
0.0
  0
LINE
  5
1F23
  8
0
 62
     0
 10
622.85890232830673
 20
266.0
 30
0.0
 11
485.35890232830678
 21
266.0
 31
0.0
  0
ENDBLK
  5
1F25
  8
0
  0
BLOCK
  8
0
  2
*X5
 70
     1
 10
0.0
 20
0.0
 30
0.0
  3
*X5
  1

  0
LINE
  5
1F27
  8
0
 62
     0
 10
1108.5
 20
4.0000045037580172
 30
0.0
 11
1108.5
 21
98.375004503758575
 31
0.0
  0
LINE
  5
1F28
  8
0
 62
     0
 10
1107.0
 20
4.0000045037580012
 30
0.0
 11
1107.0
 21
98.375004503758561
 31
0.0
  0
LINE
  5
1F29
  8
0
 62
     0
 10
1105.5
 20
4.0000045037579852
 30
0.0
 11
1105.5
 21
98.375004503758547
 31
0.0
  0
LINE
  5
1F2A
  8
0
 62
     0
 10
1104.0
 20
4.0000045037579692
 30
0.0
 11
1104.0
 21
98.375004503758518
 31
0.0
  0
LINE
  5
1F2B
  8
0
 62
     0
 10
1102.5
 20
4.0000045037579532
 30
0.0
 11
1102.5
 21
98.375004503758504
 31
0.0
  0
LINE
  5
1F2C
  8
0
 62
     0
 10
1101.0
 20
4.0000045037579364
 30
0.0
 11
1101.0
 21
98.375004503758475
 31
0.0
  0
LINE
  5
1F2D
  8
0
 62
     0
 10
1099.5
 20
4.0000045037579204
 30
0.0
 11
1099.5
 21
98.375004503758475
 31
0.0
  0
LINE
  5
1F2E
  8
0
 62
     0
 10
1098.0
 20
4.0000045037579044
 30
0.0
 11
1098.0
 21
98.375004503758475
 31
0.0
  0
LINE
  5
1F2F
  8
0
 62
     0
 10
1096.5
 20
4.0000045037578884
 30
0.0
 11
1096.5
 21
98.375004503758447
 31
0.0
  0
LINE
  5
1F30
  8
0
 62
     0
 10
1069.5
 20
4.0000045037576069
 30
0.0
 11
1069.5
 21
98.375004503758163
 31
0.0
  0
LINE
  5
1F31
  8
0
 62
     0
 10
1068.0
 20
4.0000045037575926
 30
0.0
 11
1068.0
 21
98.375004503758149
 31
0.0
  0
LINE
  5
1F32
  8
0
 62
     0
 10
1066.5
 20
4.0000045037575784
 30
0.0
 11
1066.5
 21
98.375004503758134
 31
0.0
  0
LINE
  5
1F33
  8
0
 62
     0
 10
1065.0
 20
4.0000045037575642
 30
0.0
 11
1065.0
 21
98.375004503758134
 31
0.0
  0
LINE
  5
1F34
  8
0
 62
     0
 10
1063.5
 20
4.0000045037575491
 30
0.0
 11
1063.5
 21
98.375004503758092
 31
0.0
  0
LINE
  5
1F35
  8
0
 62
     0
 10
1062.0
 20
4.000004503757534
 30
0.0
 11
1062.0
 21
98.375004503758078
 31
0.0
  0
LINE
  5
1F36
  8
0
 62
     0
 10
1060.5
 20
4.0000045037575189
 30
0.0
 11
1060.5
 21
98.375004503758063
 31
0.0
  0
LINE
  5
1F37
  8
0
 62
     0
 10
1059.0
 20
4.0000045037575047
 30
0.0
 11
1059.0
 21
98.375004503758063
 31
0.0
  0
LINE
  5
1F38
  8
0
 62
     0
 10
1057.5
 20
4.0000045037574896
 30
0.0
 11
1057.5
 21
98.375004503758035
 31
0.0
  0
LINE
  5
1F39
  8
0
 62
     0
 10
1056.0
 20
4.0000045037574763
 30
0.0
 11
1056.0
 21
98.375004503758021
 31
0.0
  0
LINE
  5
1F3A
  8
0
 62
     0
 10
1054.5
 20
4.0000045037574612
 30
0.0
 11
1054.5
 21
98.375004503758007
 31
0.0
  0
LINE
  5
1F3B
  8
0
 62
     0
 10
1027.5
 20
4.0000045037571672
 30
0.0
 11
1027.5
 21
98.375004503757722
 31
0.0
  0
LINE
  5
1F3C
  8
0
 62
     0
 10
1026.0
 20
4.0000045037571521
 30
0.0
 11
1026.0
 21
98.375004503757694
 31
0.0
  0
LINE
  5
1F3D
  8
0
 62
     0
 10
1024.5
 20
4.000004503757137
 30
0.0
 11
1024.5
 21
98.375004503757694
 31
0.0
  0
LINE
  5
1F3E
  8
0
 62
     0
 10
1023.0
 20
4.0000045037571228
 30
0.0
 11
1023.0
 21
98.375004503757694
 31
0.0
  0
LINE
  5
1F3F
  8
0
 62
     0
 10
1021.5
 20
4.0000045037571077
 30
0.0
 11
1021.5
 21
98.375004503757651
 31
0.0
  0
LINE
  5
1F40
  8
0
 62
     0
 10
1020.0
 20
4.0000045037570944
 30
0.0
 11
1020.0
 21
98.375004503757637
 31
0.0
  0
LINE
  5
1F41
  8
0
 62
     0
 10
1018.5
 20
4.0000045037570793
 30
0.0
 11
1018.5
 21
98.375004503757637
 31
0.0
  0
LINE
  5
1F42
  8
0
 62
     0
 10
1017.0
 20
4.0000045037570651
 30
0.0
 11
1017.0
 21
98.375004503757609
 31
0.0
  0
LINE
  5
1F43
  8
0
 62
     0
 10
1015.5
 20
4.0000045037570491
 30
0.0
 11
1015.5
 21
98.375004503757594
 31
0.0
  0
LINE
  5
1F44
  8
0
 62
     0
 10
1014.0
 20
4.0000045037570349
 30
0.0
 11
1014.0
 21
98.37500450375758
 31
0.0
  0
LINE
  5
1F45
  8
0
 62
     0
 10
1012.5
 20
4.0000045037570198
 30
0.0
 11
1012.5
 21
98.375004503757566
 31
0.0
  0
LINE
  5
1F46
  8
0
 62
     0
 10
985.5
 20
4.0000045037567551
 30
0.0
 11
985.5
 21
98.375004503757282
 31
0.0
  0
LINE
  5
1F47
  8
0
 62
     0
 10
984.0
 20
4.0000045037567391
 30
0.0
 11
984.0
 21
98.375004503757282
 31
0.0
  0
LINE
  5
1F48
  8
0
 62
     0
 10
982.50000000000011
 20
4.0000045037567231
 30
0.0
 11
982.50000000000011
 21
98.375004503757253
 31
0.0
  0
LINE
  5
1F49
  8
0
 62
     0
 10
981.0
 20
4.0000045037567071
 30
0.0
 11
981.0
 21
98.375004503757239
 31
0.0
  0
LINE
  5
1F4A
  8
0
 62
     0
 10
979.49999999999989
 20
4.0000045037566911
 30
0.0
 11
979.49999999999989
 21
98.375004503757211
 31
0.0
  0
LINE
  5
1F4B
  8
0
 62
     0
 10
978.0
 20
4.0000045037566743
 30
0.0
 11
978.0
 21
98.375004503757211
 31
0.0
  0
LINE
  5
1F4C
  8
0
 62
     0
 10
976.5
 20
4.0000045037566583
 30
0.0
 11
976.5
 21
98.375004503757197
 31
0.0
  0
LINE
  5
1F4D
  8
0
 62
     0
 10
975.0
 20
4.0000045037566423
 30
0.0
 11
975.0
 21
98.375004503757168
 31
0.0
  0
LINE
  5
1F4E
  8
0
 62
     0
 10
973.49999999999989
 20
4.0000045037566263
 30
0.0
 11
973.49999999999989
 21
98.375004503757154
 31
0.0
  0
LINE
  5
1F4F
  8
0
 62
     0
 10
967.5
 20
4.0000045037580136
 30
0.0
 11
967.5
 21
98.375004503758575
 31
0.0
  0
LINE
  5
1F50
  8
0
 62
     0
 10
966.0
 20
4.0000045037579977
 30
0.0
 11
966.0
 21
98.375004503758561
 31
0.0
  0
LINE
  5
1F51
  8
0
 62
     0
 10
964.49999999999989
 20
4.0000045037579817
 30
0.0
 11
964.49999999999989
 21
98.375004503758547
 31
0.0
  0
LINE
  5
1F52
  8
0
 62
     0
 10
963.0
 20
4.0000045037579657
 30
0.0
 11
963.0
 21
98.375004503758518
 31
0.0
  0
LINE
  5
1F53
  8
0
 62
     0
 10
961.5
 20
4.0000045037579497
 30
0.0
 11
961.5
 21
98.375004503758504
 31
0.0
  0
LINE
  5
1F54
  8
0
 62
     0
 10
960.0
 20
4.0000045037579328
 30
0.0
 11
960.0
 21
98.375004503758475
 31
0.0
  0
LINE
  5
1F55
  8
0
 62
     0
 10
958.5
 20
4.0000045037579168
 30
0.0
 11
958.5
 21
98.375004503758475
 31
0.0
  0
LINE
  5
1F56
  8
0
 62
     0
 10
957.0
 20
4.0000045037579008
 30
0.0
 11
957.0
 21
98.375004503758475
 31
0.0
  0
LINE
  5
1F57
  8
0
 62
     0
 10
955.49999999999989
 20
4.0000045037578849
 30
0.0
 11
955.49999999999989
 21
98.375004503758447
 31
0.0
  0
LINE
  5
1F58
  8
0
 62
     0
 10
928.5
 20
4.0000045037576051
 30
0.0
 11
928.5
 21
98.375004503758163
 31
0.0
  0
LINE
  5
1F59
  8
0
 62
     0
 10
927.0
 20
4.00000450375759
 30
0.0
 11
927.0
 21
98.375004503758149
 31
0.0
  0
LINE
  5
1F5A
  8
0
 62
     0
 10
925.5
 20
4.0000045037575749
 30
0.0
 11
925.5
 21
98.375004503758134
 31
0.0
  0
LINE
  5
1F5B
  8
0
 62
     0
 10
924.0
 20
4.0000045037575607
 30
0.0
 11
924.0
 21
98.375004503758106
 31
0.0
  0
LINE
  5
1F5C
  8
0
 62
     0
 10
922.49999999999989
 20
4.0000045037575456
 30
0.0
 11
922.49999999999989
 21
98.375004503758092
 31
0.0
  0
LINE
  5
1F5D
  8
0
 62
     0
 10
921.0
 20
4.0000045037575322
 30
0.0
 11
921.0
 21
98.375004503758078
 31
0.0
  0
LINE
  5
1F5E
  8
0
 62
     0
 10
919.5
 20
4.0000045037575171
 30
0.0
 11
919.5
 21
98.375004503758063
 31
0.0
  0
LINE
  5
1F5F
  8
0
 62
     0
 10
918.0
 20
4.0000045037575021
 30
0.0
 11
918.0
 21
98.375004503758063
 31
0.0
  0
LINE
  5
1F60
  8
0
 62
     0
 10
916.5
 20
4.000004503757487
 30
0.0
 11
916.5
 21
98.375004503758035
 31
0.0
  0
LINE
  5
1F61
  8
0
 62
     0
 10
915.0
 20
4.0000045037574727
 30
0.0
 11
915.0
 21
98.375004503758021
 31
0.0
  0
LINE
  5
1F62
  8
0
 62
     0
 10
913.49999999999989
 20
4.0000045037574576
 30
0.0
 11
913.49999999999989
 21
98.375004503758007
 31
0.0
  0
LINE
  5
1F63
  8
0
 62
     0
 10
886.5
 20
4.0000045037571637
 30
0.0
 11
886.5
 21
98.375004503757722
 31
0.0
  0
LINE
  5
1F64
  8
0
 62
     0
 10
885.0
 20
4.0000045037571503
 30
0.0
 11
885.0
 21
98.375004503757694
 31
0.0
  0
LINE
  5
1F65
  8
0
 62
     0
 10
883.5
 20
4.0000045037571352
 30
0.0
 11
883.5
 21
98.375004503757694
 31
0.0
  0
LINE
  5
1F66
  8
0
 62
     0
 10
882.0
 20
4.000004503757121
 30
0.0
 11
882.0
 21
98.375004503757665
 31
0.0
  0
LINE
  5
1F67
  8
0
 62
     0
 10
880.49999999999989
 20
4.000004503757105
 30
0.0
 11
880.49999999999989
 21
98.375004503757651
 31
0.0
  0
LINE
  5
1F68
  8
0
 62
     0
 10
879.0
 20
4.0000045037570908
 30
0.0
 11
879.0
 21
98.375004503757637
 31
0.0
  0
LINE
  5
1F69
  8
0
 62
     0
 10
877.5
 20
4.0000045037570757
 30
0.0
 11
877.5
 21
98.375004503757637
 31
0.0
  0
LINE
  5
1F6A
  8
0
 62
     0
 10
876.0
 20
4.0000045037570624
 30
0.0
 11
876.0
 21
98.375004503757609
 31
0.0
  0
LINE
  5
1F6B
  8
0
 62
     0
 10
874.5
 20
4.0000045037570473
 30
0.0
 11
874.5
 21
98.375004503757594
 31
0.0
  0
LINE
  5
1F6C
  8
0
 62
     0
 10
873.0
 20
4.0000045037570331
 30
0.0
 11
873.0
 21
98.37500450375758
 31
0.0
  0
LINE
  5
1F6D
  8
0
 62
     0
 10
871.49999999999989
 20
4.0000045037570171
 30
0.0
 11
871.49999999999989
 21
98.375004503757566
 31
0.0
  0
LINE
  5
1F6E
  8
0
 62
     0
 10
844.5
 20
4.0000045037567524
 30
0.0
 11
844.5
 21
98.375004503757282
 31
0.0
  0
LINE
  5
1F6F
  8
0
 62
     0
 10
843.0
 20
4.0000045037567364
 30
0.0
 11
843.0
 21
98.375004503757282
 31
0.0
  0
LINE
  5
1F70
  8
0
 62
     0
 10
841.5
 20
4.0000045037567196
 30
0.0
 11
841.5
 21
98.375004503757239
 31
0.0
  0
LINE
  5
1F71
  8
0
 62
     0
 10
840.0
 20
4.0000045037567036
 30
0.0
 11
840.0
 21
98.375004503757225
 31
0.0
  0
LINE
  5
1F72
  8
0
 62
     0
 10
838.49999999999989
 20
4.0000045037566876
 30
0.0
 11
838.49999999999989
 21
98.375004503757211
 31
0.0
  0
LINE
  5
1F73
  8
0
 62
     0
 10
837.0
 20
4.0000045037566707
 30
0.0
 11
837.0
 21
98.375004503757211
 31
0.0
  0
LINE
  5
1F74
  8
0
 62
     0
 10
835.5
 20
4.0000045037566547
 30
0.0
 11
835.5
 21
98.375004503757197
 31
0.0
  0
LINE
  5
1F75
  8
0
 62
     0
 10
834.0
 20
4.0000045037566387
 30
0.0
 11
834.0
 21
98.375004503757168
 31
0.0
  0
LINE
  5
1F76
  8
0
 62
     0
 10
832.49999999999989
 20
4.0000045037566228
 30
0.0
 11
832.49999999999989
 21
98.375004503757154
 31
0.0
  0
LINE
  5
1F77
  8
0
 62
     0
 10
826.5
 20
4.000004503758011
 30
0.0
 11
826.5
 21
98.375004503758561
 31
0.0
  0
LINE
  5
1F78
  8
0
 62
     0
 10
825.0
 20
4.000004503757995
 30
0.0
 11
825.0
 21
98.375004503758561
 31
0.0
  0
LINE
  5
1F79
  8
0
 62
     0
 10
823.49999999999989
 20
4.000004503757979
 30
0.0
 11
823.49999999999989
 21
98.375004503758547
 31
0.0
  0
LINE
  5
1F7A
  8
0
 62
     0
 10
822.0
 20
4.000004503757963
 30
0.0
 11
822.0
 21
98.375004503758518
 31
0.0
  0
LINE
  5
1F7B
  8
0
 62
     0
 10
820.5
 20
4.000004503757947
 30
0.0
 11
820.5
 21
98.375004503758504
 31
0.0
  0
LINE
  5
1F7C
  8
0
 62
     0
 10
819.0
 20
4.000004503757931
 30
0.0
 11
819.0
 21
98.375004503758475
 31
0.0
  0
LINE
  5
1F7D
  8
0
 62
     0
 10
817.5
 20
4.0000045037579151
 30
0.0
 11
817.5
 21
98.375004503758475
 31
0.0
  0
LINE
  5
1F7E
  8
0
 62
     0
 10
816.0
 20
4.0000045037578991
 30
0.0
 11
816.0
 21
98.375004503758447
 31
0.0
  0
LINE
  5
1F7F
  8
0
 62
     0
 10
814.49999999999989
 20
4.0000045037578831
 30
0.0
 11
814.49999999999989
 21
98.375004503758433
 31
0.0
  0
LINE
  5
1F80
  8
0
 62
     0
 10
787.5
 20
4.0000045037576033
 30
0.0
 11
787.5
 21
98.375004503758163
 31
0.0
  0
LINE
  5
1F81
  8
0
 62
     0
 10
786.0
 20
4.0000045037575882
 30
0.0
 11
786.0
 21
98.375004503758134
 31
0.0
  0
LINE
  5
1F82
  8
0
 62
     0
 10
784.49999999999989
 20
4.0000045037575731
 30
0.0
 11
784.49999999999989
 21
98.375004503758134
 31
0.0
  0
LINE
  5
1F83
  8
0
 62
     0
 10
783.0
 20
4.000004503757558
 30
0.0
 11
783.0
 21
98.375004503758106
 31
0.0
  0
LINE
  5
1F84
  8
0
 62
     0
 10
781.5
 20
4.0000045037575438
 30
0.0
 11
781.5
 21
98.375004503758092
 31
0.0
  0
LINE
  5
1F85
  8
0
 62
     0
 10
780.0
 20
4.0000045037575287
 30
0.0
 11
780.0
 21
98.375004503758078
 31
0.0
  0
LINE
  5
1F86
  8
0
 62
     0
 10
778.5
 20
4.0000045037575154
 30
0.0
 11
778.5
 21
98.375004503758063
 31
0.0
  0
LINE
  5
1F87
  8
0
 62
     0
 10
777.0
 20
4.0000045037575003
 30
0.0
 11
777.0
 21
98.375004503758063
 31
0.0
  0
LINE
  5
1F88
  8
0
 62
     0
 10
775.49999999999989
 20
4.0000045037574861
 30
0.0
 11
775.49999999999989
 21
98.375004503758035
 31
0.0
  0
LINE
  5
1F89
  8
0
 62
     0
 10
774.0
 20
4.0000045037574701
 30
0.0
 11
774.0
 21
98.375004503758007
 31
0.0
  0
LINE
  5
1F8A
  8
0
 62
     0
 10
772.5
 20
4.0000045037574559
 30
0.0
 11
772.5
 21
98.375004503757992
 31
0.0
  0
LINE
  5
1F8B
  8
0
 62
     0
 10
745.5
 20
4.0000045037571761
 30
0.0
 11
745.5
 21
98.375004503757694
 31
0.0
  0
LINE
  5
1F8C
  8
0
 62
     0
 10
744.0
 20
4.0000045037571601
 30
0.0
 11
744.0
 21
98.375004503757694
 31
0.0
  0
LINE
  5
1F8D
  8
0
 62
     0
 10
742.49999999999989
 20
4.0000045037571441
 30
0.0
 11
742.49999999999989
 21
98.375004503757694
 31
0.0
  0
LINE
  5
1F8E
  8
0
 62
     0
 10
741.0
 20
4.0000045037571281
 30
0.0
 11
741.0
 21
98.375004503757665
 31
0.0
  0
LINE
  5
1F8F
  8
0
 62
     0
 10
739.5
 20
4.0000045037571121
 30
0.0
 11
739.5
 21
98.375004503757637
 31
0.0
  0
LINE
  5
1F90
  8
0
 62
     0
 10
738.0
 20
4.0000045037570962
 30
0.0
 11
738.0
 21
98.375004503757637
 31
0.0
  0
LINE
  5
1F91
  8
0
 62
     0
 10
736.5
 20
4.0000045037570802
 30
0.0
 11
736.5
 21
98.375004503757609
 31
0.0
  0
LINE
  5
1F92
  8
0
 62
     0
 10
735.0
 20
4.0000045037570642
 30
0.0
 11
735.0
 21
98.375004503757594
 31
0.0
  0
LINE
  5
1F93
  8
0
 62
     0
 10
733.49999999999989
 20
4.0000045037570482
 30
0.0
 11
733.49999999999989
 21
98.37500450375758
 31
0.0
  0
LINE
  5
1F94
  8
0
 62
     0
 10
732.0
 20
4.0000045037570322
 30
0.0
 11
732.0
 21
98.375004503757566
 31
0.0
  0
LINE
  5
1F95
  8
0
 62
     0
 10
730.49999999999989
 20
4.0000045037570162
 30
0.0
 11
730.49999999999989
 21
98.375004503757566
 31
0.0
  0
LINE
  5
1F96
  8
0
 62
     0
 10
703.5
 20
4.0000045037567489
 30
0.0
 11
703.5
 21
98.375004503757282
 31
0.0
  0
LINE
  5
1F97
  8
0
 62
     0
 10
702.0
 20
4.0000045037567329
 30
0.0
 11
702.0
 21
98.375004503757253
 31
0.0
  0
LINE
  5
1F98
  8
0
 62
     0
 10
700.49999999999989
 20
4.0000045037567169
 30
0.0
 11
700.49999999999989
 21
98.375004503757239
 31
0.0
  0
LINE
  5
1F99
  8
0
 62
     0
 10
699.0
 20
4.0000045037567009
 30
0.0
 11
699.0
 21
98.375004503757225
 31
0.0
  0
LINE
  5
1F9A
  8
0
 62
     0
 10
697.5
 20
4.0000045037566849
 30
0.0
 11
697.5
 21
98.375004503757211
 31
0.0
  0
LINE
  5
1F9B
  8
0
 62
     0
 10
696.0
 20
4.0000045037566681
 30
0.0
 11
696.0
 21
98.375004503757211
 31
0.0
  0
LINE
  5
1F9C
  8
0
 62
     0
 10
694.5
 20
4.0000045037566521
 30
0.0
 11
694.5
 21
98.375004503757197
 31
0.0
  0
LINE
  5
1F9D
  8
0
 62
     0
 10
693.0
 20
4.0000045037566361
 30
0.0
 11
693.0
 21
98.375004503757168
 31
0.0
  0
LINE
  5
1F9E
  8
0
 62
     0
 10
691.5
 20
4.0000045037566201
 30
0.0
 11
691.5
 21
98.375004503757154
 31
0.0
  0
LINE
  5
1F9F
  8
0
 62
     0
 10
912.82318418770285
 20
4.5
 30
0.0
 11
928.83969824162762
 21
4.5
 31
0.0
  0
LINE
  5
1FA0
  8
0
 62
     0
 10
870.83069858695637
 20
4.5
 30
0.0
 11
886.82792055812945
 21
4.5
 31
0.0
  0
LINE
  5
1FA1
  8
0
 62
     0
 10
954.82271390372546
 20
4.5
 30
0.0
 11
968.08069858695694
 21
4.5
 31
0.0
  0
LINE
  5
1FA2
  8
0
 62
     0
 10
831.58069858695694
 20
4.5
 30
0.0
 11
844.83069858695546
 21
4.5
 31
0.0
  0
LINE
  5
1FA3
  8
0
 62
     0
 10
972.33069858695387
 20
4.5
 30
0.0
 11
985.58069858695274
 21
4.5
 31
0.0
  0
LINE
  5
1FA4
  8
0
 62
     0
 10
814.07271390372273
 20
4.5
 30
0.0
 11
827.33069858695399
 21
4.5
 31
0.0
  0
LINE
  5
1FA5
  8
0
 62
     0
 10
1011.580698586953
 20
4.5
 30
0.0
 11
1027.5779205581271
 21
4.5
 31
0.0
  0
LINE
  5
1FA6
  8
0
 62
     0
 10
772.07318418770012
 20
4.5
 30
0.0
 11
788.089698241625
 21
4.5
 31
0.0
  0
LINE
  5
1FA7
  8
0
 62
     0
 10
1053.5731841877
 20
4.5
 30
0.0
 11
1069.589698241625
 21
4.5
 31
0.0
  0
LINE
  5
1FA8
  8
0
 62
     0
 10
730.08069858695364
 20
4.5
 30
0.0
 11
746.07792055812695
 21
4.5
 31
0.0
  0
LINE
  5
1FA9
  8
0
 62
     0
 10
1095.5727139037219
 20
4.5
 30
0.0
 11
1108.830698586954
 21
4.5
 31
0.0
  0
LINE
  5
1FAA
  8
0
 62
     0
 10
690.83069858695399
 20
4.5
 30
0.0
 11
704.08069858695274
 21
4.5
 31
0.0
  0
LINE
  5
1FAB
  8
0
 62
     0
 10
912.82318418770285
 20
6.0
 30
0.0
 11
928.83969824162762
 21
6.0
 31
0.0
  0
LINE
  5
1FAC
  8
0
 62
     0
 10
870.83069858695637
 20
6.0
 30
0.0
 11
886.82792055812945
 21
6.0
 31
0.0
  0
LINE
  5
1FAD
  8
0
 62
     0
 10
954.82271390372546
 20
6.0
 30
0.0
 11
968.08069858695694
 21
6.0
 31
0.0
  0
LINE
  5
1FAE
  8
0
 62
     0
 10
831.58069858695694
 20
6.0
 30
0.0
 11
844.83069858695546
 21
6.0
 31
0.0
  0
LINE
  5
1FAF
  8
0
 62
     0
 10
972.33069858695387
 20
6.0
 30
0.0
 11
985.58069858695274
 21
6.0
 31
0.0
  0
LINE
  5
1FB0
  8
0
 62
     0
 10
814.07271390372273
 20
6.0
 30
0.0
 11
827.33069858695399
 21
6.0
 31
0.0
  0
LINE
  5
1FB1
  8
0
 62
     0
 10
1011.580698586953
 20
6.0
 30
0.0
 11
1027.5779205581271
 21
6.0
 31
0.0
  0
LINE
  5
1FB2
  8
0
 62
     0
 10
772.07318418770012
 20
6.0
 30
0.0
 11
788.089698241625
 21
6.0
 31
0.0
  0
LINE
  5
1FB3
  8
0
 62
     0
 10
1053.5731841877
 20
6.0
 30
0.0
 11
1069.589698241625
 21
6.0
 31
0.0
  0
LINE
  5
1FB4
  8
0
 62
     0
 10
730.08069858695364
 20
6.0
 30
0.0
 11
746.07792055812695
 21
6.0
 31
0.0
  0
LINE
  5
1FB5
  8
0
 62
     0
 10
1095.5727139037219
 20
6.0
 30
0.0
 11
1108.830698586954
 21
6.0
 31
0.0
  0
LINE
  5
1FB6
  8
0
 62
     0
 10
690.83069858695399
 20
6.0
 30
0.0
 11
704.08069858695274
 21
6.0
 31
0.0
  0
LINE
  5
1FB7
  8
0
 62
     0
 10
912.82318418770285
 20
7.5
 30
0.0
 11
928.83969824162762
 21
7.5
 31
0.0
  0
LINE
  5
1FB8
  8
0
 62
     0
 10
870.83069858695637
 20
7.5
 30
0.0
 11
886.82792055812945
 21
7.5
 31
0.0
  0
LINE
  5
1FB9
  8
0
 62
     0
 10
954.82271390372546
 20
7.5
 30
0.0
 11
968.08069858695694
 21
7.5
 31
0.0
  0
LINE
  5
1FBA
  8
0
 62
     0
 10
831.58069858695694
 20
7.5
 30
0.0
 11
844.83069858695546
 21
7.5
 31
0.0
  0
LINE
  5
1FBB
  8
0
 62
     0
 10
972.33069858695387
 20
7.5
 30
0.0
 11
985.58069858695274
 21
7.5
 31
0.0
  0
LINE
  5
1FBC
  8
0
 62
     0
 10
814.07271390372273
 20
7.5
 30
0.0
 11
827.33069858695399
 21
7.5
 31
0.0
  0
LINE
  5
1FBD
  8
0
 62
     0
 10
1011.580698586953
 20
7.5
 30
0.0
 11
1027.5779205581271
 21
7.5
 31
0.0
  0
LINE
  5
1FBE
  8
0
 62
     0
 10
772.07318418770012
 20
7.5
 30
0.0
 11
788.089698241625
 21
7.5
 31
0.0
  0
LINE
  5
1FBF
  8
0
 62
     0
 10
1053.5731841877
 20
7.5
 30
0.0
 11
1069.589698241625
 21
7.5
 31
0.0
  0
LINE
  5
1FC0
  8
0
 62
     0
 10
730.08069858695364
 20
7.5
 30
0.0
 11
746.07792055812695
 21
7.5
 31
0.0
  0
LINE
  5
1FC1
  8
0
 62
     0
 10
1095.5727139037219
 20
7.5
 30
0.0
 11
1108.830698586954
 21
7.5
 31
0.0
  0
LINE
  5
1FC2
  8
0
 62
     0
 10
690.83069858695399
 20
7.5
 30
0.0
 11
704.08069858695274
 21
7.5
 31
0.0
  0
LINE
  5
1FC3
  8
0
 62
     0
 10
912.82318418770285
 20
9.0
 30
0.0
 11
928.83969824162762
 21
9.0
 31
0.0
  0
LINE
  5
1FC4
  8
0
 62
     0
 10
870.83069858695637
 20
9.0
 30
0.0
 11
886.82792055812945
 21
9.0
 31
0.0
  0
LINE
  5
1FC5
  8
0
 62
     0
 10
954.82271390372546
 20
9.0
 30
0.0
 11
968.08069858695694
 21
9.0
 31
0.0
  0
LINE
  5
1FC6
  8
0
 62
     0
 10
831.58069858695694
 20
9.0
 30
0.0
 11
844.83069858695546
 21
9.0
 31
0.0
  0
LINE
  5
1FC7
  8
0
 62
     0
 10
972.33069858695387
 20
9.0
 30
0.0
 11
985.58069858695274
 21
9.0
 31
0.0
  0
LINE
  5
1FC8
  8
0
 62
     0
 10
814.07271390372273
 20
9.0
 30
0.0
 11
827.33069858695399
 21
9.0
 31
0.0
  0
LINE
  5
1FC9
  8
0
 62
     0
 10
1011.580698586953
 20
9.0
 30
0.0
 11
1027.5779205581271
 21
9.0
 31
0.0
  0
LINE
  5
1FCA
  8
0
 62
     0
 10
772.07318418770012
 20
9.0
 30
0.0
 11
788.089698241625
 21
9.0
 31
0.0
  0
LINE
  5
1FCB
  8
0
 62
     0
 10
1053.5731841877
 20
9.0
 30
0.0
 11
1069.589698241625
 21
9.0
 31
0.0
  0
LINE
  5
1FCC
  8
0
 62
     0
 10
730.08069858695364
 20
9.0
 30
0.0
 11
746.07792055812695
 21
9.0
 31
0.0
  0
LINE
  5
1FCD
  8
0
 62
     0
 10
1095.5727139037219
 20
9.0
 30
0.0
 11
1108.830698586954
 21
9.0
 31
0.0
  0
LINE
  5
1FCE
  8
0
 62
     0
 10
690.83069858695399
 20
9.0
 30
0.0
 11
704.08069858695274
 21
9.0
 31
0.0
  0
LINE
  5
1FCF
  8
0
 62
     0
 10
912.82318418770285
 20
10.5
 30
0.0
 11
928.83969824162762
 21
10.5
 31
0.0
  0
LINE
  5
1FD0
  8
0
 62
     0
 10
870.83069858695637
 20
10.5
 30
0.0
 11
886.82792055812945
 21
10.5
 31
0.0
  0
LINE
  5
1FD1
  8
0
 62
     0
 10
954.82271390372546
 20
10.5
 30
0.0
 11
968.08069858695671
 21
10.5
 31
0.0
  0
LINE
  5
1FD2
  8
0
 62
     0
 10
831.58069858695671
 20
10.5
 30
0.0
 11
844.83069858695546
 21
10.5
 31
0.0
  0
LINE
  5
1FD3
  8
0
 62
     0
 10
972.33069858695387
 20
10.5
 30
0.0
 11
985.58069858695274
 21
10.5
 31
0.0
  0
LINE
  5
1FD4
  8
0
 62
     0
 10
814.07271390372273
 20
10.5
 30
0.0
 11
827.33069858695376
 21
10.5
 31
0.0
  0
LINE
  5
1FD5
  8
0
 62
     0
 10
1011.580698586953
 20
10.5
 30
0.0
 11
1027.5779205581271
 21
10.5
 31
0.0
  0
LINE
  5
1FD6
  8
0
 62
     0
 10
772.07318418770012
 20
10.5
 30
0.0
 11
788.089698241625
 21
10.5
 31
0.0
  0
LINE
  5
1FD7
  8
0
 62
     0
 10
1053.5731841877
 20
10.5
 30
0.0
 11
1069.589698241625
 21
10.5
 31
0.0
  0
LINE
  5
1FD8
  8
0
 62
     0
 10
730.08069858695364
 20
10.5
 30
0.0
 11
746.07792055812695
 21
10.5
 31
0.0
  0
LINE
  5
1FD9
  8
0
 62
     0
 10
1095.5727139037219
 20
10.5
 30
0.0
 11
1108.830698586954
 21
10.5
 31
0.0
  0
LINE
  5
1FDA
  8
0
 62
     0
 10
690.83069858695376
 20
10.5
 30
0.0
 11
704.08069858695274
 21
10.5
 31
0.0
  0
LINE
  5
1FDB
  8
0
 62
     0
 10
912.82318418770285
 20
12.0
 30
0.0
 11
928.83969824162762
 21
12.0
 31
0.0
  0
LINE
  5
1FDC
  8
0
 62
     0
 10
870.83069858695637
 20
12.0
 30
0.0
 11
886.82792055812945
 21
12.0
 31
0.0
  0
LINE
  5
1FDD
  8
0
 62
     0
 10
954.82271390372546
 20
12.0
 30
0.0
 11
968.08069858695671
 21
12.0
 31
0.0
  0
LINE
  5
1FDE
  8
0
 62
     0
 10
831.58069858695671
 20
12.0
 30
0.0
 11
844.83069858695546
 21
12.0
 31
0.0
  0
LINE
  5
1FDF
  8
0
 62
     0
 10
972.33069858695387
 20
12.0
 30
0.0
 11
985.58069858695274
 21
12.0
 31
0.0
  0
LINE
  5
1FE0
  8
0
 62
     0
 10
814.07271390372273
 20
12.0
 30
0.0
 11
827.33069858695376
 21
12.0
 31
0.0
  0
LINE
  5
1FE1
  8
0
 62
     0
 10
1011.580698586953
 20
12.0
 30
0.0
 11
1027.5779205581271
 21
12.0
 31
0.0
  0
LINE
  5
1FE2
  8
0
 62
     0
 10
772.07318418770012
 20
12.0
 30
0.0
 11
788.089698241625
 21
12.0
 31
0.0
  0
LINE
  5
1FE3
  8
0
 62
     0
 10
1053.5731841877
 20
12.0
 30
0.0
 11
1069.589698241625
 21
12.0
 31
0.0
  0
LINE
  5
1FE4
  8
0
 62
     0
 10
730.08069858695364
 20
12.0
 30
0.0
 11
746.07792055812695
 21
12.0
 31
0.0
  0
LINE
  5
1FE5
  8
0
 62
     0
 10
1095.5727139037219
 20
12.0
 30
0.0
 11
1108.830698586954
 21
12.0
 31
0.0
  0
LINE
  5
1FE6
  8
0
 62
     0
 10
690.83069858695376
 20
12.0
 30
0.0
 11
704.08069858695274
 21
12.0
 31
0.0
  0
LINE
  5
1FE7
  8
0
 62
     0
 10
912.82318418770285
 20
13.5
 30
0.0
 11
928.83969824162762
 21
13.5
 31
0.0
  0
LINE
  5
1FE8
  8
0
 62
     0
 10
870.83069858695637
 20
13.5
 30
0.0
 11
886.82792055812945
 21
13.5
 31
0.0
  0
LINE
  5
1FE9
  8
0
 62
     0
 10
954.82271390372546
 20
13.5
 30
0.0
 11
968.08069858695671
 21
13.5
 31
0.0
  0
LINE
  5
1FEA
  8
0
 62
     0
 10
831.58069858695671
 20
13.5
 30
0.0
 11
844.83069858695546
 21
13.5
 31
0.0
  0
LINE
  5
1FEB
  8
0
 62
     0
 10
972.33069858695387
 20
13.5
 30
0.0
 11
985.58069858695274
 21
13.5
 31
0.0
  0
LINE
  5
1FEC
  8
0
 62
     0
 10
814.07271390372273
 20
13.5
 30
0.0
 11
827.33069858695376
 21
13.5
 31
0.0
  0
LINE
  5
1FED
  8
0
 62
     0
 10
1011.580698586953
 20
13.5
 30
0.0
 11
1027.5779205581271
 21
13.5
 31
0.0
  0
LINE
  5
1FEE
  8
0
 62
     0
 10
772.07318418770012
 20
13.5
 30
0.0
 11
788.089698241625
 21
13.5
 31
0.0
  0
LINE
  5
1FEF
  8
0
 62
     0
 10
1053.5731841877
 20
13.5
 30
0.0
 11
1069.589698241625
 21
13.5
 31
0.0
  0
LINE
  5
1FF0
  8
0
 62
     0
 10
730.08069858695364
 20
13.5
 30
0.0
 11
746.07792055812695
 21
13.5
 31
0.0
  0
LINE
  5
1FF1
  8
0
 62
     0
 10
1095.5727139037219
 20
13.5
 30
0.0
 11
1108.830698586954
 21
13.5
 31
0.0
  0
LINE
  5
1FF2
  8
0
 62
     0
 10
690.83069858695376
 20
13.5
 30
0.0
 11
704.08069858695274
 21
13.5
 31
0.0
  0
LINE
  5
1FF3
  8
0
 62
     0
 10
912.82318418770285
 20
15.0
 30
0.0
 11
928.83969824162762
 21
15.0
 31
0.0
  0
LINE
  5
1FF4
  8
0
 62
     0
 10
870.83069858695637
 20
15.0
 30
0.0
 11
886.82792055812945
 21
15.0
 31
0.0
  0
LINE
  5
1FF5
  8
0
 62
     0
 10
954.82271390372546
 20
15.0
 30
0.0
 11
968.08069858695671
 21
15.0
 31
0.0
  0
LINE
  5
1FF6
  8
0
 62
     0
 10
831.58069858695671
 20
15.0
 30
0.0
 11
844.83069858695546
 21
15.0
 31
0.0
  0
LINE
  5
1FF7
  8
0
 62
     0
 10
972.33069858695387
 20
15.0
 30
0.0
 11
985.58069858695274
 21
15.0
 31
0.0
  0
LINE
  5
1FF8
  8
0
 62
     0
 10
814.07271390372273
 20
15.0
 30
0.0
 11
827.33069858695376
 21
15.0
 31
0.0
  0
LINE
  5
1FF9
  8
0
 62
     0
 10
1011.580698586953
 20
15.0
 30
0.0
 11
1027.5779205581271
 21
15.0
 31
0.0
  0
LINE
  5
1FFA
  8
0
 62
     0
 10
772.07318418770012
 20
15.0
 30
0.0
 11
788.089698241625
 21
15.0
 31
0.0
  0
LINE
  5
1FFB
  8
0
 62
     0
 10
1053.5731841877
 20
15.0
 30
0.0
 11
1069.589698241625
 21
15.0
 31
0.0
  0
LINE
  5
1FFC
  8
0
 62
     0
 10
730.08069858695364
 20
15.0
 30
0.0
 11
746.07792055812695
 21
15.0
 31
0.0
  0
LINE
  5
1FFD
  8
0
 62
     0
 10
1095.5727139037219
 20
15.0
 30
0.0
 11
1108.830698586954
 21
15.0
 31
0.0
  0
LINE
  5
1FFE
  8
0
 62
     0
 10
690.83069858695376
 20
15.0
 30
0.0
 11
704.08069858695274
 21
15.0
 31
0.0
  0
LINE
  5
1FFF
  8
0
 62
     0
 10
912.82318418770285
 20
16.5
 30
0.0
 11
928.83969824162762
 21
16.5
 31
0.0
  0
LINE
  5
2000
  8
0
 62
     0
 10
870.83069858695637
 20
16.5
 30
0.0
 11
886.82792055812945
 21
16.5
 31
0.0
  0
LINE
  5
2001
  8
0
 62
     0
 10
954.82271390372546
 20
16.5
 30
0.0
 11
968.08069858695671
 21
16.5
 31
0.0
  0
LINE
  5
2002
  8
0
 62
     0
 10
831.58069858695671
 20
16.5
 30
0.0
 11
844.83069858695546
 21
16.5
 31
0.0
  0
LINE
  5
2003
  8
0
 62
     0
 10
972.33069858695387
 20
16.5
 30
0.0
 11
985.58069858695274
 21
16.5
 31
0.0
  0
LINE
  5
2004
  8
0
 62
     0
 10
814.07271390372273
 20
16.5
 30
0.0
 11
827.33069858695376
 21
16.5
 31
0.0
  0
LINE
  5
2005
  8
0
 62
     0
 10
1011.580698586953
 20
16.5
 30
0.0
 11
1027.5779205581271
 21
16.5
 31
0.0
  0
LINE
  5
2006
  8
0
 62
     0
 10
772.07318418770012
 20
16.5
 30
0.0
 11
788.089698241625
 21
16.5
 31
0.0
  0
LINE
  5
2007
  8
0
 62
     0
 10
1053.5731841877
 20
16.5
 30
0.0
 11
1069.589698241625
 21
16.5
 31
0.0
  0
LINE
  5
2008
  8
0
 62
     0
 10
730.08069858695364
 20
16.5
 30
0.0
 11
746.07792055812695
 21
16.5
 31
0.0
  0
LINE
  5
2009
  8
0
 62
     0
 10
1095.5727139037219
 20
16.5
 30
0.0
 11
1108.830698586954
 21
16.5
 31
0.0
  0
LINE
  5
200A
  8
0
 62
     0
 10
690.83069858695376
 20
16.5
 30
0.0
 11
704.08069858695274
 21
16.5
 31
0.0
  0
LINE
  5
200B
  8
0
 62
     0
 10
912.82318418770285
 20
18.0
 30
0.0
 11
928.83969824162762
 21
18.0
 31
0.0
  0
LINE
  5
200C
  8
0
 62
     0
 10
870.83069858695637
 20
18.0
 30
0.0
 11
886.82792055812945
 21
18.0
 31
0.0
  0
LINE
  5
200D
  8
0
 62
     0
 10
954.82271390372546
 20
18.0
 30
0.0
 11
968.08069858695671
 21
18.0
 31
0.0
  0
LINE
  5
200E
  8
0
 62
     0
 10
831.58069858695671
 20
18.0
 30
0.0
 11
844.83069858695546
 21
18.0
 31
0.0
  0
LINE
  5
200F
  8
0
 62
     0
 10
972.33069858695387
 20
18.0
 30
0.0
 11
985.58069858695274
 21
18.0
 31
0.0
  0
LINE
  5
2010
  8
0
 62
     0
 10
814.07271390372273
 20
18.0
 30
0.0
 11
827.33069858695376
 21
18.0
 31
0.0
  0
LINE
  5
2011
  8
0
 62
     0
 10
1011.580698586953
 20
18.0
 30
0.0
 11
1027.5779205581271
 21
18.0
 31
0.0
  0
LINE
  5
2012
  8
0
 62
     0
 10
772.07318418770012
 20
18.0
 30
0.0
 11
788.089698241625
 21
18.0
 31
0.0
  0
LINE
  5
2013
  8
0
 62
     0
 10
1053.5731841877
 20
18.0
 30
0.0
 11
1069.589698241625
 21
18.0
 31
0.0
  0
LINE
  5
2014
  8
0
 62
     0
 10
730.08069858695364
 20
18.0
 30
0.0
 11
746.07792055812695
 21
18.0
 31
0.0
  0
LINE
  5
2015
  8
0
 62
     0
 10
1095.5727139037219
 20
18.0
 30
0.0
 11
1108.830698586954
 21
18.0
 31
0.0
  0
LINE
  5
2016
  8
0
 62
     0
 10
690.83069858695376
 20
18.0
 30
0.0
 11
704.08069858695274
 21
18.0
 31
0.0
  0
LINE
  5
2017
  8
0
 62
     0
 10
912.82318418770285
 20
19.5
 30
0.0
 11
928.83969824162762
 21
19.5
 31
0.0
  0
LINE
  5
2018
  8
0
 62
     0
 10
870.83069858695637
 20
19.5
 30
0.0
 11
886.82792055812945
 21
19.5
 31
0.0
  0
LINE
  5
2019
  8
0
 62
     0
 10
954.82271390372546
 20
19.5
 30
0.0
 11
968.08069858695671
 21
19.5
 31
0.0
  0
LINE
  5
201A
  8
0
 62
     0
 10
831.58069858695671
 20
19.5
 30
0.0
 11
844.83069858695546
 21
19.5
 31
0.0
  0
LINE
  5
201B
  8
0
 62
     0
 10
972.33069858695387
 20
19.5
 30
0.0
 11
985.58069858695274
 21
19.5
 31
0.0
  0
LINE
  5
201C
  8
0
 62
     0
 10
814.07271390372273
 20
19.5
 30
0.0
 11
827.33069858695376
 21
19.5
 31
0.0
  0
LINE
  5
201D
  8
0
 62
     0
 10
1011.580698586953
 20
19.5
 30
0.0
 11
1027.5779205581271
 21
19.5
 31
0.0
  0
LINE
  5
201E
  8
0
 62
     0
 10
772.07318418770012
 20
19.5
 30
0.0
 11
788.089698241625
 21
19.5
 31
0.0
  0
LINE
  5
201F
  8
0
 62
     0
 10
1053.5731841877
 20
19.5
 30
0.0
 11
1069.589698241625
 21
19.5
 31
0.0
  0
LINE
  5
2020
  8
0
 62
     0
 10
730.08069858695364
 20
19.5
 30
0.0
 11
746.07792055812695
 21
19.5
 31
0.0
  0
LINE
  5
2021
  8
0
 62
     0
 10
1095.5727139037219
 20
19.5
 30
0.0
 11
1108.830698586954
 21
19.5
 31
0.0
  0
LINE
  5
2022
  8
0
 62
     0
 10
690.83069858695376
 20
19.5
 30
0.0
 11
704.08069858695274
 21
19.5
 31
0.0
  0
LINE
  5
2023
  8
0
 62
     0
 10
912.82318418770285
 20
21.0
 30
0.0
 11
928.83969824162762
 21
21.0
 31
0.0
  0
LINE
  5
2024
  8
0
 62
     0
 10
870.83069858695637
 20
21.0
 30
0.0
 11
886.82792055812945
 21
21.0
 31
0.0
  0
LINE
  5
2025
  8
0
 62
     0
 10
954.82271390372546
 20
21.0
 30
0.0
 11
968.08069858695671
 21
21.0
 31
0.0
  0
LINE
  5
2026
  8
0
 62
     0
 10
831.58069858695671
 20
21.0
 30
0.0
 11
844.83069858695546
 21
21.0
 31
0.0
  0
LINE
  5
2027
  8
0
 62
     0
 10
972.33069858695376
 20
21.0
 30
0.0
 11
985.58069858695274
 21
21.0
 31
0.0
  0
LINE
  5
2028
  8
0
 62
     0
 10
814.07271390372273
 20
21.0
 30
0.0
 11
827.33069858695364
 21
21.0
 31
0.0
  0
LINE
  5
2029
  8
0
 62
     0
 10
1011.580698586953
 20
21.0
 30
0.0
 11
1027.5779205581271
 21
21.0
 31
0.0
  0
LINE
  5
202A
  8
0
 62
     0
 10
772.07318418770012
 20
21.0
 30
0.0
 11
788.089698241625
 21
21.0
 31
0.0
  0
LINE
  5
202B
  8
0
 62
     0
 10
1053.5731841877
 20
21.0
 30
0.0
 11
1069.589698241625
 21
21.0
 31
0.0
  0
LINE
  5
202C
  8
0
 62
     0
 10
730.08069858695364
 20
21.0
 30
0.0
 11
746.07792055812695
 21
21.0
 31
0.0
  0
LINE
  5
202D
  8
0
 62
     0
 10
1095.5727139037219
 20
21.0
 30
0.0
 11
1108.830698586954
 21
21.0
 31
0.0
  0
LINE
  5
202E
  8
0
 62
     0
 10
690.83069858695364
 20
21.0
 30
0.0
 11
704.08069858695274
 21
21.0
 31
0.0
  0
LINE
  5
202F
  8
0
 62
     0
 10
912.82318418770285
 20
22.5
 30
0.0
 11
928.83969824162762
 21
22.5
 31
0.0
  0
LINE
  5
2030
  8
0
 62
     0
 10
870.83069858695637
 20
22.5
 30
0.0
 11
886.82792055812945
 21
22.5
 31
0.0
  0
LINE
  5
2031
  8
0
 62
     0
 10
954.82271390372546
 20
22.5
 30
0.0
 11
968.08069858695671
 21
22.5
 31
0.0
  0
LINE
  5
2032
  8
0
 62
     0
 10
831.58069858695671
 20
22.5
 30
0.0
 11
844.83069858695546
 21
22.5
 31
0.0
  0
LINE
  5
2033
  8
0
 62
     0
 10
972.33069858695376
 20
22.5
 30
0.0
 11
985.58069858695274
 21
22.5
 31
0.0
  0
LINE
  5
2034
  8
0
 62
     0
 10
814.07271390372273
 20
22.5
 30
0.0
 11
827.33069858695364
 21
22.5
 31
0.0
  0
LINE
  5
2035
  8
0
 62
     0
 10
1011.580698586953
 20
22.5
 30
0.0
 11
1027.5779205581271
 21
22.5
 31
0.0
  0
LINE
  5
2036
  8
0
 62
     0
 10
772.07318418770012
 20
22.5
 30
0.0
 11
788.089698241625
 21
22.5
 31
0.0
  0
LINE
  5
2037
  8
0
 62
     0
 10
1053.5731841877
 20
22.5
 30
0.0
 11
1069.589698241625
 21
22.5
 31
0.0
  0
LINE
  5
2038
  8
0
 62
     0
 10
730.08069858695364
 20
22.5
 30
0.0
 11
746.07792055812695
 21
22.5
 31
0.0
  0
LINE
  5
2039
  8
0
 62
     0
 10
1095.5727139037219
 20
22.5
 30
0.0
 11
1108.830698586954
 21
22.5
 31
0.0
  0
LINE
  5
203A
  8
0
 62
     0
 10
690.83069858695364
 20
22.5
 30
0.0
 11
704.08069858695274
 21
22.5
 31
0.0
  0
LINE
  5
203B
  8
0
 62
     0
 10
912.82318418770285
 20
24.0
 30
0.0
 11
928.83969824162762
 21
24.0
 31
0.0
  0
LINE
  5
203C
  8
0
 62
     0
 10
870.83069858695637
 20
24.0
 30
0.0
 11
886.82792055812945
 21
24.0
 31
0.0
  0
LINE
  5
203D
  8
0
 62
     0
 10
954.82271390372546
 20
24.0
 30
0.0
 11
968.08069858695671
 21
24.0
 31
0.0
  0
LINE
  5
203E
  8
0
 62
     0
 10
831.58069858695671
 20
24.0
 30
0.0
 11
844.83069858695546
 21
24.0
 31
0.0
  0
LINE
  5
203F
  8
0
 62
     0
 10
972.33069858695376
 20
24.0
 30
0.0
 11
985.58069858695274
 21
24.0
 31
0.0
  0
LINE
  5
2040
  8
0
 62
     0
 10
814.07271390372273
 20
24.0
 30
0.0
 11
827.33069858695364
 21
24.0
 31
0.0
  0
LINE
  5
2041
  8
0
 62
     0
 10
1011.580698586953
 20
24.0
 30
0.0
 11
1027.5779205581271
 21
24.0
 31
0.0
  0
LINE
  5
2042
  8
0
 62
     0
 10
772.07318418770012
 20
24.0
 30
0.0
 11
788.089698241625
 21
24.0
 31
0.0
  0
LINE
  5
2043
  8
0
 62
     0
 10
1053.5731841877
 20
24.0
 30
0.0
 11
1069.589698241625
 21
24.0
 31
0.0
  0
LINE
  5
2044
  8
0
 62
     0
 10
730.08069858695364
 20
24.0
 30
0.0
 11
746.07792055812695
 21
24.0
 31
0.0
  0
LINE
  5
2045
  8
0
 62
     0
 10
1095.5727139037219
 20
24.0
 30
0.0
 11
1108.830698586954
 21
24.0
 31
0.0
  0
LINE
  5
2046
  8
0
 62
     0
 10
690.83069858695364
 20
24.0
 30
0.0
 11
704.08069858695274
 21
24.0
 31
0.0
  0
LINE
  5
2047
  8
0
 62
     0
 10
912.82318418770285
 20
25.5
 30
0.0
 11
928.83969824162762
 21
25.5
 31
0.0
  0
LINE
  5
2048
  8
0
 62
     0
 10
870.83069858695637
 20
25.5
 30
0.0
 11
886.82792055812945
 21
25.5
 31
0.0
  0
LINE
  5
2049
  8
0
 62
     0
 10
954.82271390372546
 20
25.5
 30
0.0
 11
968.08069858695671
 21
25.5
 31
0.0
  0
LINE
  5
204A
  8
0
 62
     0
 10
831.58069858695671
 20
25.5
 30
0.0
 11
844.83069858695546
 21
25.5
 31
0.0
  0
LINE
  5
204B
  8
0
 62
     0
 10
972.33069858695376
 20
25.5
 30
0.0
 11
985.58069858695274
 21
25.5
 31
0.0
  0
LINE
  5
204C
  8
0
 62
     0
 10
814.07271390372273
 20
25.5
 30
0.0
 11
827.33069858695364
 21
25.5
 31
0.0
  0
LINE
  5
204D
  8
0
 62
     0
 10
1011.580698586953
 20
25.5
 30
0.0
 11
1027.5779205581271
 21
25.5
 31
0.0
  0
LINE
  5
204E
  8
0
 62
     0
 10
772.07318418770012
 20
25.5
 30
0.0
 11
788.089698241625
 21
25.5
 31
0.0
  0
LINE
  5
204F
  8
0
 62
     0
 10
1053.5731841877
 20
25.5
 30
0.0
 11
1069.589698241625
 21
25.5
 31
0.0
  0
LINE
  5
2050
  8
0
 62
     0
 10
730.08069858695364
 20
25.5
 30
0.0
 11
746.07792055812695
 21
25.5
 31
0.0
  0
LINE
  5
2051
  8
0
 62
     0
 10
1095.5727139037219
 20
25.5
 30
0.0
 11
1108.830698586954
 21
25.5
 31
0.0
  0
LINE
  5
2052
  8
0
 62
     0
 10
690.83069858695364
 20
25.5
 30
0.0
 11
704.08069858695274
 21
25.5
 31
0.0
  0
LINE
  5
2053
  8
0
 62
     0
 10
912.82318418770285
 20
27.0
 30
0.0
 11
928.83969824162762
 21
27.0
 31
0.0
  0
LINE
  5
2054
  8
0
 62
     0
 10
870.83069858695637
 20
27.0
 30
0.0
 11
886.82792055812945
 21
27.0
 31
0.0
  0
LINE
  5
2055
  8
0
 62
     0
 10
954.82271390372546
 20
27.0
 30
0.0
 11
968.08069858695671
 21
27.0
 31
0.0
  0
LINE
  5
2056
  8
0
 62
     0
 10
831.58069858695671
 20
27.0
 30
0.0
 11
844.83069858695546
 21
27.0
 31
0.0
  0
LINE
  5
2057
  8
0
 62
     0
 10
972.33069858695376
 20
27.0
 30
0.0
 11
985.58069858695274
 21
27.0
 31
0.0
  0
LINE
  5
2058
  8
0
 62
     0
 10
814.07271390372273
 20
27.0
 30
0.0
 11
827.33069858695364
 21
27.0
 31
0.0
  0
LINE
  5
2059
  8
0
 62
     0
 10
1011.580698586953
 20
27.0
 30
0.0
 11
1027.5779205581271
 21
27.0
 31
0.0
  0
LINE
  5
205A
  8
0
 62
     0
 10
772.07318418770012
 20
27.0
 30
0.0
 11
788.089698241625
 21
27.0
 31
0.0
  0
LINE
  5
205B
  8
0
 62
     0
 10
1053.5731841877
 20
27.0
 30
0.0
 11
1069.589698241625
 21
27.0
 31
0.0
  0
LINE
  5
205C
  8
0
 62
     0
 10
730.08069858695364
 20
27.0
 30
0.0
 11
746.07792055812695
 21
27.0
 31
0.0
  0
LINE
  5
205D
  8
0
 62
     0
 10
1095.5727139037219
 20
27.0
 30
0.0
 11
1108.830698586954
 21
27.0
 31
0.0
  0
LINE
  5
205E
  8
0
 62
     0
 10
690.83069858695364
 20
27.0
 30
0.0
 11
704.08069858695274
 21
27.0
 31
0.0
  0
LINE
  5
205F
  8
0
 62
     0
 10
912.82318418770285
 20
28.5
 30
0.0
 11
928.83969824162762
 21
28.5
 31
0.0
  0
LINE
  5
2060
  8
0
 62
     0
 10
870.83069858695637
 20
28.5
 30
0.0
 11
886.82792055812945
 21
28.5
 31
0.0
  0
LINE
  5
2061
  8
0
 62
     0
 10
954.82271390372546
 20
28.5
 30
0.0
 11
968.08069858695671
 21
28.5
 31
0.0
  0
LINE
  5
2062
  8
0
 62
     0
 10
831.58069858695671
 20
28.5
 30
0.0
 11
844.83069858695546
 21
28.5
 31
0.0
  0
LINE
  5
2063
  8
0
 62
     0
 10
972.33069858695376
 20
28.5
 30
0.0
 11
985.58069858695274
 21
28.5
 31
0.0
  0
LINE
  5
2064
  8
0
 62
     0
 10
814.07271390372273
 20
28.5
 30
0.0
 11
827.33069858695364
 21
28.5
 31
0.0
  0
LINE
  5
2065
  8
0
 62
     0
 10
1011.580698586953
 20
28.5
 30
0.0
 11
1027.5779205581271
 21
28.5
 31
0.0
  0
LINE
  5
2066
  8
0
 62
     0
 10
772.07318418770012
 20
28.5
 30
0.0
 11
788.089698241625
 21
28.5
 31
0.0
  0
LINE
  5
2067
  8
0
 62
     0
 10
1053.5731841877
 20
28.5
 30
0.0
 11
1069.589698241625
 21
28.5
 31
0.0
  0
LINE
  5
2068
  8
0
 62
     0
 10
730.08069858695364
 20
28.5
 30
0.0
 11
746.07792055812695
 21
28.5
 31
0.0
  0
LINE
  5
2069
  8
0
 62
     0
 10
1095.5727139037219
 20
28.5
 30
0.0
 11
1108.830698586954
 21
28.5
 31
0.0
  0
LINE
  5
206A
  8
0
 62
     0
 10
690.83069858695364
 20
28.5
 30
0.0
 11
704.08069858695274
 21
28.5
 31
0.0
  0
LINE
  5
206B
  8
0
 62
     0
 10
912.82318418770285
 20
30.0
 30
0.0
 11
928.83969824162762
 21
30.0
 31
0.0
  0
LINE
  5
206C
  8
0
 62
     0
 10
870.83069858695637
 20
30.0
 30
0.0
 11
886.82792055812945
 21
30.0
 31
0.0
  0
LINE
  5
206D
  8
0
 62
     0
 10
954.82271390372546
 20
30.0
 30
0.0
 11
968.08069858695671
 21
30.0
 31
0.0
  0
LINE
  5
206E
  8
0
 62
     0
 10
831.58069858695671
 20
30.0
 30
0.0
 11
844.83069858695546
 21
30.0
 31
0.0
  0
LINE
  5
206F
  8
0
 62
     0
 10
972.33069858695376
 20
30.0
 30
0.0
 11
985.58069858695274
 21
30.0
 31
0.0
  0
LINE
  5
2070
  8
0
 62
     0
 10
814.07271390372273
 20
30.0
 30
0.0
 11
827.33069858695364
 21
30.0
 31
0.0
  0
LINE
  5
2071
  8
0
 62
     0
 10
1011.580698586953
 20
30.0
 30
0.0
 11
1027.5779205581271
 21
30.0
 31
0.0
  0
LINE
  5
2072
  8
0
 62
     0
 10
772.07318418770012
 20
30.0
 30
0.0
 11
788.089698241625
 21
30.0
 31
0.0
  0
LINE
  5
2073
  8
0
 62
     0
 10
1053.5731841877
 20
30.0
 30
0.0
 11
1069.589698241625
 21
30.0
 31
0.0
  0
LINE
  5
2074
  8
0
 62
     0
 10
730.08069858695364
 20
30.0
 30
0.0
 11
746.07792055812695
 21
30.0
 31
0.0
  0
LINE
  5
2075
  8
0
 62
     0
 10
1095.5727139037219
 20
30.0
 30
0.0
 11
1108.830698586954
 21
30.0
 31
0.0
  0
LINE
  5
2076
  8
0
 62
     0
 10
690.83069858695364
 20
30.0
 30
0.0
 11
704.08069858695274
 21
30.0
 31
0.0
  0
LINE
  5
2077
  8
0
 62
     0
 10
912.82318418770285
 20
31.5
 30
0.0
 11
928.83969824162762
 21
31.5
 31
0.0
  0
LINE
  5
2078
  8
0
 62
     0
 10
870.83069858695637
 20
31.5
 30
0.0
 11
886.82792055812945
 21
31.5
 31
0.0
  0
LINE
  5
2079
  8
0
 62
     0
 10
954.82271390372546
 20
31.5
 30
0.0
 11
968.08069858695671
 21
31.5
 31
0.0
  0
LINE
  5
207A
  8
0
 62
     0
 10
831.58069858695671
 20
31.5
 30
0.0
 11
844.83069858695546
 21
31.5
 31
0.0
  0
LINE
  5
207B
  8
0
 62
     0
 10
972.33069858695364
 20
31.5
 30
0.0
 11
985.58069858695274
 21
31.5
 31
0.0
  0
LINE
  5
207C
  8
0
 62
     0
 10
814.07271390372273
 20
31.5
 30
0.0
 11
827.33069858695364
 21
31.5
 31
0.0
  0
LINE
  5
207D
  8
0
 62
     0
 10
1011.580698586953
 20
31.5
 30
0.0
 11
1027.5779205581271
 21
31.5
 31
0.0
  0
LINE
  5
207E
  8
0
 62
     0
 10
772.07318418770012
 20
31.5
 30
0.0
 11
788.089698241625
 21
31.5
 31
0.0
  0
LINE
  5
207F
  8
0
 62
     0
 10
1053.5731841877
 20
31.5
 30
0.0
 11
1069.589698241625
 21
31.5
 31
0.0
  0
LINE
  5
2080
  8
0
 62
     0
 10
730.08069858695364
 20
31.5
 30
0.0
 11
746.07792055812695
 21
31.5
 31
0.0
  0
LINE
  5
2081
  8
0
 62
     0
 10
1095.5727139037219
 20
31.5
 30
0.0
 11
1108.830698586954
 21
31.5
 31
0.0
  0
LINE
  5
2082
  8
0
 62
     0
 10
690.83069858695364
 20
31.5
 30
0.0
 11
704.08069858695274
 21
31.5
 31
0.0
  0
LINE
  5
2083
  8
0
 62
     0
 10
912.82318418770285
 20
33.0
 30
0.0
 11
928.83969824162762
 21
33.0
 31
0.0
  0
LINE
  5
2084
  8
0
 62
     0
 10
870.83069858695637
 20
33.0
 30
0.0
 11
886.82792055812945
 21
33.0
 31
0.0
  0
LINE
  5
2085
  8
0
 62
     0
 10
954.82271390372546
 20
33.0
 30
0.0
 11
968.08069858695671
 21
33.0
 31
0.0
  0
LINE
  5
2086
  8
0
 62
     0
 10
831.58069858695671
 20
33.0
 30
0.0
 11
844.83069858695546
 21
33.0
 31
0.0
  0
LINE
  5
2087
  8
0
 62
     0
 10
972.33069858695364
 20
33.0
 30
0.0
 11
985.58069858695274
 21
33.0
 31
0.0
  0
LINE
  5
2088
  8
0
 62
     0
 10
814.07271390372273
 20
33.0
 30
0.0
 11
827.33069858695364
 21
33.0
 31
0.0
  0
LINE
  5
2089
  8
0
 62
     0
 10
1011.580698586953
 20
33.0
 30
0.0
 11
1027.5779205581271
 21
33.0
 31
0.0
  0
LINE
  5
208A
  8
0
 62
     0
 10
772.07318418770012
 20
33.0
 30
0.0
 11
788.089698241625
 21
33.0
 31
0.0
  0
LINE
  5
208B
  8
0
 62
     0
 10
1053.5731841877
 20
33.0
 30
0.0
 11
1069.589698241625
 21
33.0
 31
0.0
  0
LINE
  5
208C
  8
0
 62
     0
 10
730.08069858695364
 20
33.0
 30
0.0
 11
746.07792055812695
 21
33.0
 31
0.0
  0
LINE
  5
208D
  8
0
 62
     0
 10
1095.5727139037219
 20
33.0
 30
0.0
 11
1108.830698586954
 21
33.0
 31
0.0
  0
LINE
  5
208E
  8
0
 62
     0
 10
690.83069858695364
 20
33.0
 30
0.0
 11
704.08069858695274
 21
33.0
 31
0.0
  0
LINE
  5
208F
  8
0
 62
     0
 10
912.82318418770285
 20
34.5
 30
0.0
 11
928.83969824162762
 21
34.5
 31
0.0
  0
LINE
  5
2090
  8
0
 62
     0
 10
870.83069858695637
 20
34.5
 30
0.0
 11
886.82792055812945
 21
34.5
 31
0.0
  0
LINE
  5
2091
  8
0
 62
     0
 10
954.82271390372546
 20
34.5
 30
0.0
 11
968.0806985869566
 21
34.5
 31
0.0
  0
LINE
  5
2092
  8
0
 62
     0
 10
831.58069858695649
 20
34.5
 30
0.0
 11
844.83069858695546
 21
34.5
 31
0.0
  0
LINE
  5
2093
  8
0
 62
     0
 10
972.33069858695364
 20
34.5
 30
0.0
 11
985.58069858695274
 21
34.5
 31
0.0
  0
LINE
  5
2094
  8
0
 62
     0
 10
814.07271390372273
 20
34.5
 30
0.0
 11
827.33069858695364
 21
34.5
 31
0.0
  0
LINE
  5
2095
  8
0
 62
     0
 10
1011.580698586953
 20
34.5
 30
0.0
 11
1027.5779205581271
 21
34.5
 31
0.0
  0
LINE
  5
2096
  8
0
 62
     0
 10
772.07318418770012
 20
34.5
 30
0.0
 11
788.089698241625
 21
34.5
 31
0.0
  0
LINE
  5
2097
  8
0
 62
     0
 10
1053.5731841877
 20
34.5
 30
0.0
 11
1069.589698241625
 21
34.5
 31
0.0
  0
LINE
  5
2098
  8
0
 62
     0
 10
730.08069858695364
 20
34.5
 30
0.0
 11
746.07792055812695
 21
34.5
 31
0.0
  0
LINE
  5
2099
  8
0
 62
     0
 10
1095.5727139037219
 20
34.5
 30
0.0
 11
1108.830698586954
 21
34.5
 31
0.0
  0
LINE
  5
209A
  8
0
 62
     0
 10
690.83069858695364
 20
34.5
 30
0.0
 11
704.08069858695274
 21
34.5
 31
0.0
  0
LINE
  5
209B
  8
0
 62
     0
 10
912.82318418770285
 20
36.0
 30
0.0
 11
928.83969824162762
 21
36.0
 31
0.0
  0
LINE
  5
209C
  8
0
 62
     0
 10
870.83069858695637
 20
36.0
 30
0.0
 11
886.82792055812945
 21
36.0
 31
0.0
  0
LINE
  5
209D
  8
0
 62
     0
 10
954.82271390372546
 20
36.0
 30
0.0
 11
968.0806985869566
 21
36.0
 31
0.0
  0
LINE
  5
209E
  8
0
 62
     0
 10
831.58069858695649
 20
36.0
 30
0.0
 11
844.83069858695546
 21
36.0
 31
0.0
  0
LINE
  5
209F
  8
0
 62
     0
 10
972.33069858695364
 20
36.0
 30
0.0
 11
985.58069858695274
 21
36.0
 31
0.0
  0
LINE
  5
20A0
  8
0
 62
     0
 10
814.07271390372273
 20
36.0
 30
0.0
 11
827.33069858695364
 21
36.0
 31
0.0
  0
LINE
  5
20A1
  8
0
 62
     0
 10
1011.580698586953
 20
36.0
 30
0.0
 11
1027.5779205581271
 21
36.0
 31
0.0
  0
LINE
  5
20A2
  8
0
 62
     0
 10
772.07318418770012
 20
36.0
 30
0.0
 11
788.089698241625
 21
36.0
 31
0.0
  0
LINE
  5
20A3
  8
0
 62
     0
 10
1053.5731841877
 20
36.0
 30
0.0
 11
1069.589698241625
 21
36.0
 31
0.0
  0
LINE
  5
20A4
  8
0
 62
     0
 10
730.08069858695364
 20
36.0
 30
0.0
 11
746.07792055812695
 21
36.0
 31
0.0
  0
LINE
  5
20A5
  8
0
 62
     0
 10
1095.5727139037219
 20
36.0
 30
0.0
 11
1108.830698586954
 21
36.0
 31
0.0
  0
LINE
  5
20A6
  8
0
 62
     0
 10
690.83069858695364
 20
36.0
 30
0.0
 11
704.08069858695274
 21
36.0
 31
0.0
  0
LINE
  5
20A7
  8
0
 62
     0
 10
912.82318418770285
 20
37.5
 30
0.0
 11
928.83969824162762
 21
37.5
 31
0.0
  0
LINE
  5
20A8
  8
0
 62
     0
 10
870.83069858695637
 20
37.5
 30
0.0
 11
886.82792055812945
 21
37.5
 31
0.0
  0
LINE
  5
20A9
  8
0
 62
     0
 10
954.82271390372546
 20
37.5
 30
0.0
 11
968.0806985869566
 21
37.5
 31
0.0
  0
LINE
  5
20AA
  8
0
 62
     0
 10
831.58069858695649
 20
37.5
 30
0.0
 11
844.83069858695546
 21
37.5
 31
0.0
  0
LINE
  5
20AB
  8
0
 62
     0
 10
972.33069858695364
 20
37.5
 30
0.0
 11
985.58069858695274
 21
37.5
 31
0.0
  0
LINE
  5
20AC
  8
0
 62
     0
 10
814.07271390372273
 20
37.5
 30
0.0
 11
827.33069858695364
 21
37.5
 31
0.0
  0
LINE
  5
20AD
  8
0
 62
     0
 10
1011.580698586953
 20
37.5
 30
0.0
 11
1027.5779205581271
 21
37.5
 31
0.0
  0
LINE
  5
20AE
  8
0
 62
     0
 10
772.07318418770012
 20
37.5
 30
0.0
 11
788.089698241625
 21
37.5
 31
0.0
  0
LINE
  5
20AF
  8
0
 62
     0
 10
1053.5731841877
 20
37.5
 30
0.0
 11
1069.589698241625
 21
37.5
 31
0.0
  0
LINE
  5
20B0
  8
0
 62
     0
 10
730.08069858695364
 20
37.5
 30
0.0
 11
746.07792055812695
 21
37.5
 31
0.0
  0
LINE
  5
20B1
  8
0
 62
     0
 10
1095.5727139037219
 20
37.5
 30
0.0
 11
1108.830698586954
 21
37.5
 31
0.0
  0
LINE
  5
20B2
  8
0
 62
     0
 10
690.83069858695364
 20
37.5
 30
0.0
 11
704.08069858695274
 21
37.5
 31
0.0
  0
LINE
  5
20B3
  8
0
 62
     0
 10
912.82318418770285
 20
39.0
 30
0.0
 11
928.83969824162762
 21
39.0
 31
0.0
  0
LINE
  5
20B4
  8
0
 62
     0
 10
870.83069858695637
 20
39.0
 30
0.0
 11
886.82792055812945
 21
39.0
 31
0.0
  0
LINE
  5
20B5
  8
0
 62
     0
 10
954.82271390372546
 20
39.0
 30
0.0
 11
968.0806985869566
 21
39.0
 31
0.0
  0
LINE
  5
20B6
  8
0
 62
     0
 10
831.58069858695649
 20
39.0
 30
0.0
 11
844.83069858695546
 21
39.0
 31
0.0
  0
LINE
  5
20B7
  8
0
 62
     0
 10
972.33069858695364
 20
39.0
 30
0.0
 11
985.58069858695274
 21
39.0
 31
0.0
  0
LINE
  5
20B8
  8
0
 62
     0
 10
814.07271390372273
 20
39.0
 30
0.0
 11
827.33069858695364
 21
39.0
 31
0.0
  0
LINE
  5
20B9
  8
0
 62
     0
 10
1011.580698586953
 20
39.0
 30
0.0
 11
1027.5779205581271
 21
39.0
 31
0.0
  0
LINE
  5
20BA
  8
0
 62
     0
 10
772.07318418770012
 20
39.0
 30
0.0
 11
788.089698241625
 21
39.0
 31
0.0
  0
LINE
  5
20BB
  8
0
 62
     0
 10
1053.5731841877
 20
39.0
 30
0.0
 11
1069.589698241625
 21
39.0
 31
0.0
  0
LINE
  5
20BC
  8
0
 62
     0
 10
730.08069858695364
 20
39.0
 30
0.0
 11
746.07792055812695
 21
39.0
 31
0.0
  0
LINE
  5
20BD
  8
0
 62
     0
 10
1095.5727139037219
 20
39.0
 30
0.0
 11
1108.830698586954
 21
39.0
 31
0.0
  0
LINE
  5
20BE
  8
0
 62
     0
 10
690.83069858695364
 20
39.0
 30
0.0
 11
704.08069858695274
 21
39.0
 31
0.0
  0
LINE
  5
20BF
  8
0
 62
     0
 10
912.82318418770285
 20
40.499999999999993
 30
0.0
 11
928.83969824162762
 21
40.499999999999993
 31
0.0
  0
LINE
  5
20C0
  8
0
 62
     0
 10
870.83069858695637
 20
40.499999999999993
 30
0.0
 11
886.82792055812945
 21
40.499999999999993
 31
0.0
  0
LINE
  5
20C1
  8
0
 62
     0
 10
954.82271390372546
 20
40.499999999999993
 30
0.0
 11
968.0806985869566
 21
40.499999999999993
 31
0.0
  0
LINE
  5
20C2
  8
0
 62
     0
 10
831.58069858695649
 20
40.499999999999993
 30
0.0
 11
844.83069858695546
 21
40.499999999999993
 31
0.0
  0
LINE
  5
20C3
  8
0
 62
     0
 10
972.33069858695364
 20
40.499999999999993
 30
0.0
 11
985.58069858695274
 21
40.499999999999993
 31
0.0
  0
LINE
  5
20C4
  8
0
 62
     0
 10
814.07271390372273
 20
40.499999999999993
 30
0.0
 11
827.33069858695364
 21
40.499999999999993
 31
0.0
  0
LINE
  5
20C5
  8
0
 62
     0
 10
1011.580698586953
 20
40.499999999999993
 30
0.0
 11
1027.5779205581271
 21
40.499999999999993
 31
0.0
  0
LINE
  5
20C6
  8
0
 62
     0
 10
772.07318418770012
 20
40.499999999999993
 30
0.0
 11
788.089698241625
 21
40.499999999999993
 31
0.0
  0
LINE
  5
20C7
  8
0
 62
     0
 10
1053.5731841877
 20
40.499999999999993
 30
0.0
 11
1069.589698241625
 21
40.499999999999993
 31
0.0
  0
LINE
  5
20C8
  8
0
 62
     0
 10
730.08069858695364
 20
40.499999999999993
 30
0.0
 11
746.07792055812695
 21
40.499999999999993
 31
0.0
  0
LINE
  5
20C9
  8
0
 62
     0
 10
1095.5727139037219
 20
40.499999999999993
 30
0.0
 11
1108.8306985869531
 21
40.499999999999993
 31
0.0
  0
LINE
  5
20CA
  8
0
 62
     0
 10
690.83069858695364
 20
40.499999999999993
 30
0.0
 11
704.08069858695274
 21
40.499999999999993
 31
0.0
  0
LINE
  5
20CB
  8
0
 62
     0
 10
912.82318418770285
 20
42.0
 30
0.0
 11
928.83969824162762
 21
42.0
 31
0.0
  0
LINE
  5
20CC
  8
0
 62
     0
 10
870.83069858695637
 20
42.0
 30
0.0
 11
886.82792055812945
 21
42.0
 31
0.0
  0
LINE
  5
20CD
  8
0
 62
     0
 10
954.82271390372546
 20
42.0
 30
0.0
 11
968.0806985869566
 21
42.0
 31
0.0
  0
LINE
  5
20CE
  8
0
 62
     0
 10
831.58069858695649
 20
42.0
 30
0.0
 11
844.83069858695546
 21
42.0
 31
0.0
  0
LINE
  5
20CF
  8
0
 62
     0
 10
972.33069858695364
 20
42.0
 30
0.0
 11
985.58069858695274
 21
42.0
 31
0.0
  0
LINE
  5
20D0
  8
0
 62
     0
 10
814.07271390372273
 20
42.0
 30
0.0
 11
827.33069858695353
 21
42.0
 31
0.0
  0
LINE
  5
20D1
  8
0
 62
     0
 10
1011.580698586953
 20
42.0
 30
0.0
 11
1027.5779205581271
 21
42.0
 31
0.0
  0
LINE
  5
20D2
  8
0
 62
     0
 10
772.07318418770012
 20
42.0
 30
0.0
 11
788.089698241625
 21
42.0
 31
0.0
  0
LINE
  5
20D3
  8
0
 62
     0
 10
1053.5731841877
 20
42.0
 30
0.0
 11
1069.589698241625
 21
42.0
 31
0.0
  0
LINE
  5
20D4
  8
0
 62
     0
 10
730.08069858695364
 20
42.0
 30
0.0
 11
746.07792055812695
 21
42.0
 31
0.0
  0
LINE
  5
20D5
  8
0
 62
     0
 10
1095.5727139037219
 20
42.0
 30
0.0
 11
1108.8306985869531
 21
42.0
 31
0.0
  0
LINE
  5
20D6
  8
0
 62
     0
 10
690.83069858695353
 20
42.0
 30
0.0
 11
704.08069858695274
 21
42.0
 31
0.0
  0
LINE
  5
20D7
  8
0
 62
     0
 10
912.82318418770285
 20
43.5
 30
0.0
 11
928.83969824162762
 21
43.5
 31
0.0
  0
LINE
  5
20D8
  8
0
 62
     0
 10
870.83069858695637
 20
43.5
 30
0.0
 11
886.82792055812945
 21
43.5
 31
0.0
  0
LINE
  5
20D9
  8
0
 62
     0
 10
954.82271390372546
 20
43.5
 30
0.0
 11
968.0806985869566
 21
43.5
 31
0.0
  0
LINE
  5
20DA
  8
0
 62
     0
 10
831.58069858695649
 20
43.5
 30
0.0
 11
844.83069858695546
 21
43.5
 31
0.0
  0
LINE
  5
20DB
  8
0
 62
     0
 10
972.33069858695364
 20
43.5
 30
0.0
 11
985.58069858695274
 21
43.5
 31
0.0
  0
LINE
  5
20DC
  8
0
 62
     0
 10
814.07271390372273
 20
43.5
 30
0.0
 11
827.33069858695353
 21
43.5
 31
0.0
  0
LINE
  5
20DD
  8
0
 62
     0
 10
1011.580698586953
 20
43.5
 30
0.0
 11
1027.5779205581271
 21
43.5
 31
0.0
  0
LINE
  5
20DE
  8
0
 62
     0
 10
772.07318418770012
 20
43.5
 30
0.0
 11
788.089698241625
 21
43.5
 31
0.0
  0
LINE
  5
20DF
  8
0
 62
     0
 10
1053.5731841877
 20
43.5
 30
0.0
 11
1069.589698241625
 21
43.5
 31
0.0
  0
LINE
  5
20E0
  8
0
 62
     0
 10
730.08069858695364
 20
43.5
 30
0.0
 11
746.07792055812695
 21
43.5
 31
0.0
  0
LINE
  5
20E1
  8
0
 62
     0
 10
1095.5727139037219
 20
43.5
 30
0.0
 11
1108.8306985869531
 21
43.5
 31
0.0
  0
LINE
  5
20E2
  8
0
 62
     0
 10
690.83069858695353
 20
43.5
 30
0.0
 11
704.08069858695274
 21
43.5
 31
0.0
  0
LINE
  5
20E3
  8
0
 62
     0
 10
912.82318418770285
 20
45.0
 30
0.0
 11
928.83969824162762
 21
45.0
 31
0.0
  0
LINE
  5
20E4
  8
0
 62
     0
 10
870.83069858695637
 20
45.0
 30
0.0
 11
886.82792055812945
 21
45.0
 31
0.0
  0
LINE
  5
20E5
  8
0
 62
     0
 10
954.82271390372546
 20
45.0
 30
0.0
 11
968.0806985869566
 21
45.0
 31
0.0
  0
LINE
  5
20E6
  8
0
 62
     0
 10
831.58069858695649
 20
45.0
 30
0.0
 11
844.83069858695546
 21
45.0
 31
0.0
  0
LINE
  5
20E7
  8
0
 62
     0
 10
972.33069858695364
 20
45.0
 30
0.0
 11
985.58069858695274
 21
45.0
 31
0.0
  0
LINE
  5
20E8
  8
0
 62
     0
 10
814.07271390372273
 20
45.0
 30
0.0
 11
827.33069858695353
 21
45.0
 31
0.0
  0
LINE
  5
20E9
  8
0
 62
     0
 10
1011.580698586953
 20
45.0
 30
0.0
 11
1027.5779205581271
 21
45.0
 31
0.0
  0
LINE
  5
20EA
  8
0
 62
     0
 10
772.07318418770012
 20
45.0
 30
0.0
 11
788.089698241625
 21
45.0
 31
0.0
  0
LINE
  5
20EB
  8
0
 62
     0
 10
1053.5731841877
 20
45.0
 30
0.0
 11
1069.589698241625
 21
45.0
 31
0.0
  0
LINE
  5
20EC
  8
0
 62
     0
 10
730.08069858695364
 20
45.0
 30
0.0
 11
746.07792055812695
 21
45.0
 31
0.0
  0
LINE
  5
20ED
  8
0
 62
     0
 10
1095.5727139037219
 20
45.0
 30
0.0
 11
1108.8306985869531
 21
45.0
 31
0.0
  0
LINE
  5
20EE
  8
0
 62
     0
 10
690.83069858695353
 20
45.0
 30
0.0
 11
704.08069858695274
 21
45.0
 31
0.0
  0
LINE
  5
20EF
  8
0
 62
     0
 10
912.82318418770285
 20
46.5
 30
0.0
 11
928.83969824162762
 21
46.5
 31
0.0
  0
LINE
  5
20F0
  8
0
 62
     0
 10
870.83069858695637
 20
46.5
 30
0.0
 11
886.82792055812945
 21
46.5
 31
0.0
  0
LINE
  5
20F1
  8
0
 62
     0
 10
954.82271390372546
 20
46.5
 30
0.0
 11
968.08069858695637
 21
46.5
 31
0.0
  0
LINE
  5
20F2
  8
0
 62
     0
 10
831.58069858695649
 20
46.5
 30
0.0
 11
844.83069858695546
 21
46.5
 31
0.0
  0
LINE
  5
20F3
  8
0
 62
     0
 10
972.33069858695364
 20
46.5
 30
0.0
 11
985.58069858695274
 21
46.5
 31
0.0
  0
LINE
  5
20F4
  8
0
 62
     0
 10
814.07271390372273
 20
46.5
 30
0.0
 11
827.33069858695353
 21
46.5
 31
0.0
  0
LINE
  5
20F5
  8
0
 62
     0
 10
1011.580698586953
 20
46.5
 30
0.0
 11
1027.5779205581271
 21
46.5
 31
0.0
  0
LINE
  5
20F6
  8
0
 62
     0
 10
772.07318418770012
 20
46.5
 30
0.0
 11
788.089698241625
 21
46.5
 31
0.0
  0
LINE
  5
20F7
  8
0
 62
     0
 10
1053.5731841877
 20
46.5
 30
0.0
 11
1069.589698241625
 21
46.5
 31
0.0
  0
LINE
  5
20F8
  8
0
 62
     0
 10
730.08069858695364
 20
46.5
 30
0.0
 11
746.07792055812695
 21
46.5
 31
0.0
  0
LINE
  5
20F9
  8
0
 62
     0
 10
1095.5727139037219
 20
46.5
 30
0.0
 11
1108.8306985869531
 21
46.5
 31
0.0
  0
LINE
  5
20FA
  8
0
 62
     0
 10
690.83069858695353
 20
46.5
 30
0.0
 11
704.08069858695274
 21
46.5
 31
0.0
  0
LINE
  5
20FB
  8
0
 62
     0
 10
912.82318418770285
 20
48.0
 30
0.0
 11
928.83969824162762
 21
48.0
 31
0.0
  0
LINE
  5
20FC
  8
0
 62
     0
 10
870.83069858695637
 20
48.0
 30
0.0
 11
886.82792055812945
 21
48.0
 31
0.0
  0
LINE
  5
20FD
  8
0
 62
     0
 10
954.82271390372546
 20
48.0
 30
0.0
 11
968.08069858695637
 21
48.0
 31
0.0
  0
LINE
  5
20FE
  8
0
 62
     0
 10
831.58069858695649
 20
48.0
 30
0.0
 11
844.83069858695546
 21
48.0
 31
0.0
  0
LINE
  5
20FF
  8
0
 62
     0
 10
972.33069858695364
 20
48.0
 30
0.0
 11
985.58069858695274
 21
48.0
 31
0.0
  0
LINE
  5
2100
  8
0
 62
     0
 10
814.07271390372273
 20
48.0
 30
0.0
 11
827.33069858695353
 21
48.0
 31
0.0
  0
LINE
  5
2101
  8
0
 62
     0
 10
1011.580698586953
 20
48.0
 30
0.0
 11
1027.5779205581271
 21
48.0
 31
0.0
  0
LINE
  5
2102
  8
0
 62
     0
 10
772.07318418770012
 20
48.0
 30
0.0
 11
788.089698241625
 21
48.0
 31
0.0
  0
LINE
  5
2103
  8
0
 62
     0
 10
1053.5731841877
 20
48.0
 30
0.0
 11
1069.589698241625
 21
48.0
 31
0.0
  0
LINE
  5
2104
  8
0
 62
     0
 10
730.08069858695364
 20
48.0
 30
0.0
 11
746.07792055812695
 21
48.0
 31
0.0
  0
LINE
  5
2105
  8
0
 62
     0
 10
1095.5727139037219
 20
48.0
 30
0.0
 11
1108.8306985869531
 21
48.0
 31
0.0
  0
LINE
  5
2106
  8
0
 62
     0
 10
690.83069858695353
 20
48.0
 30
0.0
 11
704.08069858695274
 21
48.0
 31
0.0
  0
LINE
  5
2107
  8
0
 62
     0
 10
912.82318418770285
 20
49.5
 30
0.0
 11
928.83969824162762
 21
49.5
 31
0.0
  0
LINE
  5
2108
  8
0
 62
     0
 10
870.83069858695637
 20
49.5
 30
0.0
 11
886.82792055812945
 21
49.5
 31
0.0
  0
LINE
  5
2109
  8
0
 62
     0
 10
954.82271390372546
 20
49.5
 30
0.0
 11
968.08069858695637
 21
49.5
 31
0.0
  0
LINE
  5
210A
  8
0
 62
     0
 10
831.58069858695649
 20
49.5
 30
0.0
 11
844.83069858695546
 21
49.5
 31
0.0
  0
LINE
  5
210B
  8
0
 62
     0
 10
972.33069858695364
 20
49.5
 30
0.0
 11
985.58069858695274
 21
49.5
 31
0.0
  0
LINE
  5
210C
  8
0
 62
     0
 10
814.07271390372273
 20
49.5
 30
0.0
 11
827.33069858695353
 21
49.5
 31
0.0
  0
LINE
  5
210D
  8
0
 62
     0
 10
1011.580698586953
 20
49.5
 30
0.0
 11
1027.5779205581271
 21
49.5
 31
0.0
  0
LINE
  5
210E
  8
0
 62
     0
 10
772.07318418770012
 20
49.5
 30
0.0
 11
788.089698241625
 21
49.5
 31
0.0
  0
LINE
  5
210F
  8
0
 62
     0
 10
1053.5731841877
 20
49.5
 30
0.0
 11
1069.589698241625
 21
49.5
 31
0.0
  0
LINE
  5
2110
  8
0
 62
     0
 10
730.08069858695364
 20
49.5
 30
0.0
 11
746.07792055812695
 21
49.5
 31
0.0
  0
LINE
  5
2111
  8
0
 62
     0
 10
1095.5727139037219
 20
49.5
 30
0.0
 11
1108.8306985869531
 21
49.5
 31
0.0
  0
LINE
  5
2112
  8
0
 62
     0
 10
690.83069858695353
 20
49.5
 30
0.0
 11
704.08069858695274
 21
49.5
 31
0.0
  0
LINE
  5
2113
  8
0
 62
     0
 10
912.82318418770285
 20
51.0
 30
0.0
 11
928.83969824162762
 21
51.0
 31
0.0
  0
LINE
  5
2114
  8
0
 62
     0
 10
870.83069858695637
 20
51.0
 30
0.0
 11
886.82792055812945
 21
51.0
 31
0.0
  0
LINE
  5
2115
  8
0
 62
     0
 10
954.82271390372546
 20
51.0
 30
0.0
 11
968.08069858695637
 21
51.0
 31
0.0
  0
LINE
  5
2116
  8
0
 62
     0
 10
831.58069858695649
 20
51.0
 30
0.0
 11
844.83069858695546
 21
51.0
 31
0.0
  0
LINE
  5
2117
  8
0
 62
     0
 10
972.33069858695364
 20
51.0
 30
0.0
 11
985.58069858695274
 21
51.0
 31
0.0
  0
LINE
  5
2118
  8
0
 62
     0
 10
814.07271390372273
 20
51.0
 30
0.0
 11
827.33069858695353
 21
51.0
 31
0.0
  0
LINE
  5
2119
  8
0
 62
     0
 10
1011.580698586953
 20
51.0
 30
0.0
 11
1027.5779205581271
 21
51.0
 31
0.0
  0
LINE
  5
211A
  8
0
 62
     0
 10
772.07318418770012
 20
51.0
 30
0.0
 11
788.089698241625
 21
51.0
 31
0.0
  0
LINE
  5
211B
  8
0
 62
     0
 10
1053.5731841877
 20
51.0
 30
0.0
 11
1069.589698241625
 21
51.0
 31
0.0
  0
LINE
  5
211C
  8
0
 62
     0
 10
730.08069858695364
 20
51.0
 30
0.0
 11
746.07792055812695
 21
51.0
 31
0.0
  0
LINE
  5
211D
  8
0
 62
     0
 10
1095.5727139037219
 20
51.0
 30
0.0
 11
1108.8306985869531
 21
51.0
 31
0.0
  0
LINE
  5
211E
  8
0
 62
     0
 10
690.83069858695353
 20
51.0
 30
0.0
 11
704.08069858695274
 21
51.0
 31
0.0
  0
LINE
  5
211F
  8
0
 62
     0
 10
912.82318418770285
 20
52.5
 30
0.0
 11
928.83969824162762
 21
52.5
 31
0.0
  0
LINE
  5
2120
  8
0
 62
     0
 10
870.83069858695637
 20
52.5
 30
0.0
 11
886.82792055812945
 21
52.5
 31
0.0
  0
LINE
  5
2121
  8
0
 62
     0
 10
954.82271390372546
 20
52.5
 30
0.0
 11
968.08069858695637
 21
52.5
 31
0.0
  0
LINE
  5
2122
  8
0
 62
     0
 10
831.58069858695649
 20
52.5
 30
0.0
 11
844.83069858695546
 21
52.5
 31
0.0
  0
LINE
  5
2123
  8
0
 62
     0
 10
972.33069858695342
 20
52.5
 30
0.0
 11
985.58069858695274
 21
52.5
 31
0.0
  0
LINE
  5
2124
  8
0
 62
     0
 10
814.07271390372273
 20
52.5
 30
0.0
 11
827.33069858695353
 21
52.5
 31
0.0
  0
LINE
  5
2125
  8
0
 62
     0
 10
1011.580698586953
 20
52.5
 30
0.0
 11
1027.5779205581271
 21
52.5
 31
0.0
  0
LINE
  5
2126
  8
0
 62
     0
 10
772.07318418770012
 20
52.5
 30
0.0
 11
788.089698241625
 21
52.5
 31
0.0
  0
LINE
  5
2127
  8
0
 62
     0
 10
1053.5731841877
 20
52.5
 30
0.0
 11
1069.589698241625
 21
52.5
 31
0.0
  0
LINE
  5
2128
  8
0
 62
     0
 10
730.08069858695364
 20
52.5
 30
0.0
 11
746.07792055812695
 21
52.5
 31
0.0
  0
LINE
  5
2129
  8
0
 62
     0
 10
1095.5727139037219
 20
52.5
 30
0.0
 11
1108.8306985869531
 21
52.5
 31
0.0
  0
LINE
  5
212A
  8
0
 62
     0
 10
690.83069858695342
 20
52.5
 30
0.0
 11
704.08069858695274
 21
52.5
 31
0.0
  0
LINE
  5
212B
  8
0
 62
     0
 10
912.82318418770285
 20
54.0
 30
0.0
 11
928.83969824162762
 21
54.0
 31
0.0
  0
LINE
  5
212C
  8
0
 62
     0
 10
870.83069858695637
 20
54.0
 30
0.0
 11
886.82792055812945
 21
54.0
 31
0.0
  0
LINE
  5
212D
  8
0
 62
     0
 10
954.82271390372546
 20
54.0
 30
0.0
 11
968.08069858695637
 21
54.0
 31
0.0
  0
LINE
  5
212E
  8
0
 62
     0
 10
831.58069858695649
 20
54.0
 30
0.0
 11
844.83069858695546
 21
54.0
 31
0.0
  0
LINE
  5
212F
  8
0
 62
     0
 10
972.33069858695342
 20
54.0
 30
0.0
 11
985.58069858695274
 21
54.0
 31
0.0
  0
LINE
  5
2130
  8
0
 62
     0
 10
814.07271390372273
 20
54.0
 30
0.0
 11
827.33069858695353
 21
54.0
 31
0.0
  0
LINE
  5
2131
  8
0
 62
     0
 10
1011.580698586953
 20
54.0
 30
0.0
 11
1027.5779205581271
 21
54.0
 31
0.0
  0
LINE
  5
2132
  8
0
 62
     0
 10
772.07318418770012
 20
54.0
 30
0.0
 11
788.089698241625
 21
54.0
 31
0.0
  0
LINE
  5
2133
  8
0
 62
     0
 10
1053.5731841877
 20
54.0
 30
0.0
 11
1069.589698241625
 21
54.0
 31
0.0
  0
LINE
  5
2134
  8
0
 62
     0
 10
730.08069858695364
 20
54.0
 30
0.0
 11
746.07792055812695
 21
54.0
 31
0.0
  0
LINE
  5
2135
  8
0
 62
     0
 10
1095.5727139037219
 20
54.0
 30
0.0
 11
1108.8306985869531
 21
54.0
 31
0.0
  0
LINE
  5
2136
  8
0
 62
     0
 10
690.83069858695342
 20
54.0
 30
0.0
 11
704.08069858695274
 21
54.0
 31
0.0
  0
LINE
  5
2137
  8
0
 62
     0
 10
912.82318418770285
 20
55.5
 30
0.0
 11
928.83969824162762
 21
55.5
 31
0.0
  0
LINE
  5
2138
  8
0
 62
     0
 10
870.83069858695637
 20
55.5
 30
0.0
 11
886.82792055812945
 21
55.5
 31
0.0
  0
LINE
  5
2139
  8
0
 62
     0
 10
954.82271390372546
 20
55.5
 30
0.0
 11
968.08069858695637
 21
55.5
 31
0.0
  0
LINE
  5
213A
  8
0
 62
     0
 10
831.58069858695649
 20
55.5
 30
0.0
 11
844.83069858695546
 21
55.5
 31
0.0
  0
LINE
  5
213B
  8
0
 62
     0
 10
972.33069858695342
 20
55.5
 30
0.0
 11
985.58069858695274
 21
55.5
 31
0.0
  0
LINE
  5
213C
  8
0
 62
     0
 10
814.07271390372273
 20
55.5
 30
0.0
 11
827.33069858695353
 21
55.5
 31
0.0
  0
LINE
  5
213D
  8
0
 62
     0
 10
1011.580698586953
 20
55.5
 30
0.0
 11
1027.5779205581271
 21
55.5
 31
0.0
  0
LINE
  5
213E
  8
0
 62
     0
 10
772.07318418770012
 20
55.5
 30
0.0
 11
788.089698241625
 21
55.5
 31
0.0
  0
LINE
  5
213F
  8
0
 62
     0
 10
1053.5731841877
 20
55.5
 30
0.0
 11
1069.589698241625
 21
55.5
 31
0.0
  0
LINE
  5
2140
  8
0
 62
     0
 10
730.08069858695364
 20
55.5
 30
0.0
 11
746.07792055812695
 21
55.5
 31
0.0
  0
LINE
  5
2141
  8
0
 62
     0
 10
1095.5727139037219
 20
55.5
 30
0.0
 11
1108.8306985869531
 21
55.5
 31
0.0
  0
LINE
  5
2142
  8
0
 62
     0
 10
690.83069858695342
 20
55.5
 30
0.0
 11
704.08069858695274
 21
55.5
 31
0.0
  0
LINE
  5
2143
  8
0
 62
     0
 10
912.82318418770285
 20
57.0
 30
0.0
 11
928.83969824162762
 21
57.0
 31
0.0
  0
LINE
  5
2144
  8
0
 62
     0
 10
870.83069858695637
 20
57.0
 30
0.0
 11
886.82792055812945
 21
57.0
 31
0.0
  0
LINE
  5
2145
  8
0
 62
     0
 10
954.82271390372546
 20
57.0
 30
0.0
 11
968.08069858695637
 21
57.0
 31
0.0
  0
LINE
  5
2146
  8
0
 62
     0
 10
831.58069858695649
 20
57.0
 30
0.0
 11
844.83069858695546
 21
57.0
 31
0.0
  0
LINE
  5
2147
  8
0
 62
     0
 10
972.33069858695342
 20
57.0
 30
0.0
 11
985.58069858695274
 21
57.0
 31
0.0
  0
LINE
  5
2148
  8
0
 62
     0
 10
814.07271390372273
 20
57.0
 30
0.0
 11
827.33069858695353
 21
57.0
 31
0.0
  0
LINE
  5
2149
  8
0
 62
     0
 10
1011.580698586953
 20
57.0
 30
0.0
 11
1027.5779205581271
 21
57.0
 31
0.0
  0
LINE
  5
214A
  8
0
 62
     0
 10
772.07318418770012
 20
57.0
 30
0.0
 11
788.089698241625
 21
57.0
 31
0.0
  0
LINE
  5
214B
  8
0
 62
     0
 10
1053.5731841877
 20
57.0
 30
0.0
 11
1069.589698241625
 21
57.0
 31
0.0
  0
LINE
  5
214C
  8
0
 62
     0
 10
730.08069858695364
 20
57.0
 30
0.0
 11
746.07792055812695
 21
57.0
 31
0.0
  0
LINE
  5
214D
  8
0
 62
     0
 10
1095.5727139037219
 20
57.0
 30
0.0
 11
1108.8306985869531
 21
57.0
 31
0.0
  0
LINE
  5
214E
  8
0
 62
     0
 10
690.83069858695342
 20
57.0
 30
0.0
 11
704.08069858695274
 21
57.0
 31
0.0
  0
LINE
  5
214F
  8
0
 62
     0
 10
912.82318418770285
 20
58.5
 30
0.0
 11
928.83969824162762
 21
58.5
 31
0.0
  0
LINE
  5
2150
  8
0
 62
     0
 10
870.83069858695637
 20
58.5
 30
0.0
 11
886.82792055812945
 21
58.5
 31
0.0
  0
LINE
  5
2151
  8
0
 62
     0
 10
954.82271390372546
 20
58.5
 30
0.0
 11
968.08069858695637
 21
58.5
 31
0.0
  0
LINE
  5
2152
  8
0
 62
     0
 10
831.58069858695637
 20
58.5
 30
0.0
 11
844.83069858695546
 21
58.5
 31
0.0
  0
LINE
  5
2153
  8
0
 62
     0
 10
972.33069858695342
 20
58.5
 30
0.0
 11
985.58069858695274
 21
58.5
 31
0.0
  0
LINE
  5
2154
  8
0
 62
     0
 10
814.07271390372273
 20
58.5
 30
0.0
 11
827.33069858695353
 21
58.5
 31
0.0
  0
LINE
  5
2155
  8
0
 62
     0
 10
1011.580698586953
 20
58.5
 30
0.0
 11
1027.5779205581271
 21
58.5
 31
0.0
  0
LINE
  5
2156
  8
0
 62
     0
 10
772.07318418770012
 20
58.5
 30
0.0
 11
788.089698241625
 21
58.5
 31
0.0
  0
LINE
  5
2157
  8
0
 62
     0
 10
1053.5731841877
 20
58.5
 30
0.0
 11
1069.589698241625
 21
58.5
 31
0.0
  0
LINE
  5
2158
  8
0
 62
     0
 10
730.08069858695364
 20
58.5
 30
0.0
 11
746.07792055812695
 21
58.5
 31
0.0
  0
LINE
  5
2159
  8
0
 62
     0
 10
1095.5727139037219
 20
58.5
 30
0.0
 11
1108.8306985869531
 21
58.5
 31
0.0
  0
LINE
  5
215A
  8
0
 62
     0
 10
690.83069858695342
 20
58.5
 30
0.0
 11
704.08069858695274
 21
58.5
 31
0.0
  0
LINE
  5
215B
  8
0
 62
     0
 10
912.82318418770285
 20
60.0
 30
0.0
 11
928.83969824162762
 21
60.0
 31
0.0
  0
LINE
  5
215C
  8
0
 62
     0
 10
870.83069858695637
 20
60.0
 30
0.0
 11
886.82792055812945
 21
60.0
 31
0.0
  0
LINE
  5
215D
  8
0
 62
     0
 10
954.82271390372546
 20
60.0
 30
0.0
 11
968.08069858695637
 21
60.0
 31
0.0
  0
LINE
  5
215E
  8
0
 62
     0
 10
831.58069858695637
 20
60.0
 30
0.0
 11
844.83069858695546
 21
60.0
 31
0.0
  0
LINE
  5
215F
  8
0
 62
     0
 10
972.33069858695342
 20
60.0
 30
0.0
 11
985.58069858695274
 21
60.0
 31
0.0
  0
LINE
  5
2160
  8
0
 62
     0
 10
814.07271390372273
 20
60.0
 30
0.0
 11
827.33069858695353
 21
60.0
 31
0.0
  0
LINE
  5
2161
  8
0
 62
     0
 10
1011.580698586953
 20
60.0
 30
0.0
 11
1027.5779205581271
 21
60.0
 31
0.0
  0
LINE
  5
2162
  8
0
 62
     0
 10
772.07318418770012
 20
60.0
 30
0.0
 11
788.089698241625
 21
60.0
 31
0.0
  0
LINE
  5
2163
  8
0
 62
     0
 10
1053.5731841877
 20
60.0
 30
0.0
 11
1069.589698241625
 21
60.0
 31
0.0
  0
LINE
  5
2164
  8
0
 62
     0
 10
730.08069858695364
 20
60.0
 30
0.0
 11
746.07792055812695
 21
60.0
 31
0.0
  0
LINE
  5
2165
  8
0
 62
     0
 10
1095.5727139037219
 20
60.0
 30
0.0
 11
1108.8306985869531
 21
60.0
 31
0.0
  0
LINE
  5
2166
  8
0
 62
     0
 10
690.83069858695342
 20
60.0
 30
0.0
 11
704.08069858695274
 21
60.0
 31
0.0
  0
LINE
  5
2167
  8
0
 62
     0
 10
912.82318418770285
 20
61.5
 30
0.0
 11
928.83969824162762
 21
61.5
 31
0.0
  0
LINE
  5
2168
  8
0
 62
     0
 10
870.83069858695637
 20
61.5
 30
0.0
 11
886.82792055812945
 21
61.5
 31
0.0
  0
LINE
  5
2169
  8
0
 62
     0
 10
954.82271390372546
 20
61.5
 30
0.0
 11
968.08069858695637
 21
61.5
 31
0.0
  0
LINE
  5
216A
  8
0
 62
     0
 10
831.58069858695637
 20
61.5
 30
0.0
 11
844.83069858695546
 21
61.5
 31
0.0
  0
LINE
  5
216B
  8
0
 62
     0
 10
972.33069858695342
 20
61.5
 30
0.0
 11
985.58069858695274
 21
61.5
 31
0.0
  0
LINE
  5
216C
  8
0
 62
     0
 10
814.07271390372273
 20
61.5
 30
0.0
 11
827.33069858695353
 21
61.5
 31
0.0
  0
LINE
  5
216D
  8
0
 62
     0
 10
1011.580698586953
 20
61.5
 30
0.0
 11
1027.5779205581271
 21
61.5
 31
0.0
  0
LINE
  5
216E
  8
0
 62
     0
 10
772.07318418770012
 20
61.5
 30
0.0
 11
788.089698241625
 21
61.5
 31
0.0
  0
LINE
  5
216F
  8
0
 62
     0
 10
1053.5731841877
 20
61.5
 30
0.0
 11
1069.589698241625
 21
61.5
 31
0.0
  0
LINE
  5
2170
  8
0
 62
     0
 10
730.08069858695364
 20
61.5
 30
0.0
 11
746.07792055812695
 21
61.5
 31
0.0
  0
LINE
  5
2171
  8
0
 62
     0
 10
1095.5727139037219
 20
61.5
 30
0.0
 11
1108.8306985869531
 21
61.5
 31
0.0
  0
LINE
  5
2172
  8
0
 62
     0
 10
690.83069858695342
 20
61.5
 30
0.0
 11
704.08069858695274
 21
61.5
 31
0.0
  0
LINE
  5
2173
  8
0
 62
     0
 10
912.82318418770285
 20
63.0
 30
0.0
 11
928.83969824162762
 21
63.0
 31
0.0
  0
LINE
  5
2174
  8
0
 62
     0
 10
870.83069858695637
 20
63.0
 30
0.0
 11
886.82792055812945
 21
63.0
 31
0.0
  0
LINE
  5
2175
  8
0
 62
     0
 10
954.82271390372546
 20
63.0
 30
0.0
 11
968.08069858695637
 21
63.0
 31
0.0
  0
LINE
  5
2176
  8
0
 62
     0
 10
831.58069858695637
 20
63.0
 30
0.0
 11
844.83069858695546
 21
63.0
 31
0.0
  0
LINE
  5
2177
  8
0
 62
     0
 10
972.33069858695319
 20
63.0
 30
0.0
 11
985.58069858695274
 21
63.0
 31
0.0
  0
LINE
  5
2178
  8
0
 62
     0
 10
814.07271390372273
 20
63.0
 30
0.0
 11
827.3306985869533
 21
63.0
 31
0.0
  0
LINE
  5
2179
  8
0
 62
     0
 10
1011.580698586953
 20
63.0
 30
0.0
 11
1027.5779205581271
 21
63.0
 31
0.0
  0
LINE
  5
217A
  8
0
 62
     0
 10
772.07318418770012
 20
63.0
 30
0.0
 11
788.089698241625
 21
63.0
 31
0.0
  0
LINE
  5
217B
  8
0
 62
     0
 10
1053.5731841877
 20
63.0
 30
0.0
 11
1069.589698241625
 21
63.0
 31
0.0
  0
LINE
  5
217C
  8
0
 62
     0
 10
730.08069858695364
 20
63.0
 30
0.0
 11
746.07792055812695
 21
63.0
 31
0.0
  0
LINE
  5
217D
  8
0
 62
     0
 10
1095.5727139037219
 20
63.0
 30
0.0
 11
1108.8306985869531
 21
63.0
 31
0.0
  0
LINE
  5
217E
  8
0
 62
     0
 10
690.8306985869533
 20
63.0
 30
0.0
 11
704.08069858695274
 21
63.0
 31
0.0
  0
LINE
  5
217F
  8
0
 62
     0
 10
912.82318418770285
 20
64.5
 30
0.0
 11
928.83969824162762
 21
64.5
 31
0.0
  0
LINE
  5
2180
  8
0
 62
     0
 10
870.83069858695637
 20
64.5
 30
0.0
 11
886.82792055812945
 21
64.5
 31
0.0
  0
LINE
  5
2181
  8
0
 62
     0
 10
954.82271390372546
 20
64.5
 30
0.0
 11
968.08069858695637
 21
64.5
 31
0.0
  0
LINE
  5
2182
  8
0
 62
     0
 10
831.58069858695637
 20
64.5
 30
0.0
 11
844.83069858695546
 21
64.5
 31
0.0
  0
LINE
  5
2183
  8
0
 62
     0
 10
972.33069858695319
 20
64.5
 30
0.0
 11
985.58069858695274
 21
64.5
 31
0.0
  0
LINE
  5
2184
  8
0
 62
     0
 10
814.07271390372273
 20
64.5
 30
0.0
 11
827.3306985869533
 21
64.5
 31
0.0
  0
LINE
  5
2185
  8
0
 62
     0
 10
1011.580698586953
 20
64.5
 30
0.0
 11
1027.5779205581271
 21
64.5
 31
0.0
  0
LINE
  5
2186
  8
0
 62
     0
 10
772.07318418770012
 20
64.5
 30
0.0
 11
788.089698241625
 21
64.5
 31
0.0
  0
LINE
  5
2187
  8
0
 62
     0
 10
1053.5731841877
 20
64.5
 30
0.0
 11
1069.589698241625
 21
64.5
 31
0.0
  0
LINE
  5
2188
  8
0
 62
     0
 10
730.08069858695364
 20
64.5
 30
0.0
 11
746.07792055812695
 21
64.5
 31
0.0
  0
LINE
  5
2189
  8
0
 62
     0
 10
1095.5727139037219
 20
64.5
 30
0.0
 11
1108.8306985869531
 21
64.5
 31
0.0
  0
LINE
  5
218A
  8
0
 62
     0
 10
690.8306985869533
 20
64.5
 30
0.0
 11
704.08069858695274
 21
64.5
 31
0.0
  0
LINE
  5
218B
  8
0
 62
     0
 10
912.82318418770285
 20
66.0
 30
0.0
 11
928.83969824162762
 21
66.0
 31
0.0
  0
LINE
  5
218C
  8
0
 62
     0
 10
870.83069858695637
 20
66.0
 30
0.0
 11
886.82792055812945
 21
66.0
 31
0.0
  0
LINE
  5
218D
  8
0
 62
     0
 10
954.82271390372546
 20
66.0
 30
0.0
 11
968.08069858695637
 21
66.0
 31
0.0
  0
LINE
  5
218E
  8
0
 62
     0
 10
831.58069858695637
 20
66.0
 30
0.0
 11
844.83069858695546
 21
66.0
 31
0.0
  0
LINE
  5
218F
  8
0
 62
     0
 10
972.33069858695319
 20
66.0
 30
0.0
 11
985.58069858695274
 21
66.0
 31
0.0
  0
LINE
  5
2190
  8
0
 62
     0
 10
814.07271390372273
 20
66.0
 30
0.0
 11
827.3306985869533
 21
66.0
 31
0.0
  0
LINE
  5
2191
  8
0
 62
     0
 10
1011.580698586953
 20
66.0
 30
0.0
 11
1027.5779205581271
 21
66.0
 31
0.0
  0
LINE
  5
2192
  8
0
 62
     0
 10
772.07318418770012
 20
66.0
 30
0.0
 11
788.089698241625
 21
66.0
 31
0.0
  0
LINE
  5
2193
  8
0
 62
     0
 10
1053.5731841877
 20
66.0
 30
0.0
 11
1069.589698241625
 21
66.0
 31
0.0
  0
LINE
  5
2194
  8
0
 62
     0
 10
730.08069858695364
 20
66.0
 30
0.0
 11
746.07792055812695
 21
66.0
 31
0.0
  0
LINE
  5
2195
  8
0
 62
     0
 10
1095.5727139037219
 20
66.0
 30
0.0
 11
1108.8306985869531
 21
66.0
 31
0.0
  0
LINE
  5
2196
  8
0
 62
     0
 10
690.8306985869533
 20
66.0
 30
0.0
 11
704.08069858695274
 21
66.0
 31
0.0
  0
LINE
  5
2197
  8
0
 62
     0
 10
912.82318418770285
 20
67.5
 30
0.0
 11
928.83969824162762
 21
67.5
 31
0.0
  0
LINE
  5
2198
  8
0
 62
     0
 10
870.83069858695637
 20
67.5
 30
0.0
 11
886.82792055812945
 21
67.5
 31
0.0
  0
LINE
  5
2199
  8
0
 62
     0
 10
954.82271390372546
 20
67.5
 30
0.0
 11
968.08069858695637
 21
67.5
 31
0.0
  0
LINE
  5
219A
  8
0
 62
     0
 10
831.58069858695637
 20
67.5
 30
0.0
 11
844.83069858695546
 21
67.5
 31
0.0
  0
LINE
  5
219B
  8
0
 62
     0
 10
972.33069858695319
 20
67.5
 30
0.0
 11
985.58069858695274
 21
67.5
 31
0.0
  0
LINE
  5
219C
  8
0
 62
     0
 10
814.07271390372273
 20
67.5
 30
0.0
 11
827.3306985869533
 21
67.5
 31
0.0
  0
LINE
  5
219D
  8
0
 62
     0
 10
1011.580698586953
 20
67.5
 30
0.0
 11
1027.5779205581271
 21
67.5
 31
0.0
  0
LINE
  5
219E
  8
0
 62
     0
 10
772.07318418770012
 20
67.5
 30
0.0
 11
788.089698241625
 21
67.5
 31
0.0
  0
LINE
  5
219F
  8
0
 62
     0
 10
1053.5731841877
 20
67.5
 30
0.0
 11
1069.589698241625
 21
67.5
 31
0.0
  0
LINE
  5
21A0
  8
0
 62
     0
 10
730.08069858695364
 20
67.5
 30
0.0
 11
746.07792055812695
 21
67.5
 31
0.0
  0
LINE
  5
21A1
  8
0
 62
     0
 10
1095.5727139037219
 20
67.5
 30
0.0
 11
1108.8306985869531
 21
67.5
 31
0.0
  0
LINE
  5
21A2
  8
0
 62
     0
 10
690.8306985869533
 20
67.5
 30
0.0
 11
704.08069858695274
 21
67.5
 31
0.0
  0
LINE
  5
21A3
  8
0
 62
     0
 10
912.82318418770285
 20
69.0
 30
0.0
 11
928.83969824162762
 21
69.0
 31
0.0
  0
LINE
  5
21A4
  8
0
 62
     0
 10
870.83069858695637
 20
69.0
 30
0.0
 11
886.82792055812945
 21
69.0
 31
0.0
  0
LINE
  5
21A5
  8
0
 62
     0
 10
954.82271390372546
 20
69.0
 30
0.0
 11
968.08069858695615
 21
69.0
 31
0.0
  0
LINE
  5
21A6
  8
0
 62
     0
 10
831.58069858695615
 20
69.0
 30
0.0
 11
844.83069858695546
 21
69.0
 31
0.0
  0
LINE
  5
21A7
  8
0
 62
     0
 10
972.33069858695319
 20
69.0
 30
0.0
 11
985.58069858695274
 21
69.0
 31
0.0
  0
LINE
  5
21A8
  8
0
 62
     0
 10
814.07271390372273
 20
69.0
 30
0.0
 11
827.3306985869533
 21
69.0
 31
0.0
  0
LINE
  5
21A9
  8
0
 62
     0
 10
1011.580698586953
 20
69.0
 30
0.0
 11
1027.5779205581271
 21
69.0
 31
0.0
  0
LINE
  5
21AA
  8
0
 62
     0
 10
772.07318418770012
 20
69.0
 30
0.0
 11
788.089698241625
 21
69.0
 31
0.0
  0
LINE
  5
21AB
  8
0
 62
     0
 10
1053.5731841877
 20
69.0
 30
0.0
 11
1069.589698241625
 21
69.0
 31
0.0
  0
LINE
  5
21AC
  8
0
 62
     0
 10
730.08069858695364
 20
69.0
 30
0.0
 11
746.07792055812695
 21
69.0
 31
0.0
  0
LINE
  5
21AD
  8
0
 62
     0
 10
1095.5727139037219
 20
69.0
 30
0.0
 11
1108.8306985869531
 21
69.0
 31
0.0
  0
LINE
  5
21AE
  8
0
 62
     0
 10
690.8306985869533
 20
69.0
 30
0.0
 11
704.08069858695274
 21
69.0
 31
0.0
  0
LINE
  5
21AF
  8
0
 62
     0
 10
912.82318418770285
 20
70.5
 30
0.0
 11
928.83969824162762
 21
70.5
 31
0.0
  0
LINE
  5
21B0
  8
0
 62
     0
 10
870.83069858695637
 20
70.5
 30
0.0
 11
886.82792055812945
 21
70.5
 31
0.0
  0
LINE
  5
21B1
  8
0
 62
     0
 10
954.82271390372546
 20
70.5
 30
0.0
 11
968.08069858695615
 21
70.5
 31
0.0
  0
LINE
  5
21B2
  8
0
 62
     0
 10
831.58069858695615
 20
70.5
 30
0.0
 11
844.83069858695546
 21
70.5
 31
0.0
  0
LINE
  5
21B3
  8
0
 62
     0
 10
972.33069858695319
 20
70.5
 30
0.0
 11
985.58069858695274
 21
70.5
 31
0.0
  0
LINE
  5
21B4
  8
0
 62
     0
 10
814.07271390372273
 20
70.5
 30
0.0
 11
827.3306985869533
 21
70.5
 31
0.0
  0
LINE
  5
21B5
  8
0
 62
     0
 10
1011.580698586953
 20
70.5
 30
0.0
 11
1027.5779205581271
 21
70.5
 31
0.0
  0
LINE
  5
21B6
  8
0
 62
     0
 10
772.07318418770012
 20
70.5
 30
0.0
 11
788.089698241625
 21
70.5
 31
0.0
  0
LINE
  5
21B7
  8
0
 62
     0
 10
1053.5731841877
 20
70.5
 30
0.0
 11
1069.589698241625
 21
70.5
 31
0.0
  0
LINE
  5
21B8
  8
0
 62
     0
 10
730.08069858695364
 20
70.5
 30
0.0
 11
746.07792055812695
 21
70.5
 31
0.0
  0
LINE
  5
21B9
  8
0
 62
     0
 10
1095.5727139037219
 20
70.5
 30
0.0
 11
1108.8306985869531
 21
70.5
 31
0.0
  0
LINE
  5
21BA
  8
0
 62
     0
 10
690.8306985869533
 20
70.5
 30
0.0
 11
704.08069858695274
 21
70.5
 31
0.0
  0
LINE
  5
21BB
  8
0
 62
     0
 10
912.82318418770285
 20
72.0
 30
0.0
 11
928.83969824162762
 21
72.0
 31
0.0
  0
LINE
  5
21BC
  8
0
 62
     0
 10
870.83069858695637
 20
72.0
 30
0.0
 11
886.82792055812945
 21
72.0
 31
0.0
  0
LINE
  5
21BD
  8
0
 62
     0
 10
954.82271390372546
 20
72.0
 30
0.0
 11
968.08069858695615
 21
72.0
 31
0.0
  0
LINE
  5
21BE
  8
0
 62
     0
 10
831.58069858695615
 20
72.0
 30
0.0
 11
844.83069858695546
 21
72.0
 31
0.0
  0
LINE
  5
21BF
  8
0
 62
     0
 10
972.33069858695319
 20
72.0
 30
0.0
 11
985.58069858695274
 21
72.0
 31
0.0
  0
LINE
  5
21C0
  8
0
 62
     0
 10
814.07271390372273
 20
72.0
 30
0.0
 11
827.3306985869533
 21
72.0
 31
0.0
  0
LINE
  5
21C1
  8
0
 62
     0
 10
1011.580698586953
 20
72.0
 30
0.0
 11
1027.5779205581271
 21
72.0
 31
0.0
  0
LINE
  5
21C2
  8
0
 62
     0
 10
772.07318418770012
 20
72.0
 30
0.0
 11
788.089698241625
 21
72.0
 31
0.0
  0
LINE
  5
21C3
  8
0
 62
     0
 10
1053.5731841877
 20
72.0
 30
0.0
 11
1069.589698241625
 21
72.0
 31
0.0
  0
LINE
  5
21C4
  8
0
 62
     0
 10
730.08069858695364
 20
72.0
 30
0.0
 11
746.07792055812695
 21
72.0
 31
0.0
  0
LINE
  5
21C5
  8
0
 62
     0
 10
1095.5727139037219
 20
72.0
 30
0.0
 11
1108.8306985869531
 21
72.0
 31
0.0
  0
LINE
  5
21C6
  8
0
 62
     0
 10
690.8306985869533
 20
72.0
 30
0.0
 11
704.08069858695274
 21
72.0
 31
0.0
  0
LINE
  5
21C7
  8
0
 62
     0
 10
912.82318418770285
 20
73.5
 30
0.0
 11
928.83969824162762
 21
73.5
 31
0.0
  0
LINE
  5
21C8
  8
0
 62
     0
 10
870.83069858695637
 20
73.5
 30
0.0
 11
886.82792055812945
 21
73.5
 31
0.0
  0
LINE
  5
21C9
  8
0
 62
     0
 10
954.82271390372546
 20
73.5
 30
0.0
 11
968.08069858695615
 21
73.5
 31
0.0
  0
LINE
  5
21CA
  8
0
 62
     0
 10
831.58069858695615
 20
73.5
 30
0.0
 11
844.83069858695546
 21
73.5
 31
0.0
  0
LINE
  5
21CB
  8
0
 62
     0
 10
972.33069858695319
 20
73.5
 30
0.0
 11
985.58069858695274
 21
73.5
 31
0.0
  0
LINE
  5
21CC
  8
0
 62
     0
 10
814.07271390372273
 20
73.5
 30
0.0
 11
827.33069858695308
 21
73.5
 31
0.0
  0
LINE
  5
21CD
  8
0
 62
     0
 10
1011.580698586953
 20
73.5
 30
0.0
 11
1027.5779205581271
 21
73.5
 31
0.0
  0
LINE
  5
21CE
  8
0
 62
     0
 10
772.07318418770012
 20
73.5
 30
0.0
 11
788.089698241625
 21
73.5
 31
0.0
  0
LINE
  5
21CF
  8
0
 62
     0
 10
1053.5731841877
 20
73.5
 30
0.0
 11
1069.589698241625
 21
73.5
 31
0.0
  0
LINE
  5
21D0
  8
0
 62
     0
 10
730.08069858695364
 20
73.5
 30
0.0
 11
746.07792055812695
 21
73.5
 31
0.0
  0
LINE
  5
21D1
  8
0
 62
     0
 10
1095.5727139037219
 20
73.5
 30
0.0
 11
1108.8306985869531
 21
73.5
 31
0.0
  0
LINE
  5
21D2
  8
0
 62
     0
 10
690.83069858695319
 20
73.5
 30
0.0
 11
704.08069858695274
 21
73.5
 31
0.0
  0
LINE
  5
21D3
  8
0
 62
     0
 10
912.82318418770285
 20
75.0
 30
0.0
 11
928.83969824162762
 21
75.0
 31
0.0
  0
LINE
  5
21D4
  8
0
 62
     0
 10
870.83069858695637
 20
75.0
 30
0.0
 11
886.82792055812945
 21
75.0
 31
0.0
  0
LINE
  5
21D5
  8
0
 62
     0
 10
954.82271390372546
 20
75.0
 30
0.0
 11
968.08069858695615
 21
75.0
 31
0.0
  0
LINE
  5
21D6
  8
0
 62
     0
 10
831.58069858695615
 20
75.0
 30
0.0
 11
844.83069858695546
 21
75.0
 31
0.0
  0
LINE
  5
21D7
  8
0
 62
     0
 10
972.33069858695319
 20
75.0
 30
0.0
 11
985.58069858695274
 21
75.0
 31
0.0
  0
LINE
  5
21D8
  8
0
 62
     0
 10
814.07271390372273
 20
75.0
 30
0.0
 11
827.33069858695308
 21
75.0
 31
0.0
  0
LINE
  5
21D9
  8
0
 62
     0
 10
1011.580698586953
 20
75.0
 30
0.0
 11
1027.5779205581271
 21
75.0
 31
0.0
  0
LINE
  5
21DA
  8
0
 62
     0
 10
772.07318418770012
 20
75.0
 30
0.0
 11
788.089698241625
 21
75.0
 31
0.0
  0
LINE
  5
21DB
  8
0
 62
     0
 10
1053.5731841877
 20
75.0
 30
0.0
 11
1069.589698241625
 21
75.0
 31
0.0
  0
LINE
  5
21DC
  8
0
 62
     0
 10
730.08069858695364
 20
75.0
 30
0.0
 11
746.07792055812695
 21
75.0
 31
0.0
  0
LINE
  5
21DD
  8
0
 62
     0
 10
1095.5727139037219
 20
75.0
 30
0.0
 11
1108.8306985869531
 21
75.0
 31
0.0
  0
LINE
  5
21DE
  8
0
 62
     0
 10
690.83069858695319
 20
75.0
 30
0.0
 11
704.08069858695274
 21
75.0
 31
0.0
  0
LINE
  5
21DF
  8
0
 62
     0
 10
912.82318418770285
 20
76.5
 30
0.0
 11
928.83969824162762
 21
76.5
 31
0.0
  0
LINE
  5
21E0
  8
0
 62
     0
 10
870.83069858695637
 20
76.5
 30
0.0
 11
886.82792055812945
 21
76.5
 31
0.0
  0
LINE
  5
21E1
  8
0
 62
     0
 10
954.82271390372546
 20
76.5
 30
0.0
 11
968.08069858695615
 21
76.5
 31
0.0
  0
LINE
  5
21E2
  8
0
 62
     0
 10
831.58069858695615
 20
76.5
 30
0.0
 11
844.83069858695546
 21
76.5
 31
0.0
  0
LINE
  5
21E3
  8
0
 62
     0
 10
972.33069858695319
 20
76.5
 30
0.0
 11
985.58069858695274
 21
76.5
 31
0.0
  0
LINE
  5
21E4
  8
0
 62
     0
 10
814.07271390372273
 20
76.5
 30
0.0
 11
827.33069858695308
 21
76.5
 31
0.0
  0
LINE
  5
21E5
  8
0
 62
     0
 10
1011.580698586953
 20
76.5
 30
0.0
 11
1027.5779205581271
 21
76.5
 31
0.0
  0
LINE
  5
21E6
  8
0
 62
     0
 10
772.07318418770012
 20
76.5
 30
0.0
 11
788.089698241625
 21
76.5
 31
0.0
  0
LINE
  5
21E7
  8
0
 62
     0
 10
1053.5731841877
 20
76.5
 30
0.0
 11
1069.589698241625
 21
76.5
 31
0.0
  0
LINE
  5
21E8
  8
0
 62
     0
 10
730.08069858695364
 20
76.5
 30
0.0
 11
746.07792055812695
 21
76.5
 31
0.0
  0
LINE
  5
21E9
  8
0
 62
     0
 10
1095.5727139037219
 20
76.5
 30
0.0
 11
1108.8306985869531
 21
76.5
 31
0.0
  0
LINE
  5
21EA
  8
0
 62
     0
 10
690.83069858695319
 20
76.5
 30
0.0
 11
704.08069858695274
 21
76.5
 31
0.0
  0
LINE
  5
21EB
  8
0
 62
     0
 10
912.82318418770285
 20
78.0
 30
0.0
 11
928.83969824162762
 21
78.0
 31
0.0
  0
LINE
  5
21EC
  8
0
 62
     0
 10
870.83069858695637
 20
78.0
 30
0.0
 11
886.82792055812945
 21
78.0
 31
0.0
  0
LINE
  5
21ED
  8
0
 62
     0
 10
954.82271390372546
 20
78.0
 30
0.0
 11
968.08069858695615
 21
78.0
 31
0.0
  0
LINE
  5
21EE
  8
0
 62
     0
 10
831.58069858695615
 20
78.0
 30
0.0
 11
844.83069858695546
 21
78.0
 31
0.0
  0
LINE
  5
21EF
  8
0
 62
     0
 10
972.33069858695319
 20
78.0
 30
0.0
 11
985.58069858695274
 21
78.0
 31
0.0
  0
LINE
  5
21F0
  8
0
 62
     0
 10
814.07271390372273
 20
78.0
 30
0.0
 11
827.33069858695308
 21
78.0
 31
0.0
  0
LINE
  5
21F1
  8
0
 62
     0
 10
1011.580698586953
 20
78.0
 30
0.0
 11
1027.5779205581271
 21
78.0
 31
0.0
  0
LINE
  5
21F2
  8
0
 62
     0
 10
772.07318418770012
 20
78.0
 30
0.0
 11
788.089698241625
 21
78.0
 31
0.0
  0
LINE
  5
21F3
  8
0
 62
     0
 10
1053.5731841877
 20
78.0
 30
0.0
 11
1069.589698241625
 21
78.0
 31
0.0
  0
LINE
  5
21F4
  8
0
 62
     0
 10
730.08069858695364
 20
78.0
 30
0.0
 11
746.07792055812695
 21
78.0
 31
0.0
  0
LINE
  5
21F5
  8
0
 62
     0
 10
1095.5727139037219
 20
78.0
 30
0.0
 11
1108.8306985869531
 21
78.0
 31
0.0
  0
LINE
  5
21F6
  8
0
 62
     0
 10
690.83069858695319
 20
78.0
 30
0.0
 11
704.08069858695274
 21
78.0
 31
0.0
  0
LINE
  5
21F7
  8
0
 62
     0
 10
912.82318418770285
 20
79.5
 30
0.0
 11
928.83969824162762
 21
79.5
 31
0.0
  0
LINE
  5
21F8
  8
0
 62
     0
 10
870.83069858695637
 20
79.5
 30
0.0
 11
886.82792055812945
 21
79.5
 31
0.0
  0
LINE
  5
21F9
  8
0
 62
     0
 10
954.82271390372546
 20
79.5
 30
0.0
 11
968.08069858695615
 21
79.5
 31
0.0
  0
LINE
  5
21FA
  8
0
 62
     0
 10
831.58069858695615
 20
79.5
 30
0.0
 11
844.83069858695546
 21
79.5
 31
0.0
  0
LINE
  5
21FB
  8
0
 62
     0
 10
972.33069858695319
 20
79.5
 30
0.0
 11
985.58069858695274
 21
79.5
 31
0.0
  0
LINE
  5
21FC
  8
0
 62
     0
 10
814.07271390372273
 20
79.5
 30
0.0
 11
827.33069858695308
 21
79.5
 31
0.0
  0
LINE
  5
21FD
  8
0
 62
     0
 10
1011.580698586953
 20
79.5
 30
0.0
 11
1027.5779205581271
 21
79.5
 31
0.0
  0
LINE
  5
21FE
  8
0
 62
     0
 10
772.07318418770012
 20
79.5
 30
0.0
 11
788.089698241625
 21
79.5
 31
0.0
  0
LINE
  5
21FF
  8
0
 62
     0
 10
1053.5731841877
 20
79.5
 30
0.0
 11
1069.589698241625
 21
79.5
 31
0.0
  0
LINE
  5
2200
  8
0
 62
     0
 10
730.08069858695364
 20
79.5
 30
0.0
 11
746.07792055812695
 21
79.5
 31
0.0
  0
LINE
  5
2201
  8
0
 62
     0
 10
1095.5727139037219
 20
79.5
 30
0.0
 11
1108.8306985869531
 21
79.5
 31
0.0
  0
LINE
  5
2202
  8
0
 62
     0
 10
690.83069858695319
 20
79.5
 30
0.0
 11
704.08069858695274
 21
79.5
 31
0.0
  0
LINE
  5
2203
  8
0
 62
     0
 10
912.82318418770285
 20
81.0
 30
0.0
 11
928.83969824162762
 21
81.0
 31
0.0
  0
LINE
  5
2204
  8
0
 62
     0
 10
870.83069858695637
 20
81.0
 30
0.0
 11
886.82792055812945
 21
81.0
 31
0.0
  0
LINE
  5
2205
  8
0
 62
     0
 10
954.82271390372546
 20
81.0
 30
0.0
 11
968.08069858695615
 21
81.0
 31
0.0
  0
LINE
  5
2206
  8
0
 62
     0
 10
831.58069858695615
 20
81.0
 30
0.0
 11
844.83069858695546
 21
81.0
 31
0.0
  0
LINE
  5
2207
  8
0
 62
     0
 10
972.33069858695319
 20
81.0
 30
0.0
 11
985.58069858695274
 21
81.0
 31
0.0
  0
LINE
  5
2208
  8
0
 62
     0
 10
814.07271390372273
 20
81.0
 30
0.0
 11
827.33069858695308
 21
81.0
 31
0.0
  0
LINE
  5
2209
  8
0
 62
     0
 10
1011.580698586953
 20
81.0
 30
0.0
 11
1027.5779205581271
 21
81.0
 31
0.0
  0
LINE
  5
220A
  8
0
 62
     0
 10
772.07318418770012
 20
81.0
 30
0.0
 11
788.089698241625
 21
81.0
 31
0.0
  0
LINE
  5
220B
  8
0
 62
     0
 10
1053.5731841877
 20
81.0
 30
0.0
 11
1069.589698241625
 21
81.0
 31
0.0
  0
LINE
  5
220C
  8
0
 62
     0
 10
730.08069858695364
 20
81.0
 30
0.0
 11
746.07792055812695
 21
81.0
 31
0.0
  0
LINE
  5
220D
  8
0
 62
     0
 10
1095.5727139037219
 20
81.0
 30
0.0
 11
1108.8306985869531
 21
81.0
 31
0.0
  0
LINE
  5
220E
  8
0
 62
     0
 10
690.83069858695319
 20
81.0
 30
0.0
 11
704.08069858695274
 21
81.0
 31
0.0
  0
LINE
  5
220F
  8
0
 62
     0
 10
912.82318418770285
 20
82.5
 30
0.0
 11
928.83969824162762
 21
82.5
 31
0.0
  0
LINE
  5
2210
  8
0
 62
     0
 10
870.83069858695637
 20
82.5
 30
0.0
 11
886.82792055812945
 21
82.5
 31
0.0
  0
LINE
  5
2211
  8
0
 62
     0
 10
954.82271390372546
 20
82.5
 30
0.0
 11
968.08069858695615
 21
82.5
 31
0.0
  0
LINE
  5
2212
  8
0
 62
     0
 10
831.58069858695615
 20
82.5
 30
0.0
 11
844.83069858695546
 21
82.5
 31
0.0
  0
LINE
  5
2213
  8
0
 62
     0
 10
972.33069858695319
 20
82.5
 30
0.0
 11
985.58069858695274
 21
82.5
 31
0.0
  0
LINE
  5
2214
  8
0
 62
     0
 10
814.07271390372273
 20
82.5
 30
0.0
 11
827.33069858695308
 21
82.5
 31
0.0
  0
LINE
  5
2215
  8
0
 62
     0
 10
1011.580698586953
 20
82.5
 30
0.0
 11
1027.5779205581271
 21
82.5
 31
0.0
  0
LINE
  5
2216
  8
0
 62
     0
 10
772.07318418770012
 20
82.5
 30
0.0
 11
788.089698241625
 21
82.5
 31
0.0
  0
LINE
  5
2217
  8
0
 62
     0
 10
1053.5731841877
 20
82.5
 30
0.0
 11
1069.589698241625
 21
82.5
 31
0.0
  0
LINE
  5
2218
  8
0
 62
     0
 10
730.08069858695364
 20
82.5
 30
0.0
 11
746.07792055812695
 21
82.5
 31
0.0
  0
LINE
  5
2219
  8
0
 62
     0
 10
1095.5727139037219
 20
82.5
 30
0.0
 11
1108.8306985869531
 21
82.5
 31
0.0
  0
LINE
  5
221A
  8
0
 62
     0
 10
690.83069858695319
 20
82.5
 30
0.0
 11
704.08069858695274
 21
82.5
 31
0.0
  0
LINE
  5
221B
  8
0
 62
     0
 10
912.82318418770285
 20
84.0
 30
0.0
 11
928.83969824162762
 21
84.0
 31
0.0
  0
LINE
  5
221C
  8
0
 62
     0
 10
870.83069858695637
 20
84.0
 30
0.0
 11
886.82792055812945
 21
84.0
 31
0.0
  0
LINE
  5
221D
  8
0
 62
     0
 10
954.82271390372546
 20
84.0
 30
0.0
 11
968.08069858695615
 21
84.0
 31
0.0
  0
LINE
  5
221E
  8
0
 62
     0
 10
831.58069858695615
 20
84.0
 30
0.0
 11
844.83069858695546
 21
84.0
 31
0.0
  0
LINE
  5
221F
  8
0
 62
     0
 10
972.33069858695296
 20
84.0
 30
0.0
 11
985.58069858695274
 21
84.0
 31
0.0
  0
LINE
  5
2220
  8
0
 62
     0
 10
814.07271390372273
 20
84.0
 30
0.0
 11
827.33069858695308
 21
84.0
 31
0.0
  0
LINE
  5
2221
  8
0
 62
     0
 10
1011.580698586953
 20
84.0
 30
0.0
 11
1027.5779205581271
 21
84.0
 31
0.0
  0
LINE
  5
2222
  8
0
 62
     0
 10
772.07318418770012
 20
84.0
 30
0.0
 11
788.089698241625
 21
84.0
 31
0.0
  0
LINE
  5
2223
  8
0
 62
     0
 10
1053.5731841877
 20
84.0
 30
0.0
 11
1069.589698241625
 21
84.0
 31
0.0
  0
LINE
  5
2224
  8
0
 62
     0
 10
730.08069858695364
 20
84.0
 30
0.0
 11
746.07792055812695
 21
84.0
 31
0.0
  0
LINE
  5
2225
  8
0
 62
     0
 10
1095.5727139037219
 20
84.0
 30
0.0
 11
1108.8306985869531
 21
84.0
 31
0.0
  0
LINE
  5
2226
  8
0
 62
     0
 10
690.83069858695296
 20
84.0
 30
0.0
 11
704.08069858695274
 21
84.0
 31
0.0
  0
LINE
  5
2227
  8
0
 62
     0
 10
912.82318418770285
 20
85.5
 30
0.0
 11
928.83969824162762
 21
85.5
 31
0.0
  0
LINE
  5
2228
  8
0
 62
     0
 10
870.83069858695637
 20
85.5
 30
0.0
 11
886.82792055812945
 21
85.5
 31
0.0
  0
LINE
  5
2229
  8
0
 62
     0
 10
954.82271390372546
 20
85.5
 30
0.0
 11
968.08069858695615
 21
85.5
 31
0.0
  0
LINE
  5
222A
  8
0
 62
     0
 10
831.58069858695615
 20
85.5
 30
0.0
 11
844.83069858695546
 21
85.5
 31
0.0
  0
LINE
  5
222B
  8
0
 62
     0
 10
972.33069858695296
 20
85.5
 30
0.0
 11
985.58069858695274
 21
85.5
 31
0.0
  0
LINE
  5
222C
  8
0
 62
     0
 10
814.07271390372273
 20
85.5
 30
0.0
 11
827.33069858695308
 21
85.5
 31
0.0
  0
LINE
  5
222D
  8
0
 62
     0
 10
1011.580698586953
 20
85.5
 30
0.0
 11
1027.5779205581271
 21
85.5
 31
0.0
  0
LINE
  5
222E
  8
0
 62
     0
 10
772.07318418770012
 20
85.5
 30
0.0
 11
788.089698241625
 21
85.5
 31
0.0
  0
LINE
  5
222F
  8
0
 62
     0
 10
1053.5731841877
 20
85.5
 30
0.0
 11
1069.589698241625
 21
85.5
 31
0.0
  0
LINE
  5
2230
  8
0
 62
     0
 10
730.08069858695364
 20
85.5
 30
0.0
 11
746.07792055812695
 21
85.5
 31
0.0
  0
LINE
  5
2231
  8
0
 62
     0
 10
1095.5727139037219
 20
85.5
 30
0.0
 11
1108.8306985869531
 21
85.5
 31
0.0
  0
LINE
  5
2232
  8
0
 62
     0
 10
690.83069858695296
 20
85.5
 30
0.0
 11
704.08069858695274
 21
85.5
 31
0.0
  0
LINE
  5
2233
  8
0
 62
     0
 10
912.82318418770285
 20
87.0
 30
0.0
 11
928.83969824162762
 21
87.0
 31
0.0
  0
LINE
  5
2234
  8
0
 62
     0
 10
870.83069858695637
 20
87.0
 30
0.0
 11
886.82792055812945
 21
87.0
 31
0.0
  0
LINE
  5
2235
  8
0
 62
     0
 10
954.82271390372546
 20
87.0
 30
0.0
 11
968.08069858695615
 21
87.0
 31
0.0
  0
LINE
  5
2236
  8
0
 62
     0
 10
831.58069858695615
 20
87.0
 30
0.0
 11
844.83069858695546
 21
87.0
 31
0.0
  0
LINE
  5
2237
  8
0
 62
     0
 10
972.33069858695296
 20
87.0
 30
0.0
 11
985.58069858695274
 21
87.0
 31
0.0
  0
LINE
  5
2238
  8
0
 62
     0
 10
814.07271390372273
 20
87.0
 30
0.0
 11
827.33069858695308
 21
87.0
 31
0.0
  0
LINE
  5
2239
  8
0
 62
     0
 10
1011.580698586953
 20
87.0
 30
0.0
 11
1027.5779205581271
 21
87.0
 31
0.0
  0
LINE
  5
223A
  8
0
 62
     0
 10
772.07318418770012
 20
87.0
 30
0.0
 11
788.089698241625
 21
87.0
 31
0.0
  0
LINE
  5
223B
  8
0
 62
     0
 10
1053.5731841877
 20
87.0
 30
0.0
 11
1069.589698241625
 21
87.0
 31
0.0
  0
LINE
  5
223C
  8
0
 62
     0
 10
730.08069858695364
 20
87.0
 30
0.0
 11
746.07792055812695
 21
87.0
 31
0.0
  0
LINE
  5
223D
  8
0
 62
     0
 10
1095.5727139037219
 20
87.0
 30
0.0
 11
1108.8306985869531
 21
87.0
 31
0.0
  0
LINE
  5
223E
  8
0
 62
     0
 10
690.83069858695296
 20
87.0
 30
0.0
 11
704.08069858695274
 21
87.0
 31
0.0
  0
LINE
  5
223F
  8
0
 62
     0
 10
912.82318418770285
 20
88.499999999999986
 30
0.0
 11
928.83969824162762
 21
88.499999999999986
 31
0.0
  0
LINE
  5
2240
  8
0
 62
     0
 10
870.83069858695637
 20
88.499999999999986
 30
0.0
 11
886.82792055812945
 21
88.499999999999986
 31
0.0
  0
LINE
  5
2241
  8
0
 62
     0
 10
954.82271390372546
 20
88.499999999999986
 30
0.0
 11
968.08069858695615
 21
88.499999999999986
 31
0.0
  0
LINE
  5
2242
  8
0
 62
     0
 10
831.58069858695615
 20
88.499999999999986
 30
0.0
 11
844.83069858695546
 21
88.499999999999986
 31
0.0
  0
LINE
  5
2243
  8
0
 62
     0
 10
972.33069858695296
 20
88.499999999999986
 30
0.0
 11
985.58069858695274
 21
88.499999999999986
 31
0.0
  0
LINE
  5
2244
  8
0
 62
     0
 10
814.07271390372273
 20
88.499999999999986
 30
0.0
 11
827.33069858695308
 21
88.499999999999986
 31
0.0
  0
LINE
  5
2245
  8
0
 62
     0
 10
1011.580698586953
 20
88.499999999999986
 30
0.0
 11
1027.5779205581271
 21
88.499999999999986
 31
0.0
  0
LINE
  5
2246
  8
0
 62
     0
 10
772.07318418770012
 20
88.499999999999986
 30
0.0
 11
788.089698241625
 21
88.499999999999986
 31
0.0
  0
LINE
  5
2247
  8
0
 62
     0
 10
1053.5731841877
 20
88.499999999999986
 30
0.0
 11
1069.589698241625
 21
88.499999999999986
 31
0.0
  0
LINE
  5
2248
  8
0
 62
     0
 10
730.08069858695364
 20
88.499999999999986
 30
0.0
 11
746.07792055812695
 21
88.499999999999986
 31
0.0
  0
LINE
  5
2249
  8
0
 62
     0
 10
1095.5727139037219
 20
88.499999999999986
 30
0.0
 11
1108.8306985869531
 21
88.499999999999986
 31
0.0
  0
LINE
  5
224A
  8
0
 62
     0
 10
690.83069858695296
 20
88.499999999999986
 30
0.0
 11
704.08069858695274
 21
88.499999999999986
 31
0.0
  0
LINE
  5
224B
  8
0
 62
     0
 10
912.82318418770285
 20
90.0
 30
0.0
 11
928.83969824162762
 21
90.0
 31
0.0
  0
LINE
  5
224C
  8
0
 62
     0
 10
870.83069858695637
 20
90.0
 30
0.0
 11
886.82792055812945
 21
90.0
 31
0.0
  0
LINE
  5
224D
  8
0
 62
     0
 10
954.82271390372546
 20
90.0
 30
0.0
 11
968.08069858695615
 21
90.0
 31
0.0
  0
LINE
  5
224E
  8
0
 62
     0
 10
831.58069858695615
 20
90.0
 30
0.0
 11
844.83069858695546
 21
90.0
 31
0.0
  0
LINE
  5
224F
  8
0
 62
     0
 10
972.33069858695296
 20
90.0
 30
0.0
 11
985.58069858695274
 21
90.0
 31
0.0
  0
LINE
  5
2250
  8
0
 62
     0
 10
814.07271390372273
 20
90.0
 30
0.0
 11
827.33069858695308
 21
90.0
 31
0.0
  0
LINE
  5
2251
  8
0
 62
     0
 10
1011.580698586953
 20
90.0
 30
0.0
 11
1027.5779205581271
 21
90.0
 31
0.0
  0
LINE
  5
2252
  8
0
 62
     0
 10
772.07318418770012
 20
90.0
 30
0.0
 11
788.089698241625
 21
90.0
 31
0.0
  0
LINE
  5
2253
  8
0
 62
     0
 10
1053.5731841877
 20
90.0
 30
0.0
 11
1069.589698241625
 21
90.0
 31
0.0
  0
LINE
  5
2254
  8
0
 62
     0
 10
730.08069858695364
 20
90.0
 30
0.0
 11
746.07792055812695
 21
90.0
 31
0.0
  0
LINE
  5
2255
  8
0
 62
     0
 10
1095.5727139037219
 20
90.0
 30
0.0
 11
1108.8306985869531
 21
90.0
 31
0.0
  0
LINE
  5
2256
  8
0
 62
     0
 10
690.83069858695296
 20
90.0
 30
0.0
 11
704.08069858695274
 21
90.0
 31
0.0
  0
LINE
  5
2257
  8
0
 62
     0
 10
912.82318418770285
 20
91.5
 30
0.0
 11
928.83969824162762
 21
91.5
 31
0.0
  0
LINE
  5
2258
  8
0
 62
     0
 10
870.83069858695637
 20
91.5
 30
0.0
 11
886.82792055812945
 21
91.5
 31
0.0
  0
LINE
  5
2259
  8
0
 62
     0
 10
954.82271390372546
 20
91.5
 30
0.0
 11
968.08069858695615
 21
91.5
 31
0.0
  0
LINE
  5
225A
  8
0
 62
     0
 10
831.58069858695615
 20
91.5
 30
0.0
 11
844.83069858695546
 21
91.5
 31
0.0
  0
LINE
  5
225B
  8
0
 62
     0
 10
972.33069858695296
 20
91.5
 30
0.0
 11
985.58069858695274
 21
91.5
 31
0.0
  0
LINE
  5
225C
  8
0
 62
     0
 10
814.07271390372273
 20
91.5
 30
0.0
 11
827.33069858695308
 21
91.5
 31
0.0
  0
LINE
  5
225D
  8
0
 62
     0
 10
1011.580698586953
 20
91.5
 30
0.0
 11
1027.5779205581271
 21
91.5
 31
0.0
  0
LINE
  5
225E
  8
0
 62
     0
 10
772.07318418770012
 20
91.5
 30
0.0
 11
788.089698241625
 21
91.5
 31
0.0
  0
LINE
  5
225F
  8
0
 62
     0
 10
1053.5731841877
 20
91.5
 30
0.0
 11
1069.589698241625
 21
91.5
 31
0.0
  0
LINE
  5
2260
  8
0
 62
     0
 10
730.08069858695364
 20
91.5
 30
0.0
 11
746.07792055812695
 21
91.5
 31
0.0
  0
LINE
  5
2261
  8
0
 62
     0
 10
1095.5727139037219
 20
91.5
 30
0.0
 11
1108.8306985869531
 21
91.5
 31
0.0
  0
LINE
  5
2262
  8
0
 62
     0
 10
690.83069858695296
 20
91.5
 30
0.0
 11
704.08069858695274
 21
91.5
 31
0.0
  0
LINE
  5
2263
  8
0
 62
     0
 10
912.82318418770285
 20
93.0
 30
0.0
 11
928.83969824162762
 21
93.0
 31
0.0
  0
LINE
  5
2264
  8
0
 62
     0
 10
870.83069858695637
 20
93.0
 30
0.0
 11
886.82792055812945
 21
93.0
 31
0.0
  0
LINE
  5
2265
  8
0
 62
     0
 10
954.82271390372546
 20
93.0
 30
0.0
 11
968.08069858695603
 21
93.0
 31
0.0
  0
LINE
  5
2266
  8
0
 62
     0
 10
831.58069858695603
 20
93.0
 30
0.0
 11
844.83069858695546
 21
93.0
 31
0.0
  0
LINE
  5
2267
  8
0
 62
     0
 10
972.33069858695296
 20
93.0
 30
0.0
 11
985.58069858695274
 21
93.0
 31
0.0
  0
LINE
  5
2268
  8
0
 62
     0
 10
814.07271390372273
 20
93.0
 30
0.0
 11
827.33069858695308
 21
93.0
 31
0.0
  0
LINE
  5
2269
  8
0
 62
     0
 10
1011.580698586953
 20
93.0
 30
0.0
 11
1027.5779205581271
 21
93.0
 31
0.0
  0
LINE
  5
226A
  8
0
 62
     0
 10
772.07318418770012
 20
93.0
 30
0.0
 11
788.089698241625
 21
93.0
 31
0.0
  0
LINE
  5
226B
  8
0
 62
     0
 10
1053.5731841877
 20
93.0
 30
0.0
 11
1069.589698241625
 21
93.0
 31
0.0
  0
LINE
  5
226C
  8
0
 62
     0
 10
730.08069858695364
 20
93.0
 30
0.0
 11
746.07792055812695
 21
93.0
 31
0.0
  0
LINE
  5
226D
  8
0
 62
     0
 10
1095.5727139037219
 20
93.0
 30
0.0
 11
1108.8306985869531
 21
93.0
 31
0.0
  0
LINE
  5
226E
  8
0
 62
     0
 10
690.83069858695296
 20
93.0
 30
0.0
 11
704.08069858695274
 21
93.0
 31
0.0
  0
LINE
  5
226F
  8
0
 62
     0
 10
912.82318418770285
 20
94.500000000000014
 30
0.0
 11
928.83969824162762
 21
94.500000000000014
 31
0.0
  0
LINE
  5
2270
  8
0
 62
     0
 10
870.83069858695637
 20
94.500000000000014
 30
0.0
 11
886.82792055812945
 21
94.500000000000014
 31
0.0
  0
LINE
  5
2271
  8
0
 62
     0
 10
954.82271390372546
 20
94.500000000000014
 30
0.0
 11
968.08069858695603
 21
94.500000000000014
 31
0.0
  0
LINE
  5
2272
  8
0
 62
     0
 10
831.58069858695603
 20
94.500000000000014
 30
0.0
 11
844.83069858695546
 21
94.500000000000014
 31
0.0
  0
LINE
  5
2273
  8
0
 62
     0
 10
972.33069858695285
 20
94.500000000000014
 30
0.0
 11
985.58069858695274
 21
94.500000000000014
 31
0.0
  0
LINE
  5
2274
  8
0
 62
     0
 10
814.07271390372273
 20
94.500000000000014
 30
0.0
 11
827.33069858695285
 21
94.500000000000014
 31
0.0
  0
LINE
  5
2275
  8
0
 62
     0
 10
1011.580698586953
 20
94.500000000000014
 30
0.0
 11
1027.5779205581271
 21
94.500000000000014
 31
0.0
  0
LINE
  5
2276
  8
0
 62
     0
 10
772.07318418770012
 20
94.500000000000014
 30
0.0
 11
788.089698241625
 21
94.500000000000014
 31
0.0
  0
LINE
  5
2277
  8
0
 62
     0
 10
1053.5731841877
 20
94.500000000000014
 30
0.0
 11
1069.589698241625
 21
94.500000000000014
 31
0.0
  0
LINE
  5
2278
  8
0
 62
     0
 10
730.08069858695364
 20
94.500000000000014
 30
0.0
 11
746.07792055812695
 21
94.500000000000014
 31
0.0
  0
LINE
  5
2279
  8
0
 62
     0
 10
1095.5727139037219
 20
94.500000000000014
 30
0.0
 11
1108.8306985869531
 21
94.500000000000014
 31
0.0
  0
LINE
  5
227A
  8
0
 62
     0
 10
690.83069858695285
 20
94.500000000000014
 30
0.0
 11
704.08069858695274
 21
94.500000000000014
 31
0.0
  0
LINE
  5
227B
  8
0
 62
     0
 10
912.82318418770285
 20
96.0
 30
0.0
 11
928.83969824162762
 21
96.0
 31
0.0
  0
LINE
  5
227C
  8
0
 62
     0
 10
870.83069858695637
 20
96.0
 30
0.0
 11
886.82792055812945
 21
96.0
 31
0.0
  0
LINE
  5
227D
  8
0
 62
     0
 10
954.82271390372546
 20
96.0
 30
0.0
 11
968.08069858695603
 21
96.0
 31
0.0
  0
LINE
  5
227E
  8
0
 62
     0
 10
831.58069858695603
 20
96.0
 30
0.0
 11
844.83069858695546
 21
96.0
 31
0.0
  0
LINE
  5
227F
  8
0
 62
     0
 10
972.33069858695285
 20
96.0
 30
0.0
 11
985.58069858695274
 21
96.0
 31
0.0
  0
LINE
  5
2280
  8
0
 62
     0
 10
814.07271390372273
 20
96.0
 30
0.0
 11
827.33069858695285
 21
96.0
 31
0.0
  0
LINE
  5
2281
  8
0
 62
     0
 10
1011.580698586953
 20
96.0
 30
0.0
 11
1027.5779205581271
 21
96.0
 31
0.0
  0
LINE
  5
2282
  8
0
 62
     0
 10
772.07318418770012
 20
96.0
 30
0.0
 11
788.089698241625
 21
96.0
 31
0.0
  0
LINE
  5
2283
  8
0
 62
     0
 10
1053.5731841877
 20
96.0
 30
0.0
 11
1069.589698241625
 21
96.0
 31
0.0
  0
LINE
  5
2284
  8
0
 62
     0
 10
730.08069858695364
 20
96.0
 30
0.0
 11
746.07792055812695
 21
96.0
 31
0.0
  0
LINE
  5
2285
  8
0
 62
     0
 10
1095.5727139037219
 20
96.0
 30
0.0
 11
1108.8306985869531
 21
96.0
 31
0.0
  0
LINE
  5
2286
  8
0
 62
     0
 10
690.83069858695285
 20
96.0
 30
0.0
 11
704.08069858695274
 21
96.0
 31
0.0
  0
LINE
  5
2287
  8
0
 62
     0
 10
912.82318418770285
 20
97.5
 30
0.0
 11
928.83969824162762
 21
97.5
 31
0.0
  0
LINE
  5
2288
  8
0
 62
     0
 10
870.83069858695637
 20
97.5
 30
0.0
 11
886.82792055812945
 21
97.5
 31
0.0
  0
LINE
  5
2289
  8
0
 62
     0
 10
954.82271390372546
 20
97.5
 30
0.0
 11
968.08069858695603
 21
97.5
 31
0.0
  0
LINE
  5
228A
  8
0
 62
     0
 10
831.58069858695603
 20
97.5
 30
0.0
 11
844.83069858695546
 21
97.5
 31
0.0
  0
LINE
  5
228B
  8
0
 62
     0
 10
972.33069858695285
 20
97.5
 30
0.0
 11
985.58069858695274
 21
97.5
 31
0.0
  0
LINE
  5
228C
  8
0
 62
     0
 10
814.07271390372273
 20
97.5
 30
0.0
 11
827.33069858695285
 21
97.5
 31
0.0
  0
LINE
  5
228D
  8
0
 62
     0
 10
1011.580698586953
 20
97.5
 30
0.0
 11
1027.5779205581271
 21
97.5
 31
0.0
  0
LINE
  5
228E
  8
0
 62
     0
 10
772.07318418770012
 20
97.5
 30
0.0
 11
788.089698241625
 21
97.5
 31
0.0
  0
LINE
  5
228F
  8
0
 62
     0
 10
1053.5731841877
 20
97.5
 30
0.0
 11
1069.589698241625
 21
97.5
 31
0.0
  0
LINE
  5
2290
  8
0
 62
     0
 10
730.08069858695364
 20
97.5
 30
0.0
 11
746.07792055812695
 21
97.5
 31
0.0
  0
LINE
  5
2291
  8
0
 62
     0
 10
1095.5727139037219
 20
97.5
 30
0.0
 11
1108.8306985869531
 21
97.5
 31
0.0
  0
LINE
  5
2292
  8
0
 62
     0
 10
690.83069858695285
 20
97.5
 30
0.0
 11
704.08069858695274
 21
97.5
 31
0.0
  0
ENDBLK
  5
2294
  8
0
  0
ENDSEC
  0
SECTION
  2
ENTITIES
  0
LINE
  5
5FF
  8
0
 10
483.61280857830798
 20
155.87500450375691
 30
0.0
 11
483.67390095502151
 21
155.87500450375691
 31
0.0
  0
LINE
  5
600
  8
0
 10
483.67390095502151
 20
172.37500450375649
 30
0.0
 11
483.61280857830798
 21
172.37500450375649
 31
0.0
  0
LINE
  5
603
  8
0
 10
624.54390179425366
 20
155.87500450375691
 30
0.0
 11
624.60499607830707
 21
155.87500450375691
 31
0.0
  0
LINE
  5
604
  8
0
 10
624.60499607830707
 20
172.37500450375649
 30
0.0
 11
624.54390179425366
 21
172.37500450375649
 31
0.0
  0
LINE
  5
605
  8
0
 10
624.60499607830707
 20
164.12500450375671
 30
0.0
 11
624.60499607830707
 21
160.29104277955369
 31
0.0
  0
LINE
  5
606
  8
0
 10
624.60499607830707
 20
160.29103833439561
 30
0.0
 11
624.60499607830707
 21
158.6542425732701
 31
0.0
  0
LINE
  5
607
  8
0
 10
624.60499607830707
 20
158.6542400503607
 30
0.0
 11
624.60499607830707
 21
156.411120501602
 31
0.0
  0
LINE
  5
608
  8
0
 10
624.60499607830707
 20
156.41111714643731
 30
0.0
 11
624.60499607830707
 21
155.93515629244769
 31
0.0
  0
LINE
  5
60A
  8
0
 10
624.60499607830707
 20
172.3148527150656
 30
0.0
 11
624.60499607830707
 21
171.83888850591131
 31
0.0
  0
LINE
  5
60B
  8
0
 10
624.60499607830707
 20
171.83888731582149
 30
0.0
 11
624.60499607830707
 21
167.95897385138991
 31
0.0
  0
LINE
  5
60C
  8
0
 10
624.60499607830707
 20
167.9589706731177
 30
0.0
 11
624.60499607830707
 21
164.1250083558391
 31
0.0
  0
LINE
  5
60D
  8
0
 10
624.48390232830798
 20
155.12500450375751
 30
0.0
 11
624.54390232830667
 21
155.12500450375751
 31
0.0
  0
LINE
  5
60E
  8
0
 10
624.54390232830667
 20
173.12500450375751
 30
0.0
 11
624.48390232830798
 21
173.12500450375751
 31
0.0
  0
LINE
  5
60F
  8
0
 10
624.5439023283069
 20
164.12500450375731
 30
0.0
 11
624.5439023283069
 21
162.12231609815049
 31
0.0
  0
LINE
  5
610
  8
0
 10
624.5439023283069
 20
162.12231510866849
 30
0.0
 11
624.5439023283069
 21
160.22005512152739
 31
0.0
  0
LINE
  5
611
  8
0
 10
624.5439023283069
 20
160.22005085169931
 30
0.0
 11
624.5439023283069
 21
158.51359628702869
 31
0.0
  0
LINE
  5
612
  8
0
 10
624.5439023283069
 20
158.51359204160511
 30
0.0
 11
624.5439023283069
 21
157.08852116154509
 31
0.0
  0
LINE
  5
613
  8
0
 10
624.5439023283069
 20
157.08851618560661
 30
0.0
 11
624.5439023283069
 21
156.01628546006199
 31
0.0
  0
LINE
  5
614
  8
0
 10
624.5439023283069
 20
156.01628469263551
 30
0.0
 11
624.5439023283069
 21
155.35065329412089
 31
0.0
  0
LINE
  5
615
  8
0
 10
624.5439023283069
 20
155.35064967398989
 30
0.0
 11
624.5439023283069
 21
155.12500450375731
 31
0.0
  0
LINE
  5
616
  8
0
 10
624.5439023283069
 20
173.12500450375731
 30
0.0
 11
624.5439023283069
 21
172.8993557133937
 31
0.0
  0
LINE
  5
617
  8
0
 10
624.5439023283069
 20
172.8993543651207
 30
0.0
 11
624.5439023283069
 21
172.23372431487911
 31
0.0
  0
LINE
  5
618
  8
0
 10
624.5439023283069
 20
172.2337204299435
 30
0.0
 11
624.5439023283069
 21
171.1614883420639
 31
0.0
  0
LINE
  5
619
  8
0
 10
624.5439023283069
 20
171.16148784596959
 30
0.0
 11
624.5439023283069
 21
168.02996153126151
 31
0.0
  0
LINE
  5
61A
  8
0
 10
624.5439023283069
 20
168.02995815581531
 30
0.0
 11
624.5439023283069
 21
164.1250083506587
 31
0.0
  0
LINE
  5
61B
  8
0
 10
483.61280857830798
 20
155.87500450376129
 30
0.0
 11
483.67390095502151
 21
155.87500450376129
 31
0.0
  0
LINE
  5
61C
  8
0
 10
483.67390095502151
 20
172.37500450376129
 30
0.0
 11
483.61280857830798
 21
172.37500450376129
 31
0.0
  0
LINE
  5
61D
  8
0
 10
483.6128085783065
 20
155.93515629245221
 30
0.0
 11
483.6128085783065
 21
156.411117146435
 31
0.0
  0
LINE
  5
61E
  8
0
 10
483.6128085783065
 20
156.41112050160649
 30
0.0
 11
483.6128085783065
 21
157.33538761013841
 31
0.0
  0
LINE
  5
61F
  8
0
 10
483.6128085783065
 20
157.3353886943101
 30
0.0
 11
483.6128085783065
 21
158.65424005035999
 31
0.0
  0
LINE
  5
620
  8
0
 10
483.6128085783065
 20
158.6542425732745
 30
0.0
 11
483.6128085783065
 21
164.12500450376101
 31
0.0
  0
LINE
  5
621
  8
0
 10
483.6128085783065
 20
164.1250083558391
 30
0.0
 11
483.6128085783065
 21
167.95897067312231
 31
0.0
  0
LINE
  5
622
  8
0
 10
483.6128085783065
 20
167.95897385138949
 30
0.0
 11
483.6128085783065
 21
169.59576498913449
 31
0.0
  0
LINE
  5
623
  8
0
 10
483.6128085783065
 20
169.59576643424771
 30
0.0
 11
483.6128085783065
 21
170.91461703737329
 31
0.0
  0
LINE
  5
624
  8
0
 10
483.6128085783065
 20
170.9146213973838
 30
0.0
 11
483.6128085783065
 21
171.8388873158226
 31
0.0
  0
LINE
  5
625
  8
0
 10
483.6128085783065
 20
171.8388885059158
 30
0.0
 11
483.6128085783065
 21
172.31485271507009
 31
0.0
  0
LINE
  5
627
  8
0
 10
483.67390232830718
 20
155.125004503762
 30
0.0
 11
483.73390232830712
 21
155.125004503762
 31
0.0
  0
LINE
  5
628
  8
0
 10
483.73390232830712
 20
173.125004503762
 30
0.0
 11
483.67390232830718
 21
173.125004503762
 31
0.0
  0
LINE
  5
629
  8
0
 10
483.6739023283065
 20
155.1250045037618
 30
0.0
 11
483.6739023283065
 21
155.3506496739854
 31
0.0
  0
LINE
  5
62A
  8
0
 10
483.6739023283065
 20
155.35065329412541
 30
0.0
 11
483.67390232830638
 21
157.0885161856057
 31
0.0
  0
LINE
  5
62B
  8
0
 10
483.67390232830638
 20
157.08852116154949
 30
0.0
 11
483.67390232830638
 21
158.51359204160451
 31
0.0
  0
LINE
  5
62C
  8
0
 10
483.67390232830638
 20
158.5135962870331
 30
0.0
 11
483.67390232830638
 21
162.12231510866869
 31
0.0
  0
LINE
  5
62D
  8
0
 10
483.67390232830638
 20
162.1223160981549
 30
0.0
 11
483.67390232830638
 21
164.12500450376169
 31
0.0
  0
LINE
  5
62E
  8
0
 10
483.67390232830638
 20
164.12500835065859
 30
0.0
 11
483.67390232830638
 21
166.12769009877809
 31
0.0
  0
LINE
  5
62F
  8
0
 10
483.67390232830638
 20
166.12769290936859
 30
0.0
 11
483.67390232830638
 21
168.0299581558198
 31
0.0
  0
LINE
  5
630
  8
0
 10
483.67390232830638
 20
168.02996153126119
 30
0.0
 11
483.67390232830638
 21
171.16148784597411
 31
0.0
  0
LINE
  5
631
  8
0
 10
483.67390232830638
 20
171.161488342063
 30
0.0
 11
483.6739023283065
 21
172.89935436512221
 31
0.0
  0
LINE
  5
632
  8
0
 10
483.6739023283065
 20
172.89935571339819
 30
0.0
 11
483.6739023283065
 21
173.1250045037618
 31
0.0
  0
LINE
  5
633
  8
0
 10
624.54390179425366
 20
155.87500450375691
 30
0.0
 11
624.60499607830707
 21
155.87500450375691
 31
0.0
  0
LINE
  5
634
  8
0
 10
624.60499607830707
 20
172.37500450375649
 30
0.0
 11
624.54390179425366
 21
172.37500450375649
 31
0.0
  0
LINE
  5
637
  8
0
 10
483.73390232830673
 20
194.12500450375751
 30
0.0
 11
624.48390232830388
 21
194.12500450375751
 31
0.0
  0
LINE
  5
638
  8
0
 10
624.48390232830388
 20
100.00000450375769
 30
0.0
 11
483.73390232830673
 21
100.00000450375769
 31
0.0
  0
LINE
  5
639
  8
0
 10
483.73390232830673
 20
100.00000450375769
 30
0.0
 11
483.73390232830673
 21
194.12500450375751
 31
0.0
  0
LINE
  5
63A
  8
0
 10
624.48390232830388
 20
100.00000450375769
 30
0.0
 11
624.48390232830388
 21
194.12500450375751
 31
0.0
  0
LINE
  5
63B
  8
0
 10
483.73390232830712
 20
100.00000450375769
 30
0.0
 11
625.73390232830695
 21
100.00000450375769
 31
0.0
  0
LINE
  5
63C
  8
0
 10
625.73390232830695
 20
0.0000045037577365
 30
0.0
 11
483.73390232830712
 21
0.0000045037577365
 31
0.0
  0
LINE
  5
63D
  8
0
 10
483.73390232830712
 20
100.00000450375769
 30
0.0
 11
483.73390232830712
 21
0.0000045037577365
 31
0.0
  0
LINE
  5
63E
  8
0
 10
625.73390232830695
 20
0.0000045037577365
 30
0.0
 11
625.73390232830695
 21
100.00000450375769
 31
0.0
  0
LINE
  5
648
  8
0
 10
624.73390232830695
 20
190.37500450375819
 30
0.0
 11
624.48390232830798
 21
190.37500450375819
 31
0.0
  0
LINE
  5
649
  8
0
 10
624.48390232830798
 20
182.37500450375799
 30
0.0
 11
624.73390232830695
 21
182.37500450375799
 31
0.0
  0
LINE
  5
64A
  8
0
 10
624.73390232830695
 20
190.37500450375811
 30
0.0
 11
624.73390232830695
 21
190.238710545641
 31
0.0
  0
LINE
  5
64B
  8
0
 10
624.73390232830695
 20
190.23870780891431
 30
0.0
 11
624.73390232830695
 21
189.83910611889581
 31
0.0
  0
LINE
  5
64C
  8
0
 10
624.73390232830695
 20
189.83910469300091
 30
0.0
 11
624.73390232830695
 21
187.4102806841681
 31
0.0
  0
LINE
  5
64D
  8
0
 10
624.73390232830695
 20
187.4102790478118
 30
0.0
 11
624.73390232830695
 21
186.37500450375799
 31
0.0
  0
LINE
  5
64E
  8
0
 10
624.73390232830695
 20
186.37500064513341
 30
0.0
 11
624.73390232830695
 21
185.33973368684951
 31
0.0
  0
LINE
  5
64F
  8
0
 10
624.73390232830695
 20
185.33972832334791
 30
0.0
 11
624.73390232830695
 21
182.9109074566511
 31
0.0
  0
LINE
  5
650
  8
0
 10
624.73390232830695
 20
182.91090288862031
 30
0.0
 11
624.73390232830695
 21
182.37500450375799
 31
0.0
  0
ARC
  5
651
  8
0
 10
548.98390232830604
 20
40.50000450375812
 30
0.0
 40
1.50000000000001
 50
359.99999999999898
 51
179.99999999999901
  0
ARC
  5
652
  8
0
 10
548.98390232830604
 20
40.50000450375812
 30
0.0
 40
1.499999999999988
 50
180.00000000000071
 51
0.0000000000001527
  0
ARC
  5
653
  8
0
 10
488.48390232830621
 20
29.000004503758142
 30
0.0
 40
1.4999999999999849
 50
359.9999999999996
 51
179.9999999999996
  0
ARC
  5
654
  8
0
 10
488.48390232830621
 20
29.000004503758142
 30
0.0
 40
1.500000000000004
 50
180.0000000000002
 51
359.9999999999992
  0
ARC
  5
655
  8
0
 10
487.10890232830599
 20
6.62500450375813
 30
0.0
 40
0.9999999999999992
 50
359.9999999999996
 51
179.99999999999969
  0
ARC
  5
656
  8
0
 10
487.10890232830599
 20
6.62500450375813
 30
0.0
 40
1.0000000000000011
 50
180.00000000000011
 51
359.99999999999937
  0
ARC
  5
657
  8
0
 10
510.85890232830633
 20
13.500004503758159
 30
0.0
 40
5.0000000000000151
 50
359.99999999999932
 51
179.9999999999996
  0
ARC
  5
658
  8
0
 10
510.85890232830633
 20
13.500004503758159
 30
0.0
 40
4.9999999999999991
 50
180.00000000000031
 51
359.99999999999949
  0
CIRCLE
  5
659
  8
0
 10
506.48390232830633
 20
44.250004503757722
 30
0.0
 40
11.18749999999998
  0
ARC
  5
65A
  8
0
 10
899.8306985869566
 20
164.1250045037566
 30
0.0
 40
8.2500000000000089
 50
179.99999999999969
 51
359.99999999999881
  0
ARC
  5
65B
  8
0
 10
899.8306985869566
 20
164.1250045037566
 30
0.0
 40
8.2500000000000053
 50
359.9999999999996
 51
179.9999999999998
  0
ARC
  5
65C
  8
0
 10
899.8306985869566
 20
164.1250045037566
 30
0.0
 40
7.687499999999992
 50
0.0000000000009414
 51
180.0000000000002
  0
ARC
  5
65D
  8
0
 10
899.8306985869566
 20
164.1250045037566
 30
0.0
 40
7.687499999999992
 50
180.00000000000011
 51
0.0000000000000509
  0
LINE
  5
65E
  8
0
 10
904.95319936094472
 20
161.68314865495921
 30
0.0
 11
904.75825888475413
 21
161.23423992480051
 31
0.0
  0
LINE
  5
65F
  8
0
 10
904.75825888475413
 20
161.23423992480051
 30
0.0
 11
904.30736602761124
 21
161.07699786130851
 31
0.0
  0
LINE
  5
660
  8
0
 10
904.30736602761124
 20
161.07699786130851
 30
0.0
 11
903.98283725777003
 21
161.1412339724196
 31
0.0
  0
LINE
  5
661
  8
0
 10
903.98283725777003
 20
161.1412339724196
 30
0.0
 11
903.74734618634147
 21
161.33394230575291
 31
0.0
  0
LINE
  5
662
  8
0
 10
903.74734618634147
 20
161.33394230575291
 30
0.0
 11
903.55637396411919
 21
162.09187881368939
 31
0.0
  0
LINE
  5
663
  8
0
 10
903.55637396411919
 20
162.09187881368939
 30
0.0
 11
903.7404017418969
 21
162.85576770257831
 31
0.0
  0
LINE
  5
664
  8
0
 10
903.7404017418969
 20
162.85576770257831
 30
0.0
 11
903.97018844824606
 21
163.04549984543539
 31
0.0
  0
LINE
  5
665
  8
0
 10
903.97018844824606
 20
163.04549984543539
 30
0.0
 11
904.29149301173811
 21
163.10874389305451
 31
0.0
  0
LINE
  5
666
  8
0
 10
904.29149301173811
 20
163.10874389305451
 30
0.0
 11
904.75974697999231
 21
162.96539071845129
 31
0.0
  0
LINE
  5
667
  8
0
 10
904.75974697999231
 20
162.96539071845129
 30
0.0
 11
904.95319936094472
 21
162.5402915121021
 31
0.0
  0
LINE
  5
668
  8
0
 10
904.95319936094472
 20
162.5402915121021
 30
0.0
 11
906.09605650380172
 21
162.5402915121021
 31
0.0
  0
LINE
  5
669
  8
0
 10
906.09605650380172
 20
162.5402915121021
 30
0.0
 11
905.93583824983341
 21
163.18798496448301
 31
0.0
  0
LINE
  5
66A
  8
0
 10
905.93583824983341
 20
163.18798496448301
 30
0.0
 11
905.568278726024
 21
163.6667796073402
 31
0.0
  0
LINE
  5
66B
  8
0
 10
905.568278726024
 20
163.6667796073402
 30
0.0
 11
905.00925094824618
 21
163.96253853591159
 31
0.0
  0
LINE
  5
66C
  8
0
 10
905.00925094824618
 20
163.96253853591159
 30
0.0
 11
904.27462793237305
 21
164.06112484543539
 31
0.0
  0
LINE
  5
66D
  8
0
 10
904.27462793237305
 20
164.06112484543539
 30
0.0
 11
903.47663686094461
 21
163.92918040099099
 31
0.0
  0
LINE
  5
66E
  8
0
 10
903.47663686094461
 20
163.92918040099099
 30
0.0
 11
902.86639380538895
 21
163.5333470676577
 31
0.0
  0
LINE
  5
66F
  8
0
 10
902.86639380538895
 20
163.5333470676577
 30
0.0
 11
902.47911701967473
 21
162.90933913114969
 31
0.0
  0
LINE
  5
670
  8
0
 10
902.47911701967473
 20
162.90933913114969
 30
0.0
 11
902.35002475777003
 21
162.0928708771815
 31
0.0
  0
LINE
  5
671
  8
0
 10
902.35002475777003
 20
162.0928708771815
 30
0.0
 11
902.47973705935726
 21
161.27454250416559
 31
0.0
  0
LINE
  5
672
  8
0
 10
902.47973705935726
 20
161.27454250416559
 30
0.0
 11
902.86887396411908
 21
160.65090659146719
 31
0.0
  0
LINE
  5
673
  8
0
 10
902.86887396411908
 20
160.65090659146719
 30
0.0
 11
903.48420134507148
 21
160.2561893295624
 31
0.0
  0
LINE
  5
674
  8
0
 10
903.48420134507148
 20
160.2561893295624
 30
0.0
 11
904.29248507523027
 21
160.12461690892749
 31
0.0
  0
LINE
  5
675
  8
0
 10
904.29248507523027
 20
160.12461690892749
 30
0.0
 11
905.0155753530081
 21
160.22679944861
 31
0.0
  0
LINE
  5
676
  8
0
 10
905.0155753530081
 20
160.22679944861
 30
0.0
 11
905.57175094824606
 21
160.5333470676577
 31
0.0
  0
LINE
  5
677
  8
0
 10
905.57175094824606
 20
160.5333470676577
 30
0.0
 11
905.93918646411919
 21
161.0251625438481
 31
0.0
  0
LINE
  5
678
  8
0
 10
905.93918646411919
 20
161.0251625438481
 30
0.0
 11
906.09605650380172
 21
161.68314865495921
 31
0.0
  0
LINE
  5
679
  8
0
 10
906.09605650380172
 20
161.68314865495921
 30
0.0
 11
904.95319936094472
 21
161.68314865495921
 31
0.0
  0
LINE
  5
67A
  8
0
 10
897.7314719831769
 20
162.45722284388251
 30
0.0
 11
898.90905134825641
 21
162.45722284388251
 31
0.0
  0
LINE
  5
67B
  8
0
 10
898.90905134825641
 20
162.45722284388251
 30
0.0
 11
899.05587674508172
 21
162.96515935181901
 31
0.0
  0
LINE
  5
67C
  8
0
 10
899.05587674508172
 20
162.96515935181901
 30
0.0
 11
900.25924976095484
 21
162.96515935181901
 31
0.0
  0
LINE
  5
67D
  8
0
 10
900.25924976095484
 20
162.96515935181901
 30
0.0
 11
900.40111484031968
 21
162.45722284388251
 31
0.0
  0
LINE
  5
67E
  8
0
 10
900.40111484031968
 20
162.45722284388251
 30
0.0
 11
901.6044878561928
 21
162.45722284388251
 31
0.0
  0
LINE
  5
67F
  8
0
 10
901.6044878561928
 20
162.45722284388251
 30
0.0
 11
900.27512277682774
 21
166.2667466534063
 31
0.0
  0
LINE
  5
680
  8
0
 10
900.27512277682774
 20
166.2667466534063
 30
0.0
 11
899.045956110161
 21
166.2667466534063
 31
0.0
  0
LINE
  5
681
  8
0
 10
899.045956110161
 20
166.2667466534063
 30
0.0
 11
897.7314719831769
 21
162.45722284388251
 31
0.0
  0
LINE
  5
682
  8
0
 10
899.27611484031979
 20
163.79055617721579
 30
0.0
 11
899.66202753873245
 21
165.09412760578721
 31
0.0
  0
LINE
  5
683
  8
0
 10
899.66202753873245
 20
165.09412760578721
 30
0.0
 11
900.03901166571654
 21
163.79055617721579
 31
0.0
  0
LINE
  5
684
  8
0
 10
900.03901166571654
 20
163.79055617721579
 30
0.0
 11
899.27611484031979
 21
163.79055617721579
 31
0.0
  0
LINE
  5
685
  8
0
 10
893.97074079291554
 20
164.1976111530627
 30
0.0
 11
895.67014555482024
 21
164.1976111530627
 31
0.0
  0
LINE
  5
686
  8
0
 10
895.67014555482024
 20
164.1976111530627
 30
0.0
 11
896.43800269767735
 21
164.23630162925321
 31
0.0
  0
LINE
  5
687
  8
0
 10
896.43800269767735
 20
164.23630162925321
 30
0.0
 11
896.85070111037578
 21
164.36824607369761
 31
0.0
  0
LINE
  5
688
  8
0
 10
896.85070111037578
 20
164.36824607369761
 30
0.0
 11
897.25893523735988
 21
164.75118258163411
 31
0.0
  0
LINE
  5
689
  8
0
 10
897.25893523735988
 20
164.75118258163411
 30
0.0
 11
897.39931222148687
 21
165.33848416893571
 31
0.0
  0
LINE
  5
68A
  8
0
 10
897.39931222148687
 20
165.33848416893571
 30
0.0
 11
897.25546301513782
 21
165.90148020068179
 31
0.0
  0
LINE
  5
68B
  8
0
 10
897.25546301513782
 20
165.90148020068179
 30
0.0
 11
896.8120106341853
 21
166.22638099433249
 31
0.0
  0
LINE
  5
68C
  8
0
 10
896.8120106341853
 20
166.22638099433249
 30
0.0
 11
897.15724872942349
 21
166.5438413117929
 31
0.0
  0
LINE
  5
68D
  8
0
 10
897.15724872942349
 20
166.5438413117929
 30
0.0
 11
897.27232809450288
 21
166.99622226417381
 31
0.0
  0
LINE
  5
68E
  8
0
 10
897.27232809450288
 20
166.99622226417381
 30
0.0
 11
897.118558253233
 21
167.55624210544369
 31
0.0
  0
LINE
  5
68F
  8
0
 10
897.118558253233
 20
167.55624210544369
 30
0.0
 11
896.67609793577265
 21
167.89602385147541
 31
0.0
  0
LINE
  5
690
  8
0
 10
896.67609793577265
 20
167.89602385147541
 30
0.0
 11
896.28076063418519
 21
167.9813413117929
 31
0.0
  0
LINE
  5
691
  8
0
 10
896.28076063418519
 20
167.9813413117929
 30
0.0
 11
895.54712968180434
 21
168.00713496258649
 31
0.0
  0
LINE
  5
692
  8
0
 10
895.54712968180434
 20
168.00713496258649
 30
0.0
 11
893.97074079291554
 21
168.00713496258649
 31
0.0
  0
LINE
  5
693
  8
0
 10
893.97074079291554
 20
168.00713496258649
 30
0.0
 11
893.97074079291554
 21
164.1976111530627
 31
0.0
  0
LINE
  5
694
  8
0
 10
895.17708999926492
 20
165.08650004195161
 30
0.0
 11
895.17708999926492
 21
165.78491274036429
 31
0.0
  0
LINE
  5
695
  8
0
 10
895.17708999926492
 20
165.78491274036429
 30
0.0
 11
895.72570111037589
 21
165.78491274036429
 31
0.0
  0
LINE
  5
696
  8
0
 10
895.72570111037589
 20
165.78491274036429
 30
0.0
 11
896.13492730085204
 21
165.7055476609992
 31
0.0
  0
LINE
  5
697
  8
0
 10
896.13492730085204
 20
165.7055476609992
 30
0.0
 11
896.25645507862976
 21
165.43868258163411
 31
0.0
  0
LINE
  5
698
  8
0
 10
896.25645507862976
 20
165.43868258163411
 30
0.0
 11
896.13740745958216
 21
165.1688413117929
 31
0.0
  0
LINE
  5
699
  8
0
 10
896.13740745958216
 20
165.1688413117929
 30
0.0
 11
895.73661380878855
 21
165.08650004195161
 31
0.0
  0
LINE
  5
69A
  8
0
 10
895.73661380878855
 20
165.08650004195161
 30
0.0
 11
895.17708999926492
 21
165.08650004195161
 31
0.0
  0
LINE
  5
69B
  8
0
 10
895.17708999926492
 20
166.483325438777
 30
0.0
 11
895.17708999926492
 21
167.11824607369761
 31
0.0
  0
LINE
  5
69C
  8
0
 10
895.17708999926492
 20
167.11824607369761
 30
0.0
 11
895.51141539609
 21
167.11824607369761
 31
0.0
  0
LINE
  5
69D
  8
0
 10
895.51141539609
 20
167.11824607369761
 30
0.0
 11
896.01984793577265
 21
167.0507857562373
 31
0.0
  0
LINE
  5
69E
  8
0
 10
896.01984793577265
 20
167.0507857562373
 30
0.0
 11
896.12947095164554
 21
166.8007857562373
 31
0.0
  0
LINE
  5
69F
  8
0
 10
896.12947095164554
 20
166.8007857562373
 30
0.0
 11
896.02728841196301
 21
166.55574607369761
 31
0.0
  0
LINE
  5
6A0
  8
0
 10
896.02728841196301
 20
166.55574607369761
 30
0.0
 11
895.6751058722806
 21
166.483325438777
 31
0.0
  0
LINE
  5
6A1
  8
0
 10
895.6751058722806
 20
166.483325438777
 30
0.0
 11
895.17708999926492
 21
166.483325438777
 31
0.0
  0
ARC
  5
6A2
  8
0
 10
899.83069858695626
 20
164.12500450375731
 30
0.0
 40
9.0000000000000213
 50
179.9999999999998
 51
359.99999999999881
  0
ARC
  5
6A3
  8
0
 10
899.83069858695626
 20
164.12500450375731
 30
0.0
 40
9.0000000000000053
 50
359.9999999999996
 51
179.9999999999998
  0
LINE
  5
6A4
  8
0
 10
829.9556985869624
 20
194.12500450375751
 30
0.0
 11
969.70569858695683
 21
194.12500450375751
 31
0.0
  0
LINE
  5
6A5
  8
0
 10
829.9556985869624
 20
100.00000450375769
 30
0.0
 11
829.9556985869624
 21
194.12500450375751
 31
0.0
  0
LINE
  5
6A6
  8
0
 10
969.70569858695683
 20
100.00000450375769
 30
0.0
 11
969.70569858695683
 21
194.12500450375751
 31
0.0
  0
LINE
  5
6A7
  8
0
 10
887.83069858695808
 20
6.0000045037577348
 30
0.0
 11
911.83069858695808
 21
6.0000045037584178
 31
0.0
  0
LINE
  5
6A8
  8
0
 10
887.8306985869558
 20
86.080200527385671
 30
0.0
 11
911.8306985869558
 21
86.080200527385912
 31
0.0
  0
LINE
  5
6A9
  8
0
 10
911.8306985869566
 20
4.0000045037577836
 30
0.0
 11
911.83069858695671
 21
98.375004503758362
 31
0.0
  0
LINE
  5
6AA
  8
0
 10
912.82318418770308
 20
98.375004503758362
 30
0.0
 11
912.82318418770285
 21
4.0000045037577836
 31
0.0
  0
LINE
  5
6AB
  8
0
 10
911.8306985869566
 20
4.0000045037577836
 30
0.0
 11
912.82318418770285
 21
4.0000045037577827
 31
0.0
  0
LINE
  5
6AC
  8
0
 10
912.82318418770308
 20
98.375004503758362
 30
0.0
 11
911.83069858695671
 21
98.375004503758362
 31
0.0
  0
LINE
  5
6AD
  8
0
 10
886.82792055812979
 20
4.0000045037578227
 30
0.0
 11
886.82792055813002
 21
98.375004503758404
 31
0.0
  0
LINE
  5
6AE
  8
0
 10
887.83069858695671
 20
98.375004503758404
 30
0.0
 11
887.83069858695649
 21
4.000004503757828
 31
0.0
  0
LINE
  5
6AF
  8
0
 10
886.82792055812979
 20
4.0000045037578227
 30
0.0
 11
887.83069858695649
 21
4.0000045037578218
 31
0.0
  0
LINE
  5
6B0
  8
0
 10
887.83069858695671
 20
98.375004503758404
 30
0.0
 11
886.82792055813002
 21
98.375004503758404
 31
0.0
  0
LINE
  5
6B1
  8
0
 10
929.83069858695808
 20
6.0000045037577348
 30
0.0
 11
953.83069858695808
 21
6.0000045037577348
 31
0.0
  0
LINE
  5
6B2
  8
0
 10
929.83069858695694
 20
86.080200527385514
 30
0.0
 11
953.83069858695671
 21
86.080200527385514
 31
0.0
  0
LINE
  5
6B3
  8
0
 10
928.83969824162796
 20
4.0000045037577632
 30
0.0
 11
928.83969824162796
 21
98.375004503758333
 31
0.0
  0
LINE
  5
6B4
  8
0
 10
929.83069858695671
 20
98.375004503758333
 30
0.0
 11
929.83069858695649
 21
4.0000045037577632
 31
0.0
  0
LINE
  5
6B5
  8
0
 10
928.83969824162796
 20
4.0000045037577632
 30
0.0
 11
929.83069858695649
 21
4.0000045037577632
 31
0.0
  0
LINE
  5
6B6
  8
0
 10
929.83069858695671
 20
98.375004503758333
 30
0.0
 11
928.83969824162796
 21
98.375004503758333
 31
0.0
  0
LINE
  5
6B7
  8
0
 10
953.83069858695649
 20
4.0000045037577223
 30
0.0
 11
953.83069858695671
 21
98.375004503758291
 31
0.0
  0
LINE
  5
6B8
  8
0
 10
954.8227139037258
 20
98.375004503758291
 30
0.0
 11
954.82271390372568
 21
4.0000045037577214
 31
0.0
  0
LINE
  5
6B9
  8
0
 10
954.82271390372568
 20
4.0000045037577214
 30
0.0
 11
953.83069858695649
 21
4.0000045037577223
 31
0.0
  0
LINE
  5
6BA
  8
0
 10
954.8227139037258
 20
98.375004503758291
 30
0.0
 11
953.83069858695671
 21
98.375004503758291
 31
0.0
  0
LINE
  5
6BB
  8
0
 10
845.83069858695831
 20
6.0000045037573919
 30
0.0
 11
869.83069858695671
 21
6.0000045037577348
 31
0.0
  0
LINE
  5
6BC
  8
0
 10
845.8306985869558
 20
86.080200527385244
 30
0.0
 11
869.83069858695569
 21
86.080200527385514
 31
0.0
  0
LINE
  5
6BD
  8
0
 10
869.83069858695637
 20
4.0000045037578484
 30
0.0
 11
869.83069858695671
 21
98.375004503758404
 31
0.0
  0
LINE
  5
6BE
  8
0
 10
870.83069858695671
 20
98.375004503758404
 30
0.0
 11
870.83069858695649
 21
4.0000045037578484
 31
0.0
  0
LINE
  5
6BF
  8
0
 10
869.83069858695637
 20
4.0000045037578484
 30
0.0
 11
870.83069858695649
 21
4.0000045037578484
 31
0.0
  0
LINE
  5
6C0
  8
0
 10
870.83069858695671
 20
98.375004503758404
 30
0.0
 11
869.83069858695671
 21
98.375004503758404
 31
0.0
  0
LINE
  5
6C1
  8
0
 10
844.83069858695637
 20
4.0000045037578911
 30
0.0
 11
844.83069858695671
 21
98.375004503758475
 31
0.0
  0
LINE
  5
6C2
  8
0
 10
845.83069858695671
 20
98.375004503758475
 30
0.0
 11
845.83069858695649
 21
4.0000045037578911
 31
0.0
  0
LINE
  5
6C3
  8
0
 10
844.83069858695637
 20
4.0000045037578911
 30
0.0
 11
845.83069858695649
 21
4.0000045037578911
 31
0.0
  0
LINE
  5
6C4
  8
0
 10
845.83069858695671
 20
98.375004503758475
 30
0.0
 11
844.83069858695671
 21
98.375004503758475
 31
0.0
  0
LINE
  5
6C5
  8
0
 10
831.58069858695615
 20
98.375004503759627
 30
0.0
 11
831.58069858695615
 21
4.0000045037577321
 31
0.0
  0
LINE
  5
6C6
  8
0
 10
831.58069858695615
 20
4.0000045037577321
 30
0.0
 11
844.83069858695546
 21
4.0000045037577321
 31
0.0
  0
LINE
  5
6C7
  8
0
 10
844.83069858695546
 20
4.0000045037577321
 30
0.0
 11
844.83069858695546
 21
98.375004503759627
 31
0.0
1001
ACAD
1000
ASC_BOUNDS
1002
{
1070
    19
1005
A74
1002
}
  0
LINE
  5
6C8
  8
0
 10
844.83069858695546
 20
98.375004503759627
 30
0.0
 11
831.58069858695615
 21
98.375004503759627
 31
0.0
  0
LINE
  5
6C9
  8
0
 10
886.82792055812945
 20
98.375004503758404
 30
0.0
 11
870.83069858695637
 21
98.375004503758404
 31
0.0
  0
LINE
  5
6CA
  8
0
 10
870.83069858695637
 20
98.375004503758404
 30
0.0
 11
870.83069858695637
 21
4.0000045037578484
 31
0.0
1001
ACAD
1000
ASC_BOUNDS
1002
{
1070
    19
1005
A74
1002
}
  0
LINE
  5
6CB
  8
0
 10
870.83069858695637
 20
4.0000045037578484
 30
0.0
 11
886.82792055812945
 21
4.0000045037578484
 31
0.0
  0
LINE
  5
6CC
  8
0
 10
886.82792055812945
 20
4.0000045037578484
 30
0.0
 11
886.82792055812945
 21
98.375004503758404
 31
0.0
1001
ACAD
1000
ASC_BOUNDS
1002
{
1070
    19
1005
A74
1002
}
  0
LINE
  5
6CD
  8
0
 10
968.08069858695637
 20
98.375004503758404
 30
0.0
 11
954.82271390372546
 21
98.375004503758404
 31
0.0
  0
LINE
  5
6CE
  8
0
 10
954.82271390372546
 20
98.375004503758404
 30
0.0
 11
954.82271390372546
 21
4.0000045037578484
 31
0.0
1001
ACAD
1000
ASC_BOUNDS
1002
{
1070
    19
1005
A74
1002
}
  0
LINE
  5
6CF
  8
0
 10
954.82271390372546
 20
4.0000045037578484
 30
0.0
 11
968.08069858695637
 21
4.0000045037578484
 31
0.0
  0
LINE
  5
6D0
  8
0
 10
968.08069858695637
 20
4.0000045037578484
 30
0.0
 11
968.08069858695637
 21
98.375004503758404
 31
0.0
  0
LINE
  5
6D1
  8
0
 10
928.83969824162762
 20
98.375004503758404
 30
0.0
 11
912.82318418770285
 21
98.375004503758404
 31
0.0
  0
LINE
  5
6D2
  8
0
 10
912.82318418770285
 20
98.375004503758404
 30
0.0
 11
912.82318418770285
 21
4.0000045037578484
 31
0.0
1001
ACAD
1000
ASC_BOUNDS
1002
{
1070
    19
1005
A74
1002
}
  0
LINE
  5
6D3
  8
0
 10
912.82318418770285
 20
4.0000045037578484
 30
0.0
 11
928.83969824162762
 21
4.0000045037578484
 31
0.0
  0
LINE
  5
6D4
  8
0
 10
928.83969824162762
 20
4.0000045037578484
 30
0.0
 11
928.83969824162762
 21
98.375004503758404
 31
0.0
1001
ACAD
1000
ASC_BOUNDS
1002
{
1070
    19
1005
A74
1002
}
  0
LINE
  5
6D5
  8
0
 10
829.95569858695728
 20
100.00000450375769
 30
0.0
 11
969.70569858695717
 21
100.00000450375769
 31
0.0
  0
LINE
  5
6D6
  8
0
 10
969.70569858695717
 20
0.0000045037577365
 30
0.0
 11
829.95569858695728
 21
0.0000045037577365
 31
0.0
  0
LINE
  5
6D7
  8
0
 10
829.95569858695728
 20
0.0000045037577365
 30
0.0
 11
829.95569858695728
 21
100.00000450375769
 31
0.0
  0
LINE
  5
6D8
  8
0
 10
831.58069858695694
 20
4.0000045037565908
 30
0.0
 11
831.58069858695603
 21
98.375004503757125
 31
0.0
1001
ACAD
1000
ASC_BOUNDS
1002
{
1070
    19
1005
A74
1002
}
  0
LINE
  5
6D9
  8
0
 10
831.58069858695603
 20
98.375004503757125
 30
0.0
 11
968.08069858695603
 21
98.375004503758575
 31
0.0
1001
ACAD
1000
ASC_BOUNDS
1002
{
1070
    19
1005
A74
1005
A74
1005
A74
1005
A74
1002
}
  0
LINE
  5
6DA
  8
0
 10
968.08069858695603
 20
98.375004503758575
 30
0.0
 11
968.08069858695694
 21
4.0000045037579977
 31
0.0
1001
ACAD
1000
ASC_BOUNDS
1002
{
1070
    19
1005
A74
1002
}
  0
LINE
  5
6DB
  8
0
 10
968.08069858695694
 20
4.000004503758019
 30
0.0
 11
831.58069858695694
 21
4.0000045037566121
 31
0.0
1001
ACAD
1000
ASC_BOUNDS
1002
{
1070
    19
1005
A74
1005
A74
1005
A74
1005
A74
1002
}
  0
LINE
  5
6DC
  8
0
 10
969.70569858695717
 20
0.0000045037577365
 30
0.0
 11
969.70569858695717
 21
100.00000450375769
 31
0.0
  0
ARC
  5
6DD
  8
0
 10
1040.5806985869519
 20
164.12500450375649
 30
0.0
 40
8.2500000000000089
 50
179.9999999999998
 51
359.99999999999881
  0
ARC
  5
6DE
  8
0
 10
1040.5806985869519
 20
164.12500450375649
 30
0.0
 40
8.25
 50
0.0
 51
179.9999999999998
  0
ARC
  5
6DF
  8
0
 10
1040.5806985869519
 20
164.12500450375649
 30
0.0
 40
7.6874999999999831
 50
0.0000000000009669
 51
180.0000000000002
  0
ARC
  5
6E0
  8
0
 10
1040.5806985869519
 20
164.12500450375649
 30
0.0
 40
7.6875
 50
179.99999999999969
 51
0.0
  0
LINE
  5
6E1
  8
0
 10
1045.7031993609401
 20
161.68314865495921
 30
0.0
 11
1045.508258884749
 21
161.23423992480039
 31
0.0
  0
LINE
  5
6E2
  8
0
 10
1045.508258884749
 20
161.23423992480039
 30
0.0
 11
1045.0573660276059
 21
161.0769978613084
 31
0.0
  0
LINE
  5
6E3
  8
0
 10
1045.0573660276059
 20
161.0769978613084
 30
0.0
 11
1044.7328372577649
 21
161.14123397241951
 31
0.0
  0
LINE
  5
6E4
  8
0
 10
1044.7328372577649
 20
161.14123397241951
 30
0.0
 11
1044.4973461863369
 21
161.3339423057528
 31
0.0
  0
LINE
  5
6E5
  8
0
 10
1044.4973461863369
 20
161.3339423057528
 30
0.0
 11
1044.3063739641141
 21
162.09187881368931
 31
0.0
  0
LINE
  5
6E6
  8
0
 10
1044.3063739641141
 20
162.09187881368931
 30
0.0
 11
1044.4904017418919
 21
162.85576770257819
 31
0.0
  0
LINE
  5
6E7
  8
0
 10
1044.4904017418919
 20
162.85576770257819
 30
0.0
 11
1044.7201884482411
 21
163.0454998454353
 31
0.0
  0
LINE
  5
6E8
  8
0
 10
1044.7201884482411
 20
163.0454998454353
 30
0.0
 11
1045.0414930117331
 21
163.1087438930544
 31
0.0
  0
LINE
  5
6E9
  8
0
 10
1045.0414930117331
 20
163.1087438930544
 30
0.0
 11
1045.5097469799871
 21
162.9653907184512
 31
0.0
  0
LINE
  5
6EA
  8
0
 10
1045.5097469799871
 20
162.9653907184512
 30
0.0
 11
1045.7031993609401
 21
162.54029151210199
 31
0.0
  0
LINE
  5
6EB
  8
0
 10
1045.7031993609401
 20
162.54029151210199
 30
0.0
 11
1046.8460565037969
 21
162.54029151210199
 31
0.0
  0
LINE
  5
6EC
  8
0
 10
1046.8460565037969
 20
162.54029151210199
 30
0.0
 11
1046.6858382498281
 21
163.18798496448301
 31
0.0
  0
LINE
  5
6ED
  8
0
 10
1046.6858382498281
 20
163.18798496448301
 30
0.0
 11
1046.3182787260189
 21
163.66677960734009
 31
0.0
  0
LINE
  5
6EE
  8
0
 10
1046.3182787260189
 20
163.66677960734009
 30
0.0
 11
1045.7592509482411
 21
163.96253853591159
 31
0.0
  0
LINE
  5
6EF
  8
0
 10
1045.7592509482411
 20
163.96253853591159
 30
0.0
 11
1045.024627932368
 21
164.06112484543539
 31
0.0
  0
LINE
  5
6F0
  8
0
 10
1045.024627932368
 20
164.06112484543539
 30
0.0
 11
1044.2266368609401
 21
163.9291804009909
 31
0.0
  0
LINE
  5
6F1
  8
0
 10
1044.2266368609401
 20
163.9291804009909
 30
0.0
 11
1043.616393805384
 21
163.53334706765759
 31
0.0
  0
LINE
  5
6F2
  8
0
 10
1043.616393805384
 20
163.53334706765759
 30
0.0
 11
1043.22911701967
 21
162.90933913114961
 31
0.0
  0
LINE
  5
6F3
  8
0
 10
1043.22911701967
 20
162.90933913114961
 30
0.0
 11
1043.1000247577649
 21
162.09287087718141
 31
0.0
  0
LINE
  5
6F4
  8
0
 10
1043.1000247577649
 20
162.09287087718141
 30
0.0
 11
1043.2297370593519
 21
161.27454250416551
 31
0.0
  0
LINE
  5
6F5
  8
0
 10
1043.2297370593519
 20
161.27454250416551
 30
0.0
 11
1043.6188739641141
 21
160.65090659146711
 31
0.0
  0
LINE
  5
6F6
  8
0
 10
1043.6188739641141
 20
160.65090659146711
 30
0.0
 11
1044.234201345067
 21
160.25618932956229
 31
0.0
  0
LINE
  5
6F7
  8
0
 10
1044.234201345067
 20
160.25618932956229
 30
0.0
 11
1045.0424850752249
 21
160.12461690892741
 31
0.0
  0
LINE
  5
6F8
  8
0
 10
1045.0424850752249
 20
160.12461690892741
 30
0.0
 11
1045.765575353003
 21
160.22679944861
 31
0.0
  0
LINE
  5
6F9
  8
0
 10
1045.765575353003
 20
160.22679944861
 30
0.0
 11
1046.3217509482411
 21
160.53334706765759
 31
0.0
  0
LINE
  5
6FA
  8
0
 10
1046.3217509482411
 20
160.53334706765759
 30
0.0
 11
1046.6891864641141
 21
161.0251625438481
 31
0.0
  0
LINE
  5
6FB
  8
0
 10
1046.6891864641141
 20
161.0251625438481
 30
0.0
 11
1046.8460565037969
 21
161.68314865495921
 31
0.0
  0
LINE
  5
6FC
  8
0
 10
1046.8460565037969
 20
161.68314865495921
 30
0.0
 11
1045.7031993609401
 21
161.68314865495921
 31
0.0
  0
LINE
  5
6FD
  8
0
 10
1038.481471983172
 20
162.45722284388239
 30
0.0
 11
1039.6590513482511
 21
162.45722284388239
 31
0.0
  0
LINE
  5
6FE
  8
0
 10
1039.6590513482511
 20
162.45722284388239
 30
0.0
 11
1039.8058767450771
 21
162.9651593518189
 31
0.0
  0
LINE
  5
6FF
  8
0
 10
1039.8058767450771
 20
162.9651593518189
 30
0.0
 11
1041.0092497609501
 21
162.9651593518189
 31
0.0
  0
LINE
  5
700
  8
0
 10
1041.0092497609501
 20
162.9651593518189
 30
0.0
 11
1041.1511148403149
 21
162.45722284388239
 31
0.0
  0
LINE
  5
701
  8
0
 10
1041.1511148403149
 20
162.45722284388239
 30
0.0
 11
1042.3544878561879
 21
162.45722284388239
 31
0.0
  0
LINE
  5
702
  8
0
 10
1042.3544878561879
 20
162.45722284388239
 30
0.0
 11
1041.0251227768231
 21
166.26674665340619
 31
0.0
  0
LINE
  5
703
  8
0
 10
1041.0251227768231
 20
166.26674665340619
 30
0.0
 11
1039.7959561101561
 21
166.26674665340619
 31
0.0
  0
LINE
  5
704
  8
0
 10
1039.7959561101561
 20
166.26674665340619
 30
0.0
 11
1038.481471983172
 21
162.45722284388239
 31
0.0
  0
LINE
  5
705
  8
0
 10
1040.0261148403149
 20
163.79055617721571
 30
0.0
 11
1040.412027538727
 21
165.09412760578709
 31
0.0
  0
LINE
  5
706
  8
0
 10
1040.412027538727
 20
165.09412760578709
 30
0.0
 11
1040.789011665712
 21
163.79055617721571
 31
0.0
  0
LINE
  5
707
  8
0
 10
1040.789011665712
 20
163.79055617721571
 30
0.0
 11
1040.0261148403149
 21
163.79055617721571
 31
0.0
  0
LINE
  5
708
  8
0
 10
1034.7207407929111
 20
164.19761115306261
 30
0.0
 11
1036.420145554815
 21
164.19761115306261
 31
0.0
  0
LINE
  5
709
  8
0
 10
1036.420145554815
 20
164.19761115306261
 30
0.0
 11
1037.1880026976719
 21
164.23630162925309
 31
0.0
  0
LINE
  5
70A
  8
0
 10
1037.1880026976719
 20
164.23630162925309
 30
0.0
 11
1037.6007011103709
 21
164.36824607369749
 31
0.0
  0
LINE
  5
70B
  8
0
 10
1037.6007011103709
 20
164.36824607369749
 30
0.0
 11
1038.008935237355
 21
164.75118258163411
 31
0.0
  0
LINE
  5
70C
  8
0
 10
1038.008935237355
 20
164.75118258163411
 30
0.0
 11
1038.149312221482
 21
165.33848416893571
 31
0.0
  0
LINE
  5
70D
  8
0
 10
1038.149312221482
 20
165.33848416893571
 30
0.0
 11
1038.005463015133
 21
165.9014802006817
 31
0.0
  0
LINE
  5
70E
  8
0
 10
1038.005463015133
 20
165.9014802006817
 30
0.0
 11
1037.5620106341801
 21
166.22638099433249
 31
0.0
  0
LINE
  5
70F
  8
0
 10
1037.5620106341801
 20
166.22638099433249
 30
0.0
 11
1037.9072487294179
 21
166.54384131179279
 31
0.0
  0
LINE
  5
710
  8
0
 10
1037.9072487294179
 20
166.54384131179279
 30
0.0
 11
1038.0223280944981
 21
166.99622226417381
 31
0.0
  0
LINE
  5
711
  8
0
 10
1038.0223280944981
 20
166.99622226417381
 30
0.0
 11
1037.868558253228
 21
167.5562421054436
 31
0.0
  0
LINE
  5
712
  8
0
 10
1037.868558253228
 20
167.5562421054436
 30
0.0
 11
1037.4260979357671
 21
167.89602385147529
 31
0.0
  0
LINE
  5
713
  8
0
 10
1037.4260979357671
 20
167.89602385147529
 30
0.0
 11
1037.0307606341801
 21
167.98134131179279
 31
0.0
  0
LINE
  5
714
  8
0
 10
1037.0307606341801
 20
167.98134131179279
 30
0.0
 11
1036.2971296817991
 21
168.00713496258649
 31
0.0
  0
LINE
  5
715
  8
0
 10
1036.2971296817991
 20
168.00713496258649
 30
0.0
 11
1034.7207407929111
 21
168.00713496258649
 31
0.0
  0
LINE
  5
716
  8
0
 10
1034.7207407929111
 20
168.00713496258649
 30
0.0
 11
1034.7207407929111
 21
164.19761115306261
 31
0.0
  0
LINE
  5
717
  8
0
 10
1035.92708999926
 20
165.0865000419515
 30
0.0
 11
1035.92708999926
 21
165.78491274036421
 31
0.0
  0
LINE
  5
718
  8
0
 10
1035.92708999926
 20
165.78491274036421
 30
0.0
 11
1036.4757011103709
 21
165.78491274036421
 31
0.0
  0
LINE
  5
719
  8
0
 10
1036.4757011103709
 20
165.78491274036421
 30
0.0
 11
1036.884927300847
 21
165.70554766099909
 31
0.0
  0
LINE
  5
71A
  8
0
 10
1036.884927300847
 20
165.70554766099909
 30
0.0
 11
1037.0064550786251
 21
165.438682581634
 31
0.0
  0
LINE
  5
71B
  8
0
 10
1037.0064550786251
 20
165.438682581634
 30
0.0
 11
1036.8874074595769
 21
165.16884131179279
 31
0.0
  0
LINE
  5
71C
  8
0
 10
1036.8874074595769
 20
165.16884131179279
 30
0.0
 11
1036.4866138087841
 21
165.0865000419515
 31
0.0
  0
LINE
  5
71D
  8
0
 10
1036.4866138087841
 20
165.0865000419515
 30
0.0
 11
1035.92708999926
 21
165.0865000419515
 31
0.0
  0
LINE
  5
71E
  8
0
 10
1035.92708999926
 20
166.48332543877689
 30
0.0
 11
1035.92708999926
 21
167.11824607369761
 31
0.0
  0
LINE
  5
71F
  8
0
 10
1035.92708999926
 20
167.11824607369761
 30
0.0
 11
1036.2614153960851
 21
167.11824607369761
 31
0.0
  0
LINE
  5
720
  8
0
 10
1036.2614153960851
 20
167.11824607369761
 30
0.0
 11
1036.769847935768
 21
167.05078575623719
 31
0.0
  0
LINE
  5
721
  8
0
 10
1036.769847935768
 20
167.05078575623719
 30
0.0
 11
1036.879470951641
 21
166.80078575623719
 31
0.0
  0
LINE
  5
722
  8
0
 10
1036.879470951641
 20
166.80078575623719
 30
0.0
 11
1036.7772884119579
 21
166.55574607369761
 31
0.0
  0
LINE
  5
723
  8
0
 10
1036.7772884119579
 20
166.55574607369761
 30
0.0
 11
1036.425105872275
 21
166.48332543877689
 31
0.0
  0
LINE
  5
724
  8
0
 10
1036.425105872275
 20
166.48332543877689
 30
0.0
 11
1035.92708999926
 21
166.48332543877689
 31
0.0
  0
ARC
  5
725
  8
0
 10
1040.5806985869519
 20
164.1250045037572
 30
0.0
 40
9.0000000000000124
 50
179.9999999999998
 51
359.99999999999881
  0
ARC
  5
726
  8
0
 10
1040.5806985869519
 20
164.1250045037572
 30
0.0
 40
9.0000000000000124
 50
359.99999999999949
 51
179.9999999999998
  0
LINE
  5
727
  8
0
 10
689.20569858695956
 20
194.12500450375751
 30
0.0
 11
828.95569858695376
 21
194.12500450375751
 31
0.0
  0
LINE
  5
728
  8
0
 10
689.20569858695956
 20
100.00000450375769
 30
0.0
 11
689.20569858695956
 21
194.12500450375751
 31
0.0
  0
LINE
  5
729
  8
0
 10
828.95569858695387
 20
100.00000450375769
 30
0.0
 11
828.95569858695387
 21
194.12500450375751
 31
0.0
  0
LINE
  5
72A
  8
0
 10
747.08069858695455
 20
6.0000045037577348
 30
0.0
 11
771.08069858695455
 21
6.0000045037584178
 31
0.0
  0
LINE
  5
72B
  8
0
 10
747.08069858695319
 20
86.080200527385671
 30
0.0
 11
771.08069858695319
 21
86.080200527385912
 31
0.0
  0
LINE
  5
72C
  8
0
 10
771.08069858695376
 20
4.0000045037577836
 30
0.0
 11
771.08069858695387
 21
98.375004503758362
 31
0.0
  0
LINE
  5
72D
  8
0
 10
772.07318418770046
 20
98.375004503758362
 30
0.0
 11
772.07318418770035
 21
4.0000045037577836
 31
0.0
  0
LINE
  5
72E
  8
0
 10
771.08069858695376
 20
4.0000045037577836
 30
0.0
 11
772.07318418770035
 21
4.0000045037577827
 31
0.0
  0
LINE
  5
72F
  8
0
 10
772.07318418770046
 20
98.375004503758362
 30
0.0
 11
771.08069858695387
 21
98.375004503758362
 31
0.0
  0
LINE
  5
730
  8
0
 10
746.07792055812706
 20
4.0000045037578227
 30
0.0
 11
746.07792055812729
 21
98.375004503758404
 31
0.0
  0
LINE
  5
731
  8
0
 10
747.08069858695399
 20
98.375004503758404
 30
0.0
 11
747.08069858695376
 21
4.000004503757828
 31
0.0
  0
LINE
  5
732
  8
0
 10
746.07792055812706
 20
4.0000045037578227
 30
0.0
 11
747.08069858695376
 21
4.0000045037578218
 31
0.0
  0
LINE
  5
733
  8
0
 10
747.08069858695399
 20
98.375004503758404
 30
0.0
 11
746.07792055812729
 21
98.375004503758404
 31
0.0
  0
LINE
  5
734
  8
0
 10
789.08069858695455
 20
6.0000045037577348
 30
0.0
 11
813.08069858695467
 21
6.0000045037577348
 31
0.0
  0
LINE
  5
735
  8
0
 10
789.0806985869541
 20
86.080200527385514
 30
0.0
 11
813.08069858695421
 21
86.080200527385514
 31
0.0
  0
LINE
  5
736
  8
0
 10
788.08969824162523
 20
4.0000045037577632
 30
0.0
 11
788.08969824162546
 21
98.375004503758333
 31
0.0
  0
LINE
  5
737
  8
0
 10
789.0806985869541
 20
98.375004503758333
 30
0.0
 11
789.08069858695387
 21
4.0000045037577632
 31
0.0
  0
LINE
  5
738
  8
0
 10
788.08969824162523
 20
4.0000045037577632
 30
0.0
 11
789.08069858695387
 21
4.0000045037577632
 31
0.0
  0
LINE
  5
739
  8
0
 10
789.0806985869541
 20
98.375004503758333
 30
0.0
 11
788.08969824162546
 21
98.375004503758333
 31
0.0
  0
LINE
  5
73A
  8
0
 10
813.08069858695376
 20
4.0000045037577223
 30
0.0
 11
813.08069858695399
 21
98.375004503758291
 31
0.0
  0
LINE
  5
73B
  8
0
 10
814.07271390372307
 20
98.375004503758291
 30
0.0
 11
814.07271390372307
 21
4.0000045037577214
 31
0.0
  0
LINE
  5
73C
  8
0
 10
814.07271390372307
 20
4.0000045037577214
 30
0.0
 11
813.08069858695376
 21
4.0000045037577223
 31
0.0
  0
LINE
  5
73D
  8
0
 10
814.07271390372307
 20
98.375004503758291
 30
0.0
 11
813.08069858695399
 21
98.375004503758291
 31
0.0
  0
LINE
  5
73E
  8
0
 10
705.08069858695592
 20
6.0000045037573919
 30
0.0
 11
729.08069858695455
 21
6.0000045037577348
 31
0.0
  0
LINE
  5
73F
  8
0
 10
705.08069858695296
 20
86.080200527385244
 30
0.0
 11
729.08069858695296
 21
86.080200527385514
 31
0.0
  0
LINE
  5
740
  8
0
 10
729.08069858695376
 20
4.0000045037578484
 30
0.0
 11
729.08069858695387
 21
98.375004503758404
 31
0.0
  0
LINE
  5
741
  8
0
 10
730.08069858695399
 20
98.375004503758404
 30
0.0
 11
730.08069858695376
 21
4.0000045037578484
 31
0.0
  0
LINE
  5
742
  8
0
 10
729.08069858695376
 20
4.0000045037578484
 30
0.0
 11
730.08069858695376
 21
4.0000045037578484
 31
0.0
  0
LINE
  5
743
  8
0
 10
730.08069858695399
 20
98.375004503758404
 30
0.0
 11
729.08069858695387
 21
98.375004503758404
 31
0.0
  0
LINE
  5
744
  8
0
 10
704.08069858695376
 20
4.0000045037578911
 30
0.0
 11
704.08069858695387
 21
98.375004503758475
 31
0.0
  0
LINE
  5
745
  8
0
 10
705.08069858695399
 20
98.375004503758475
 30
0.0
 11
705.08069858695364
 21
4.0000045037578911
 31
0.0
  0
LINE
  5
746
  8
0
 10
704.08069858695376
 20
4.0000045037578911
 30
0.0
 11
705.08069858695376
 21
4.0000045037578911
 31
0.0
  0
LINE
  5
747
  8
0
 10
705.08069858695399
 20
98.375004503758475
 30
0.0
 11
704.08069858695387
 21
98.375004503758475
 31
0.0
  0
LINE
  5
748
  8
0
 10
690.83069858695364
 20
98.375004503759627
 30
0.0
 11
690.83069858695364
 21
4.0000045037577321
 31
0.0
  0
LINE
  5
749
  8
0
 10
690.83069858695364
 20
4.0000045037577321
 30
0.0
 11
704.08069858695274
 21
4.0000045037577321
 31
0.0
  0
LINE
  5
74A
  8
0
 10
704.08069858695274
 20
4.0000045037577321
 30
0.0
 11
704.08069858695274
 21
98.375004503759627
 31
0.0
1001
ACAD
1000
ASC_BOUNDS
1002
{
1070
    19
1005
A74
1002
}
  0
LINE
  5
74B
  8
0
 10
704.08069858695274
 20
98.375004503759627
 30
0.0
 11
690.83069858695364
 21
98.375004503759627
 31
0.0
  0
LINE
  5
74C
  8
0
 10
746.07792055812695
 20
98.375004503758404
 30
0.0
 11
730.08069858695364
 21
98.375004503758404
 31
0.0
  0
LINE
  5
74D
  8
0
 10
730.08069858695364
 20
98.375004503758404
 30
0.0
 11
730.08069858695364
 21
4.0000045037578484
 31
0.0
1001
ACAD
1000
ASC_BOUNDS
1002
{
1070
    19
1005
A74
1002
}
  0
LINE
  5
74E
  8
0
 10
730.08069858695364
 20
4.0000045037578484
 30
0.0
 11
746.07792055812695
 21
4.0000045037578484
 31
0.0
  0
LINE
  5
74F
  8
0
 10
746.07792055812695
 20
4.0000045037578484
 30
0.0
 11
746.07792055812695
 21
98.375004503758404
 31
0.0
1001
ACAD
1000
ASC_BOUNDS
1002
{
1070
    19
1005
A74
1002
}
  0
LINE
  5
750
  8
0
 10
827.33069858695364
 20
98.375004503758404
 30
0.0
 11
814.07271390372273
 21
98.375004503758404
 31
0.0
  0
LINE
  5
751
  8
0
 10
814.07271390372273
 20
98.375004503758404
 30
0.0
 11
814.07271390372273
 21
4.0000045037578484
 31
0.0
1001
ACAD
1000
ASC_BOUNDS
1002
{
1070
    19
1005
A74
1002
}
  0
LINE
  5
752
  8
0
 10
814.07271390372273
 20
4.0000045037578484
 30
0.0
 11
827.33069858695364
 21
4.0000045037578484
 31
0.0
  0
LINE
  5
753
  8
0
 10
827.33069858695364
 20
4.0000045037578484
 30
0.0
 11
827.33069858695364
 21
98.375004503758404
 31
0.0
  0
LINE
  5
754
  8
0
 10
788.089698241625
 20
98.375004503758404
 30
0.0
 11
772.07318418770012
 21
98.375004503758404
 31
0.0
  0
LINE
  5
755
  8
0
 10
772.07318418770012
 20
98.375004503758404
 30
0.0
 11
772.07318418770012
 21
4.0000045037578484
 31
0.0
1001
ACAD
1000
ASC_BOUNDS
1002
{
1070
    19
1005
A74
1002
}
  0
LINE
  5
756
  8
0
 10
772.07318418770012
 20
4.0000045037578484
 30
0.0
 11
788.089698241625
 21
4.0000045037578484
 31
0.0
  0
LINE
  5
757
  8
0
 10
788.089698241625
 20
4.0000045037578484
 30
0.0
 11
788.089698241625
 21
98.375004503758404
 31
0.0
1001
ACAD
1000
ASC_BOUNDS
1002
{
1070
    19
1005
A74
1002
}
  0
LINE
  5
758
  8
0
 10
689.20569858695421
 20
100.00000450375769
 30
0.0
 11
828.9556985869541
 21
100.00000450375769
 31
0.0
  0
LINE
  5
759
  8
0
 10
828.9556985869541
 20
0.0000045037577365
 30
0.0
 11
689.20569858695421
 21
0.0000045037577365
 31
0.0
  0
LINE
  5
75A
  8
0
 10
689.20569858695421
 20
0.0000045037577365
 30
0.0
 11
689.20569858695421
 21
100.00000450375769
 31
0.0
  0
LINE
  5
75B
  8
0
 10
690.83069858695399
 20
4.0000045037565908
 30
0.0
 11
690.83069858695285
 21
98.375004503757125
 31
0.0
1001
ACAD
1000
ASC_BOUNDS
1002
{
1070
    19
1005
A74
1002
}
  0
LINE
  5
75C
  8
0
 10
690.83069858695285
 20
98.375004503757125
 30
0.0
 11
827.33069858695285
 21
98.375004503758575
 31
0.0
1001
ACAD
1000
ASC_BOUNDS
1002
{
1070
    19
1005
A74
1005
A74
1005
A74
1005
A74
1002
}
  0
LINE
  5
75D
  8
0
 10
827.33069858695285
 20
98.375004503758575
 30
0.0
 11
827.33069858695399
 21
4.0000045037579977
 31
0.0
1001
ACAD
1000
ASC_BOUNDS
1002
{
1070
    19
1005
A74
1002
}
  0
LINE
  5
75E
  8
0
 10
827.33069858695399
 20
4.000004503758019
 30
0.0
 11
690.83069858695399
 21
4.0000045037566121
 31
0.0
1001
ACAD
1000
ASC_BOUNDS
1002
{
1070
    19
1005
A74
1005
A74
1005
A74
1005
A74
1002
}
  0
LINE
  5
75F
  8
0
 10
828.9556985869541
 20
0.0000045037577365
 30
0.0
 11
828.9556985869541
 21
100.00000450375769
 31
0.0
  0
LINE
  5
760
  8
0
 10
970.70569858695956
 20
194.12500450375751
 30
0.0
 11
1110.455698586954
 21
194.12500450375751
 31
0.0
  0
LINE
  5
761
  8
0
 10
970.70569858695956
 20
100.00000450375769
 30
0.0
 11
970.70569858695956
 21
194.12500450375751
 31
0.0
  0
LINE
  5
762
  8
0
 10
1110.455698586954
 20
100.00000450375769
 30
0.0
 11
1110.455698586954
 21
194.12500450375751
 31
0.0
  0
LINE
  5
763
  8
0
 10
1028.5806985869549
 20
6.0000045037577348
 30
0.0
 11
1052.5806985869549
 21
6.0000045037584178
 31
0.0
  0
LINE
  5
764
  8
0
 10
1028.5806985869531
 20
86.080200527385671
 30
0.0
 11
1052.5806985869531
 21
86.080200527385912
 31
0.0
  0
LINE
  5
765
  8
0
 10
1052.580698586954
 20
4.0000045037577836
 30
0.0
 11
1052.580698586954
 21
98.375004503758362
 31
0.0
  0
LINE
  5
766
  8
0
 10
1053.5731841877
 20
98.375004503758362
 30
0.0
 11
1053.5731841877
 21
4.0000045037577836
 31
0.0
  0
LINE
  5
767
  8
0
 10
1052.580698586954
 20
4.0000045037577836
 30
0.0
 11
1053.5731841877
 21
4.0000045037577827
 31
0.0
  0
LINE
  5
768
  8
0
 10
1053.5731841877
 20
98.375004503758362
 30
0.0
 11
1052.580698586954
 21
98.375004503758362
 31
0.0
  0
LINE
  5
769
  8
0
 10
1027.5779205581271
 20
4.0000045037578227
 30
0.0
 11
1027.5779205581271
 21
98.375004503758404
 31
0.0
  0
LINE
  5
76A
  8
0
 10
1028.580698586954
 20
98.375004503758404
 30
0.0
 11
1028.580698586954
 21
4.000004503757828
 31
0.0
  0
LINE
  5
76B
  8
0
 10
1027.5779205581271
 20
4.0000045037578227
 30
0.0
 11
1028.580698586954
 21
4.0000045037578218
 31
0.0
  0
LINE
  5
76C
  8
0
 10
1028.580698586954
 20
98.375004503758404
 30
0.0
 11
1027.5779205581271
 21
98.375004503758404
 31
0.0
  0
LINE
  5
76D
  8
0
 10
1070.5806985869549
 20
6.0000045037577348
 30
0.0
 11
1094.580698586956
 21
6.0000045037577348
 31
0.0
  0
LINE
  5
76E
  8
0
 10
1070.580698586954
 20
86.080200527385514
 30
0.0
 11
1094.580698586954
 21
86.080200527385514
 31
0.0
  0
LINE
  5
76F
  8
0
 10
1069.589698241625
 20
4.0000045037577632
 30
0.0
 11
1069.589698241625
 21
98.375004503758333
 31
0.0
  0
LINE
  5
770
  8
0
 10
1070.580698586954
 20
98.375004503758333
 30
0.0
 11
1070.580698586954
 21
4.0000045037577632
 31
0.0
  0
LINE
  5
771
  8
0
 10
1069.589698241625
 20
4.0000045037577632
 30
0.0
 11
1070.580698586954
 21
4.0000045037577632
 31
0.0
  0
LINE
  5
772
  8
0
 10
1070.580698586954
 20
98.375004503758333
 30
0.0
 11
1069.589698241625
 21
98.375004503758333
 31
0.0
  0
LINE
  5
773
  8
0
 10
1094.580698586954
 20
4.0000045037577223
 30
0.0
 11
1094.580698586954
 21
98.375004503758291
 31
0.0
  0
LINE
  5
774
  8
0
 10
1095.5727139037231
 20
98.375004503758291
 30
0.0
 11
1095.5727139037231
 21
4.0000045037577214
 31
0.0
  0
LINE
  5
775
  8
0
 10
1095.5727139037231
 20
4.0000045037577214
 30
0.0
 11
1094.580698586954
 21
4.0000045037577223
 31
0.0
  0
LINE
  5
776
  8
0
 10
1095.5727139037231
 20
98.375004503758291
 30
0.0
 11
1094.580698586954
 21
98.375004503758291
 31
0.0
  0
LINE
  5
777
  8
0
 10
986.58069858695501
 20
6.0000045037573919
 30
0.0
 11
1010.580698586955
 21
6.0000045037577348
 31
0.0
  0
LINE
  5
778
  8
0
 10
986.58069858695296
 20
86.080200527385244
 30
0.0
 11
1010.580698586953
 21
86.080200527385514
 31
0.0
  0
LINE
  5
779
  8
0
 10
1010.580698586954
 20
4.0000045037578484
 30
0.0
 11
1010.580698586954
 21
98.375004503758404
 31
0.0
  0
LINE
  5
77A
  8
0
 10
1011.580698586954
 20
98.375004503758404
 30
0.0
 11
1011.580698586953
 21
4.0000045037578484
 31
0.0
  0
LINE
  5
77B
  8
0
 10
1010.580698586954
 20
4.0000045037578484
 30
0.0
 11
1011.580698586953
 21
4.0000045037578484
 31
0.0
  0
LINE
  5
77C
  8
0
 10
1011.580698586954
 20
98.375004503758404
 30
0.0
 11
1010.580698586954
 21
98.375004503758404
 31
0.0
  0
LINE
  5
77D
  8
0
 10
985.58069858695376
 20
4.0000045037578911
 30
0.0
 11
985.58069858695399
 21
98.375004503758475
 31
0.0
  0
LINE
  5
77E
  8
0
 10
986.58069858695387
 20
98.375004503758475
 30
0.0
 11
986.58069858695376
 21
4.0000045037578911
 31
0.0
  0
LINE
  5
77F
  8
0
 10
985.58069858695376
 20
4.0000045037578911
 30
0.0
 11
986.58069858695376
 21
4.0000045037578911
 31
0.0
  0
LINE
  5
780
  8
0
 10
986.58069858695387
 20
98.375004503758475
 30
0.0
 11
985.58069858695399
 21
98.375004503758475
 31
0.0
  0
LINE
  5
781
  8
0
 10
972.33069858695364
 20
98.375004503759627
 30
0.0
 11
972.33069858695364
 21
4.0000045037577321
 31
0.0
  0
LINE
  5
782
  8
0
 10
972.33069858695364
 20
4.0000045037577321
 30
0.0
 11
985.58069858695274
 21
4.0000045037577321
 31
0.0
  0
LINE
  5
783
  8
0
 10
985.58069858695274
 20
4.0000045037577321
 30
0.0
 11
985.58069858695274
 21
98.375004503759627
 31
0.0
1001
ACAD
1000
ASC_BOUNDS
1002
{
1070
    19
1005
A74
1002
}
  0
LINE
  5
784
  8
0
 10
985.58069858695274
 20
98.375004503759627
 30
0.0
 11
972.33069858695364
 21
98.375004503759627
 31
0.0
  0
LINE
  5
785
  8
0
 10
1027.5779205581271
 20
98.375004503758404
 30
0.0
 11
1011.580698586953
 21
98.375004503758404
 31
0.0
  0
LINE
  5
786
  8
0
 10
1011.580698586953
 20
98.375004503758404
 30
0.0
 11
1011.580698586953
 21
4.0000045037578484
 31
0.0
1001
ACAD
1000
ASC_BOUNDS
1002
{
1070
    19
1005
A74
1002
}
  0
LINE
  5
787
  8
0
 10
1011.580698586953
 20
4.0000045037578484
 30
0.0
 11
1027.5779205581271
 21
4.0000045037578484
 31
0.0
  0
LINE
  5
788
  8
0
 10
1027.5779205581271
 20
4.0000045037578484
 30
0.0
 11
1027.5779205581271
 21
98.375004503758404
 31
0.0
1001
ACAD
1000
ASC_BOUNDS
1002
{
1070
    19
1005
A74
1002
}
  0
LINE
  5
789
  8
0
 10
1108.8306985869531
 20
98.375004503758404
 30
0.0
 11
1095.5727139037219
 21
98.375004503758404
 31
0.0
  0
LINE
  5
78A
  8
0
 10
1095.5727139037219
 20
98.375004503758404
 30
0.0
 11
1095.5727139037219
 21
4.0000045037578484
 31
0.0
1001
ACAD
1000
ASC_BOUNDS
1002
{
1070
    19
1005
A74
1002
}
  0
LINE
  5
78B
  8
0
 10
1095.5727139037219
 20
4.0000045037578484
 30
0.0
 11
1108.8306985869531
 21
4.0000045037578484
 31
0.0
  0
LINE
  5
78C
  8
0
 10
1108.8306985869531
 20
4.0000045037578484
 30
0.0
 11
1108.8306985869531
 21
98.375004503758404
 31
0.0
  0
LINE
  5
78D
  8
0
 10
1069.589698241625
 20
98.375004503758404
 30
0.0
 11
1053.5731841877
 21
98.375004503758404
 31
0.0
  0
LINE
  5
78E
  8
0
 10
1053.5731841877
 20
98.375004503758404
 30
0.0
 11
1053.5731841877
 21
4.0000045037578484
 31
0.0
1001
ACAD
1000
ASC_BOUNDS
1002
{
1070
    19
1005
A74
1002
}
  0
LINE
  5
78F
  8
0
 10
1053.5731841877
 20
4.0000045037578484
 30
0.0
 11
1069.589698241625
 21
4.0000045037578484
 31
0.0
  0
LINE
  5
790
  8
0
 10
1069.589698241625
 20
4.0000045037578484
 30
0.0
 11
1069.589698241625
 21
98.375004503758404
 31
0.0
1001
ACAD
1000
ASC_BOUNDS
1002
{
1070
    19
1005
A74
1002
}
  0
LINE
  5
791
  8
0
 10
970.70569858695421
 20
100.00000450375769
 30
0.0
 11
1110.455698586954
 21
100.00000450375769
 31
0.0
  0
LINE
  5
792
  8
0
 10
1110.455698586954
 20
0.0000045037577365
 30
0.0
 11
970.70569858695421
 21
0.0000045037577365
 31
0.0
  0
LINE
  5
793
  8
0
 10
970.70569858695421
 20
0.0000045037577365
 30
0.0
 11
970.70569858695421
 21
100.00000450375769
 31
0.0
  0
LINE
  5
794
  8
0
 10
972.33069858695387
 20
4.0000045037565908
 30
0.0
 11
972.33069858695285
 21
98.375004503757125
 31
0.0
1001
ACAD
1000
ASC_BOUNDS
1002
{
1070
    19
1005
A74
1002
}
  0
LINE
  5
795
  8
0
 10
972.33069858695285
 20
98.375004503757125
 30
0.0
 11
1108.8306985869531
 21
98.375004503758575
 31
0.0
1001
ACAD
1000
ASC_BOUNDS
1002
{
1070
    19
1005
A74
1005
A74
1005
A74
1005
A74
1002
}
  0
LINE
  5
796
  8
0
 10
1108.8306985869531
 20
98.375004503758575
 30
0.0
 11
1108.830698586954
 21
4.0000045037579977
 31
0.0
1001
ACAD
1000
ASC_BOUNDS
1002
{
1070
    19
1005
A74
1002
}
  0
LINE
  5
797
  8
0
 10
1108.830698586954
 20
4.000004503758019
 30
0.0
 11
972.33069858695387
 21
4.0000045037566121
 31
0.0
1001
ACAD
1000
ASC_BOUNDS
1002
{
1070
    19
1005
A74
1005
A74
1005
A74
1005
A74
1002
}
  0
LINE
  5
798
  8
0
 10
1110.455698586954
 20
0.0000045037577365
 30
0.0
 11
1110.455698586954
 21
100.00000450375769
 31
0.0
  0
ARC
  5
799
  8
0
 10
759.08069858695205
 20
164.1250045037568
 30
0.0
 40
8.2500000000000053
 50
179.9999999999996
 51
359.99999999999881
  0
ARC
  5
79A
  8
0
 10
759.08069858695205
 20
164.1250045037568
 30
0.0
 40
8.25
 50
359.99999999999937
 51
179.99999999999969
  0
ARC
  5
79B
  8
0
 10
759.08069858695205
 20
164.1250045037568
 30
0.0
 40
7.6875000000000071
 50
0.0000000000005343
 51
180.00000000000011
  0
ARC
  5
79C
  8
0
 10
759.08069858695205
 20
164.1250045037568
 30
0.0
 40
7.6874999999999831
 50
180.00000000000031
 51
359.9999999999996
  0
LINE
  5
79D
  8
0
 10
764.20319936093995
 20
161.68314865495941
 30
0.0
 11
764.00825888474935
 21
161.2342399248007
 31
0.0
  0
LINE
  5
79E
  8
0
 10
764.00825888474935
 20
161.2342399248007
 30
0.0
 11
763.55736602760646
 21
161.0769978613086
 31
0.0
  0
LINE
  5
79F
  8
0
 10
763.55736602760646
 20
161.0769978613086
 30
0.0
 11
763.23283725776525
 21
161.14123397241971
 31
0.0
  0
LINE
  5
7A0
  8
0
 10
763.23283725776525
 20
161.14123397241971
 30
0.0
 11
762.99734618633659
 21
161.33394230575311
 31
0.0
  0
LINE
  5
7A1
  8
0
 10
762.99734618633659
 20
161.33394230575311
 30
0.0
 11
762.80637396411453
 21
162.09187881368959
 31
0.0
  0
LINE
  5
7A2
  8
0
 10
762.80637396411453
 20
162.09187881368959
 30
0.0
 11
762.99040174189236
 21
162.8557677025785
 31
0.0
  0
LINE
  5
7A3
  8
0
 10
762.99040174189236
 20
162.8557677025785
 30
0.0
 11
763.22018844824152
 21
163.04549984543559
 31
0.0
  0
LINE
  5
7A4
  8
0
 10
763.22018844824152
 20
163.04549984543559
 30
0.0
 11
763.54149301173345
 21
163.10874389305459
 31
0.0
  0
LINE
  5
7A5
  8
0
 10
763.54149301173345
 20
163.10874389305459
 30
0.0
 11
764.00974697998754
 21
162.96539071845149
 31
0.0
  0
LINE
  5
7A6
  8
0
 10
764.00974697998754
 20
162.96539071845149
 30
0.0
 11
764.20319936093995
 21
162.5402915121023
 31
0.0
  0
LINE
  5
7A7
  8
0
 10
764.20319936093995
 20
162.5402915121023
 30
0.0
 11
765.34605650379706
 21
162.5402915121023
 31
0.0
  0
LINE
  5
7A8
  8
0
 10
765.34605650379706
 20
162.5402915121023
 30
0.0
 11
765.18583824982875
 21
163.18798496448321
 31
0.0
  0
LINE
  5
7A9
  8
0
 10
765.18583824982875
 20
163.18798496448321
 30
0.0
 11
764.81827872601934
 21
163.66677960734029
 31
0.0
  0
LINE
  5
7AA
  8
0
 10
764.81827872601934
 20
163.66677960734029
 30
0.0
 11
764.2592509482414
 21
163.96253853591179
 31
0.0
  0
LINE
  5
7AB
  8
0
 10
764.2592509482414
 20
163.96253853591179
 30
0.0
 11
763.5246279323685
 21
164.06112484543559
 31
0.0
  0
LINE
  5
7AC
  8
0
 10
763.5246279323685
 20
164.06112484543559
 30
0.0
 11
762.72663686093995
 21
163.92918040099121
 31
0.0
  0
LINE
  5
7AD
  8
0
 10
762.72663686093995
 20
163.92918040099121
 30
0.0
 11
762.1163938053844
 21
163.53334706765779
 31
0.0
  0
LINE
  5
7AE
  8
0
 10
762.1163938053844
 20
163.53334706765779
 30
0.0
 11
761.72911701966996
 21
162.90933913114989
 31
0.0
  0
LINE
  5
7AF
  8
0
 10
761.72911701966996
 20
162.90933913114989
 30
0.0
 11
761.60002475776525
 21
162.09287087718161
 31
0.0
  0
LINE
  5
7B0
  8
0
 10
761.60002475776525
 20
162.09287087718161
 30
0.0
 11
761.7297370593526
 21
161.27454250416579
 31
0.0
  0
LINE
  5
7B1
  8
0
 10
761.7297370593526
 20
161.27454250416579
 30
0.0
 11
762.11887396411453
 21
160.6509065914673
 31
0.0
  0
LINE
  5
7B2
  8
0
 10
762.11887396411453
 20
160.6509065914673
 30
0.0
 11
762.73420134506694
 21
160.2561893295626
 31
0.0
  0
LINE
  5
7B3
  8
0
 10
762.73420134506694
 20
160.2561893295626
 30
0.0
 11
763.54248507522561
 21
160.12461690892769
 31
0.0
  0
LINE
  5
7B4
  8
0
 10
763.54248507522561
 20
160.12461690892769
 30
0.0
 11
764.26557535300344
 21
160.22679944861019
 31
0.0
  0
LINE
  5
7B5
  8
0
 10
764.26557535300344
 20
160.22679944861019
 30
0.0
 11
764.82175094824152
 21
160.53334706765779
 31
0.0
  0
LINE
  5
7B6
  8
0
 10
764.82175094824152
 20
160.53334706765779
 30
0.0
 11
765.18918646411453
 21
161.0251625438483
 31
0.0
  0
LINE
  5
7B7
  8
0
 10
765.18918646411453
 20
161.0251625438483
 30
0.0
 11
765.34605650379706
 21
161.68314865495941
 31
0.0
  0
LINE
  5
7B8
  8
0
 10
765.34605650379706
 20
161.68314865495941
 30
0.0
 11
764.20319936093995
 21
161.68314865495941
 31
0.0
  0
LINE
  5
7B9
  8
0
 10
756.98147198317224
 20
162.45722284388259
 30
0.0
 11
758.15905134825152
 21
162.45722284388259
 31
0.0
  0
LINE
  5
7BA
  8
0
 10
758.15905134825152
 20
162.45722284388259
 30
0.0
 11
758.30587674507694
 21
162.9651593518191
 31
0.0
  0
LINE
  5
7BB
  8
0
 10
758.30587674507694
 20
162.9651593518191
 30
0.0
 11
759.50924976094996
 21
162.9651593518191
 31
0.0
  0
LINE
  5
7BC
  8
0
 10
759.50924976094996
 20
162.9651593518191
 30
0.0
 11
759.65111484031513
 21
162.45722284388259
 31
0.0
  0
LINE
  5
7BD
  8
0
 10
759.65111484031513
 20
162.45722284388259
 30
0.0
 11
760.85448785618803
 21
162.45722284388259
 31
0.0
  0
LINE
  5
7BE
  8
0
 10
760.85448785618803
 20
162.45722284388259
 30
0.0
 11
759.52512277682308
 21
166.26674665340639
 31
0.0
  0
LINE
  5
7BF
  8
0
 10
759.52512277682308
 20
166.26674665340639
 30
0.0
 11
758.29595611015634
 21
166.26674665340639
 31
0.0
  0
LINE
  5
7C0
  8
0
 10
758.29595611015634
 20
166.26674665340639
 30
0.0
 11
756.98147198317224
 21
162.45722284388259
 31
0.0
  0
LINE
  5
7C1
  8
0
 10
758.52611484031513
 20
163.7905561772159
 30
0.0
 11
758.91202753872767
 21
165.09412760578741
 31
0.0
  0
LINE
  5
7C2
  8
0
 10
758.91202753872767
 20
165.09412760578741
 30
0.0
 11
759.289011665712
 21
163.7905561772159
 31
0.0
  0
LINE
  5
7C3
  8
0
 10
759.289011665712
 20
163.7905561772159
 30
0.0
 11
758.52611484031513
 21
163.7905561772159
 31
0.0
  0
LINE
  5
7C4
  8
0
 10
753.22074079291076
 20
164.19761115306289
 30
0.0
 11
754.92014555481546
 21
164.19761115306289
 31
0.0
  0
LINE
  5
7C5
  8
0
 10
754.92014555481546
 20
164.19761115306289
 30
0.0
 11
755.6880026976728
 21
164.23630162925329
 31
0.0
  0
LINE
  5
7C6
  8
0
 10
755.6880026976728
 20
164.23630162925329
 30
0.0
 11
756.10070111037112
 21
164.3682460736978
 31
0.0
  0
LINE
  5
7C7
  8
0
 10
756.10070111037112
 20
164.3682460736978
 30
0.0
 11
756.50893523735522
 21
164.75118258163431
 31
0.0
  0
LINE
  5
7C8
  8
0
 10
756.50893523735522
 20
164.75118258163431
 30
0.0
 11
756.64931222148221
 21
165.33848416893591
 31
0.0
  0
LINE
  5
7C9
  8
0
 10
756.64931222148221
 20
165.33848416893591
 30
0.0
 11
756.50546301513305
 21
165.9014802006819
 31
0.0
  0
LINE
  5
7CA
  8
0
 10
756.50546301513305
 20
165.9014802006819
 30
0.0
 11
756.06201063418064
 21
166.22638099433269
 31
0.0
  0
LINE
  5
7CB
  8
0
 10
756.06201063418064
 20
166.22638099433269
 30
0.0
 11
756.40724872941882
 21
166.54384131179299
 31
0.0
  0
LINE
  5
7CC
  8
0
 10
756.40724872941882
 20
166.54384131179299
 30
0.0
 11
756.52232809449811
 21
166.99622226417401
 31
0.0
  0
LINE
  5
7CD
  8
0
 10
756.52232809449811
 20
166.99622226417401
 30
0.0
 11
756.36855825322823
 21
167.5562421054438
 31
0.0
  0
LINE
  5
7CE
  8
0
 10
756.36855825322823
 20
167.5562421054438
 30
0.0
 11
755.92609793576798
 21
167.8960238514756
 31
0.0
  0
LINE
  5
7CF
  8
0
 10
755.92609793576798
 20
167.8960238514756
 30
0.0
 11
755.53076063418064
 21
167.98134131179299
 31
0.0
  0
LINE
  5
7D0
  8
0
 10
755.53076063418064
 20
167.98134131179299
 30
0.0
 11
754.79712968179979
 21
168.00713496258669
 31
0.0
  0
LINE
  5
7D1
  8
0
 10
754.79712968179979
 20
168.00713496258669
 30
0.0
 11
753.22074079291076
 21
168.00713496258669
 31
0.0
  0
LINE
  5
7D2
  8
0
 10
753.22074079291076
 20
168.00713496258669
 30
0.0
 11
753.22074079291076
 21
164.19761115306289
 31
0.0
  0
LINE
  5
7D3
  8
0
 10
754.42708999926003
 20
165.08650004195181
 30
0.0
 11
754.42708999926003
 21
165.78491274036449
 31
0.0
  0
LINE
  5
7D4
  8
0
 10
754.42708999926003
 20
165.78491274036449
 30
0.0
 11
754.97570111037112
 21
165.78491274036449
 31
0.0
  0
LINE
  5
7D5
  8
0
 10
754.97570111037112
 20
165.78491274036449
 30
0.0
 11
755.38492730084738
 21
165.7055476609994
 31
0.0
  0
LINE
  5
7D6
  8
0
 10
755.38492730084738
 20
165.7055476609994
 30
0.0
 11
755.50645507862509
 21
165.43868258163431
 31
0.0
  0
LINE
  5
7D7
  8
0
 10
755.50645507862509
 20
165.43868258163431
 30
0.0
 11
755.38740745957739
 21
165.16884131179299
 31
0.0
  0
LINE
  5
7D8
  8
0
 10
755.38740745957739
 20
165.16884131179299
 30
0.0
 11
754.98661380878377
 21
165.08650004195181
 31
0.0
  0
LINE
  5
7D9
  8
0
 10
754.98661380878377
 20
165.08650004195181
 30
0.0
 11
754.42708999926003
 21
165.08650004195181
 31
0.0
  0
LINE
  5
7DA
  8
0
 10
754.42708999926003
 20
166.48332543877709
 30
0.0
 11
754.42708999926003
 21
167.1182460736978
 31
0.0
  0
LINE
  5
7DB
  8
0
 10
754.42708999926003
 20
167.1182460736978
 30
0.0
 11
754.76141539608545
 21
167.1182460736978
 31
0.0
  0
LINE
  5
7DC
  8
0
 10
754.76141539608545
 20
167.1182460736978
 30
0.0
 11
755.26984793576798
 21
167.0507857562375
 31
0.0
  0
LINE
  5
7DD
  8
0
 10
755.26984793576798
 20
167.0507857562375
 30
0.0
 11
755.37947095164088
 21
166.8007857562375
 31
0.0
  0
LINE
  5
7DE
  8
0
 10
755.37947095164088
 20
166.8007857562375
 30
0.0
 11
755.27728841195835
 21
166.5557460736978
 31
0.0
  0
LINE
  5
7DF
  8
0
 10
755.27728841195835
 20
166.5557460736978
 30
0.0
 11
754.92510587227594
 21
166.48332543877709
 31
0.0
  0
LINE
  5
7E0
  8
0
 10
754.92510587227594
 20
166.48332543877709
 30
0.0
 11
754.42708999926003
 21
166.48332543877709
 31
0.0
  0
ARC
  5
7E1
  8
0
 10
759.08069858695171
 20
164.1250045037574
 30
0.0
 40
9.0000000000000213
 50
179.9999999999996
 51
359.99999999999869
  0
ARC
  5
7E2
  8
0
 10
759.08069858695171
 20
164.1250045037574
 30
0.0
 40
8.9999999999999964
 50
359.9999999999996
 51
179.9999999999998
  0
LINE
  5
7E3
  8
0
 10
1110.4556985869581
 20
8.5000045037581877
 30
0.0
 11
1110.7056985869569
 21
8.5000045037581877
 31
0.0
  0
LINE
  5
7E4
  8
0
 10
1110.7056985869569
 20
18.50000450375796
 30
0.0
 11
1110.4556985869581
 21
18.50000450375796
 31
0.0
  0
LINE
  5
7E5
  8
0
 10
1110.7056985869569
 20
13.50000450375817
 30
0.0
 11
1110.7056985869569
 21
11.000004727885679
 31
0.0
  0
LINE
  5
7E6
  8
0
 10
1110.7056985869569
 20
11.000004503758181
 30
0.0
 11
1110.7056985869569
 21
9.9644705978254482
 31
0.0
  0
LINE
  5
7E7
  8
0
 10
1110.7056985869569
 20
9.9644703211494576
 30
0.0
 11
1110.7056985869569
 21
9.1698776961388049
 31
0.0
  0
LINE
  5
7E8
  8
0
 10
1110.7056985869569
 20
9.1698774848359879
 30
0.0
 11
1110.7056985869569
 21
8.6703753723128347
 31
0.0
  0
LINE
  5
7E9
  8
0
 10
1110.7056985869569
 20
8.6703752701587877
 30
0.0
 11
1110.7056985869569
 21
8.5000045037581664
 31
0.0
  0
LINE
  5
7EA
  8
0
 10
1110.7056985869569
 20
18.500004503758159
 30
0.0
 11
1110.7056985869569
 21
18.329633635203511
 31
0.0
  0
LINE
  5
7EB
  8
0
 10
1110.7056985869569
 20
18.329633184914609
 30
0.0
 11
1110.7056985869569
 21
17.830131522680361
 31
0.0
  0
LINE
  5
7EC
  8
0
 10
1110.7056985869569
 20
17.83013131137686
 30
0.0
 11
1110.7056985869569
 21
17.035538409690911
 31
0.0
  0
LINE
  5
7ED
  8
0
 10
1110.7056985869569
 20
17.035537982667549
 30
0.0
 11
1110.7056985869569
 21
16.000005025763041
 31
0.0
  0
LINE
  5
7EE
  8
0
 10
1110.7056985869569
 20
16.00000450375817
 30
0.0
 11
1110.7056985869569
 21
13.50000450375817
 31
0.0
  0
ARC
  5
7EF
  8
0
 10
1040.580698586951
 20
186.37500450375771
 30
0.0
 40
3.999999999999976
 50
90.0
 51
270.0
  0
ARC
  5
7F0
  8
0
 10
1040.580698586951
 20
186.37500450375771
 30
0.0
 40
3.9999999999999978
 50
270.0
 51
90.0
  0
ARC
  5
7F1
  8
0
 10
759.08069858694887
 20
186.37500450375799
 30
0.0
 40
3.9999999999999929
 50
90.0
 51
270.0
  0
ARC
  5
7F2
  8
0
 10
759.08069858694887
 20
186.37500450375799
 30
0.0
 40
4.0000000000000044
 50
270.0
 51
90.0
  0
ARC
  5
7F3
  8
0
 10
899.83069858695558
 20
186.37500450375771
 30
0.0
 40
3.999999999999988
 50
90.0
 51
270.0
  0
ARC
  5
7F4
  8
0
 10
899.83069858695558
 20
186.37500450375771
 30
0.0
 40
4.0
 50
270.0
 51
90.0
  0
LINE
  5
7F5
  8
0
 10
688.95569858695615
 20
39.000004503758078
 30
0.0
 11
689.20569858695387
 21
39.000004503758078
 31
0.0
  0
LINE
  5
7F6
  8
0
 10
689.20569858695387
 20
42.000004503758063
 30
0.0
 11
688.95569858695615
 21
42.000004503758063
 31
0.0
  0
LINE
  5
7F7
  8
0
 10
688.95569858695626
 20
27.500004503757971
 30
0.0
 11
689.20569858695421
 21
27.500004503757971
 31
0.0
  0
LINE
  5
7F8
  8
0
 10
689.20569858695421
 20
30.50000450375796
 30
0.0
 11
688.95569858695626
 21
30.50000450375796
 31
0.0
  0
LINE
  5
7F9
  8
0
 10
688.95569858695626
 20
5.6250045037580758
 30
0.0
 11
689.20569858695421
 21
5.6250045037580758
 31
0.0
  0
LINE
  5
7FA
  8
0
 10
689.20569858695421
 20
7.625004503757963
 30
0.0
 11
688.95569858695626
 21
7.625004503757963
 31
0.0
  0
LINE
  5
7FB
  8
0
 10
688.9556985869574
 20
40.50000450375812
 30
0.0
 11
688.9556985869574
 21
40.888233071411911
 31
0.0
  0
LINE
  5
7FC
  8
0
 10
688.9556985869574
 20
40.888233912796231
 30
0.0
 11
688.95569858695728
 21
41.56066467553795
 31
0.0
  0
LINE
  5
7FD
  8
0
 10
688.95569858695728
 20
41.560666008313341
 30
0.0
 11
688.9556985869574
 21
41.799042609434778
 31
0.0
  0
LINE
  5
7FE
  8
0
 10
688.9556985869574
 20
41.799043633233801
 30
0.0
 11
688.9556985869574
 21
42.000004503758127
 31
0.0
  0
LINE
  5
7FF
  8
0
 10
688.9556985869574
 20
39.000004503758127
 30
0.0
 11
688.9556985869574
 21
39.200965374281381
 31
0.0
  0
LINE
  5
800
  8
0
 10
688.9556985869574
 20
39.200966398081484
 30
0.0
 11
688.95569858695728
 21
39.439342999202438
 31
0.0
  0
LINE
  5
801
  8
0
 10
688.95569858695728
 20
39.439344331978312
 30
0.0
 11
688.9556985869574
 21
40.111775094719157
 31
0.0
  0
LINE
  5
802
  8
0
 10
688.9556985869574
 20
40.111775936104351
 30
0.0
 11
688.9556985869574
 21
40.50000450375812
 31
0.0
  0
LINE
  5
803
  8
0
 10
688.95569858695751
 20
29.000005468413558
 30
0.0
 11
688.95569858695751
 21
29.750004503758142
 31
0.0
  0
LINE
  5
804
  8
0
 10
688.95569858695751
 20
29.750005547768129
 30
0.0
 11
688.95569858695751
 21
30.29904168195733
 31
0.0
  0
LINE
  5
805
  8
0
 10
688.95569858695751
 20
30.299042609434789
 30
0.0
 11
688.95569858695751
 21
30.448893243191741
 31
0.0
  0
LINE
  5
806
  8
0
 10
688.95569858695751
 20
30.448893321248359
 30
0.0
 11
688.95569858695751
 21
30.500004503758142
 31
0.0
  0
LINE
  5
807
  8
0
 10
688.95569858695751
 20
27.500004503758142
 30
0.0
 11
688.95569858695751
 21
27.551113789843139
 31
0.0
  0
LINE
  5
808
  8
0
 10
688.95569858695751
 20
27.551115764324539
 30
0.0
 11
688.95569858695751
 21
27.70096639808148
 31
0.0
  0
LINE
  5
809
  8
0
 10
688.95569858695751
 20
27.70096654002537
 30
0.0
 11
688.95569858695751
 21
27.939344110111541
 31
0.0
  0
LINE
  5
80A
  8
0
 10
688.95569858695751
 20
27.939344331978312
 30
0.0
 11
688.95569858695751
 21
29.000004503758131
 31
0.0
  0
LINE
  5
80B
  8
0
 10
688.95569858695751
 20
6.6250045037581291
 30
0.0
 11
688.95569858695751
 21
6.8838235488606498
 31
0.0
  0
LINE
  5
80C
  8
0
 10
688.95569858695751
 20
6.8838238598009589
 30
0.0
 11
688.95569858695751
 21
7.3321111142962136
 31
0.0
  0
LINE
  5
80D
  8
0
 10
688.95569858695751
 20
7.332111284944677
 30
0.0
 11
688.95569858695751
 21
7.4910299075425666
 31
0.0
  0
LINE
  5
80E
  8
0
 10
688.95569858695751
 20
7.4910302776755158
 30
0.0
 11
688.95569858695751
 21
7.5909303300471986
 31
0.0
  0
LINE
  5
80F
  8
0
 10
688.95569858695751
 20
7.5909310142280528
 30
0.0
 11
688.95569858695751
 21
7.62500450375813
 31
0.0
  0
LINE
  5
810
  8
0
 10
688.95569858695751
 20
5.62500450375813
 30
0.0
 11
688.95569858695751
 21
5.6590784673935657
 31
0.0
  0
LINE
  5
811
  8
0
 10
688.95569858695751
 20
5.659078677469064
 30
0.0
 11
688.95569858695751
 21
5.7589790422399183
 31
0.0
  0
LINE
  5
812
  8
0
 10
688.95569858695751
 20
5.7589790999736943
 30
0.0
 11
688.95569858695751
 21
5.917897722571583
 31
0.0
  0
LINE
  5
813
  8
0
 10
688.95569858695751
 20
5.917897786665125
 30
0.0
 11
688.95569858695751
 21
6.12500450375813
 31
0.0
  0
LINE
  5
814
  8
0
 10
688.95569858695751
 20
6.1250047278860302
 30
0.0
 11
688.95569858695751
 21
6.3661853976965928
 31
0.0
  0
LINE
  5
815
  8
0
 10
688.95569858695751
 20
6.3661854586556084
 30
0.0
 11
688.95569858695751
 21
6.625004262593543
 31
0.0
  0
LINE
  5
816
  8
0
 10
688.95569858695615
 20
8.5000045037581877
 30
0.0
 11
689.20569858695387
 21
8.5000045037581877
 31
0.0
  0
LINE
  5
817
  8
0
 10
689.20569858695387
 20
18.50000450375796
 30
0.0
 11
688.95569858695615
 21
18.50000450375796
 31
0.0
  0
LINE
  5
818
  8
0
 10
688.9556985869574
 20
13.50000450375814
 30
0.0
 11
688.9556985869574
 21
16.000004503758142
 31
0.0
  0
LINE
  5
819
  8
0
 10
688.9556985869574
 20
16.00000502576302
 30
0.0
 11
688.9556985869574
 21
17.035537982667542
 31
0.0
  0
LINE
  5
81A
  8
0
 10
688.9556985869574
 20
17.035538409690879
 30
0.0
 11
688.9556985869574
 21
17.830131311376839
 31
0.0
  0
LINE
  5
81B
  8
0
 10
688.9556985869574
 20
17.83013152268035
 30
0.0
 11
688.9556985869574
 21
18.329633184914609
 31
0.0
  0
LINE
  5
81C
  8
0
 10
688.9556985869574
 20
18.329633635203511
 30
0.0
 11
688.9556985869574
 21
18.500004503758159
 31
0.0
  0
LINE
  5
81D
  8
0
 10
688.9556985869574
 20
8.5000045037581664
 30
0.0
 11
688.9556985869574
 21
8.6703752701587788
 31
0.0
  0
LINE
  5
81E
  8
0
 10
688.9556985869574
 20
8.6703753723128241
 30
0.0
 11
688.9556985869574
 21
9.1698774848359719
 31
0.0
  0
LINE
  5
81F
  8
0
 10
688.9556985869574
 20
9.1698776961387871
 30
0.0
 11
688.9556985869574
 21
9.9644703211494363
 31
0.0
  0
LINE
  5
820
  8
0
 10
688.9556985869574
 20
9.9644705978254251
 30
0.0
 11
688.9556985869574
 21
11.00000450375815
 31
0.0
  0
LINE
  5
821
  8
0
 10
688.9556985869574
 20
11.000004727885649
 30
0.0
 11
688.9556985869574
 21
13.50000450375814
 31
0.0
  0
ARC
  5
822
  8
0
 10
210.8749953247513
 20
164.12500450375649
 30
0.0
 40
8.2500000000000089
 50
179.9999999999998
 51
359.99999999999881
  0
ARC
  5
823
  8
0
 10
210.8749953247513
 20
164.12500450375649
 30
0.0
 40
8.2500000000000053
 50
359.9999999999996
 51
179.9999999999998
  0
ARC
  5
824
  8
0
 10
210.8749953247513
 20
164.12500450375649
 30
0.0
 40
7.687499999999992
 50
0.0000000000007761
 51
180.0000000000002
  0
ARC
  5
825
  8
0
 10
210.8749953247513
 20
164.12500450375649
 30
0.0
 40
7.687499999999992
 50
180.0000000000002
 51
0.0000000000000509
  0
LINE
  5
826
  8
0
 10
215.99749609873911
 20
161.6831486549591
 30
0.0
 11
215.8025556225486
 21
161.23423992480039
 31
0.0
  0
LINE
  5
827
  8
0
 10
215.8025556225486
 20
161.23423992480039
 30
0.0
 11
215.35166276540579
 21
161.07699786130831
 31
0.0
  0
LINE
  5
828
  8
0
 10
215.35166276540579
 20
161.07699786130831
 30
0.0
 11
215.0271339955645
 21
161.1412339724194
 31
0.0
  0
LINE
  5
829
  8
0
 10
215.0271339955645
 20
161.1412339724194
 30
0.0
 11
214.79164292413591
 21
161.33394230575269
 31
0.0
  0
LINE
  5
82A
  8
0
 10
214.79164292413591
 20
161.33394230575269
 30
0.0
 11
214.60067070191371
 21
162.09187881368919
 31
0.0
  0
LINE
  5
82B
  8
0
 10
214.60067070191371
 20
162.09187881368919
 30
0.0
 11
214.78469847969151
 21
162.85576770257811
 31
0.0
  0
LINE
  5
82C
  8
0
 10
214.78469847969151
 20
162.85576770257811
 30
0.0
 11
215.0144851860407
 21
163.0454998454353
 31
0.0
  0
LINE
  5
82D
  8
0
 10
215.0144851860407
 20
163.0454998454353
 30
0.0
 11
215.33578974953281
 21
163.1087438930544
 31
0.0
  0
LINE
  5
82E
  8
0
 10
215.33578974953281
 20
163.1087438930544
 30
0.0
 11
215.8040437177867
 21
162.9653907184512
 31
0.0
  0
LINE
  5
82F
  8
0
 10
215.8040437177867
 20
162.9653907184512
 30
0.0
 11
215.99749609873911
 21
162.54029151210199
 31
0.0
  0
LINE
  5
830
  8
0
 10
215.99749609873911
 20
162.54029151210199
 30
0.0
 11
217.1403532415963
 21
162.54029151210199
 31
0.0
  0
LINE
  5
831
  8
0
 10
217.1403532415963
 20
162.54029151210199
 30
0.0
 11
216.98013498762799
 21
163.18798496448289
 31
0.0
  0
LINE
  5
832
  8
0
 10
216.98013498762799
 20
163.18798496448289
 30
0.0
 11
216.6125754638185
 21
163.66677960734009
 31
0.0
  0
LINE
  5
833
  8
0
 10
216.6125754638185
 20
163.66677960734009
 30
0.0
 11
216.0535476860407
 21
163.96253853591151
 31
0.0
  0
LINE
  5
834
  8
0
 10
216.0535476860407
 20
163.96253853591151
 30
0.0
 11
215.31892467016769
 21
164.0611248454353
 31
0.0
  0
LINE
  5
835
  8
0
 10
215.31892467016769
 20
164.0611248454353
 30
0.0
 11
214.52093359873911
 21
163.9291804009909
 31
0.0
  0
LINE
  5
836
  8
0
 10
214.52093359873911
 20
163.9291804009909
 30
0.0
 11
213.91069054318351
 21
163.5333470676575
 31
0.0
  0
LINE
  5
837
  8
0
 10
213.91069054318351
 20
163.5333470676575
 30
0.0
 11
213.52341375746931
 21
162.90933913114961
 31
0.0
  0
LINE
  5
838
  8
0
 10
213.52341375746931
 20
162.90933913114961
 30
0.0
 11
213.3943214955645
 21
162.0928708771813
 31
0.0
  0
LINE
  5
839
  8
0
 10
213.3943214955645
 20
162.0928708771813
 30
0.0
 11
213.52403379715179
 21
161.27454250416551
 31
0.0
  0
LINE
  5
83A
  8
0
 10
213.52403379715179
 20
161.27454250416551
 30
0.0
 11
213.91317070191371
 21
160.65090659146711
 31
0.0
  0
LINE
  5
83B
  8
0
 10
213.91317070191371
 20
160.65090659146711
 30
0.0
 11
214.52849808286609
 21
160.25618932956229
 31
0.0
  0
LINE
  5
83C
  8
0
 10
214.52849808286609
 20
160.25618932956229
 30
0.0
 11
215.3367818130248
 21
160.12461690892741
 31
0.0
  0
LINE
  5
83D
  8
0
 10
215.3367818130248
 20
160.12461690892741
 30
0.0
 11
216.0598720908026
 21
160.22679944860991
 31
0.0
  0
LINE
  5
83E
  8
0
 10
216.0598720908026
 20
160.22679944860991
 30
0.0
 11
216.6160476860407
 21
160.5333470676575
 31
0.0
  0
LINE
  5
83F
  8
0
 10
216.6160476860407
 20
160.5333470676575
 30
0.0
 11
216.98348320191371
 21
161.02516254384801
 31
0.0
  0
LINE
  5
840
  8
0
 10
216.98348320191371
 20
161.02516254384801
 30
0.0
 11
217.1403532415963
 21
161.6831486549591
 31
0.0
  0
LINE
  5
841
  8
0
 10
217.1403532415963
 20
161.6831486549591
 30
0.0
 11
215.99749609873911
 21
161.6831486549591
 31
0.0
  0
LINE
  5
842
  8
0
 10
208.7757687209714
 20
162.45722284388231
 30
0.0
 11
209.9533480860508
 21
162.45722284388231
 31
0.0
  0
LINE
  5
843
  8
0
 10
209.9533480860508
 20
162.45722284388231
 30
0.0
 11
210.10017348287619
 21
162.96515935181881
 31
0.0
  0
LINE
  5
844
  8
0
 10
210.10017348287619
 20
162.96515935181881
 30
0.0
 11
211.3035464987492
 21
162.96515935181881
 31
0.0
  0
LINE
  5
845
  8
0
 10
211.3035464987492
 20
162.96515935181881
 30
0.0
 11
211.44541157811429
 21
162.45722284388231
 31
0.0
  0
LINE
  5
846
  8
0
 10
211.44541157811429
 20
162.45722284388231
 30
0.0
 11
212.6487845939873
 21
162.45722284388231
 31
0.0
  0
LINE
  5
847
  8
0
 10
212.6487845939873
 20
162.45722284388231
 30
0.0
 11
211.31941951462221
 21
166.2667466534061
 31
0.0
  0
LINE
  5
848
  8
0
 10
211.31941951462221
 20
166.2667466534061
 30
0.0
 11
210.09025284795561
 21
166.2667466534061
 31
0.0
  0
LINE
  5
849
  8
0
 10
210.09025284795561
 20
166.2667466534061
 30
0.0
 11
208.7757687209714
 21
162.45722284388231
 31
0.0
  0
LINE
  5
84A
  8
0
 10
210.32041157811429
 20
163.79055617721559
 30
0.0
 11
210.706324276527
 21
165.09412760578709
 31
0.0
  0
LINE
  5
84B
  8
0
 10
210.706324276527
 20
165.09412760578709
 30
0.0
 11
211.0833084035111
 21
163.79055617721559
 31
0.0
  0
LINE
  5
84C
  8
0
 10
211.0833084035111
 20
163.79055617721559
 30
0.0
 11
210.32041157811429
 21
163.79055617721559
 31
0.0
  0
LINE
  5
84D
  8
0
 10
205.01503753071
 20
164.19761115306261
 30
0.0
 11
206.71444229261479
 21
164.19761115306261
 31
0.0
  0
LINE
  5
84E
  8
0
 10
206.71444229261479
 20
164.19761115306261
 30
0.0
 11
207.4822994354719
 21
164.23630162925301
 31
0.0
  0
LINE
  5
84F
  8
0
 10
207.4822994354719
 20
164.23630162925301
 30
0.0
 11
207.89499784817031
 21
164.36824607369749
 31
0.0
  0
LINE
  5
850
  8
0
 10
207.89499784817031
 20
164.36824607369749
 30
0.0
 11
208.30323197515449
 21
164.751182581634
 31
0.0
  0
LINE
  5
851
  8
0
 10
208.30323197515449
 20
164.751182581634
 30
0.0
 11
208.44360895928151
 21
165.33848416893559
 31
0.0
  0
LINE
  5
852
  8
0
 10
208.44360895928151
 20
165.33848416893559
 30
0.0
 11
208.2997597529322
 21
165.90148020068159
 31
0.0
  0
LINE
  5
853
  8
0
 10
208.2997597529322
 20
165.90148020068159
 30
0.0
 11
207.85630737197991
 21
166.2263809943324
 31
0.0
  0
LINE
  5
854
  8
0
 10
207.85630737197991
 20
166.2263809943324
 30
0.0
 11
208.20154546721801
 21
166.5438413117927
 31
0.0
  0
LINE
  5
855
  8
0
 10
208.20154546721801
 20
166.5438413117927
 30
0.0
 11
208.31662483229729
 21
166.9962222641737
 31
0.0
  0
LINE
  5
856
  8
0
 10
208.31662483229729
 20
166.9962222641737
 30
0.0
 11
208.1628549910275
 21
167.55624210544349
 31
0.0
  0
LINE
  5
857
  8
0
 10
208.1628549910275
 20
167.55624210544349
 30
0.0
 11
207.72039467356711
 21
167.89602385147529
 31
0.0
  0
LINE
  5
858
  8
0
 10
207.72039467356711
 20
167.89602385147529
 30
0.0
 11
207.32505737197991
 21
167.9813413117927
 31
0.0
  0
LINE
  5
859
  8
0
 10
207.32505737197991
 20
167.9813413117927
 30
0.0
 11
206.59142641959889
 21
168.00713496258641
 31
0.0
  0
LINE
  5
85A
  8
0
 10
206.59142641959889
 20
168.00713496258641
 30
0.0
 11
205.01503753071
 21
168.00713496258641
 31
0.0
  0
LINE
  5
85B
  8
0
 10
205.01503753071
 20
168.00713496258641
 30
0.0
 11
205.01503753071
 21
164.19761115306261
 31
0.0
  0
LINE
  5
85C
  8
0
 10
206.22138673705919
 20
165.0865000419515
 30
0.0
 11
206.22138673705919
 21
165.78491274036421
 31
0.0
  0
LINE
  5
85D
  8
0
 10
206.22138673705919
 20
165.78491274036421
 30
0.0
 11
206.76999784817031
 21
165.78491274036421
 31
0.0
  0
LINE
  5
85E
  8
0
 10
206.76999784817031
 20
165.78491274036421
 30
0.0
 11
207.17922403864651
 21
165.70554766099909
 31
0.0
  0
LINE
  5
85F
  8
0
 10
207.17922403864651
 20
165.70554766099909
 30
0.0
 11
207.30075181642431
 21
165.438682581634
 31
0.0
  0
LINE
  5
860
  8
0
 10
207.30075181642431
 20
165.438682581634
 30
0.0
 11
207.18170419737669
 21
165.1688413117927
 31
0.0
  0
LINE
  5
861
  8
0
 10
207.18170419737669
 20
165.1688413117927
 30
0.0
 11
206.78091054658299
 21
165.0865000419515
 31
0.0
  0
LINE
  5
862
  8
0
 10
206.78091054658299
 20
165.0865000419515
 30
0.0
 11
206.22138673705919
 21
165.0865000419515
 31
0.0
  0
LINE
  5
863
  8
0
 10
206.22138673705919
 20
166.4833254387768
 30
0.0
 11
206.22138673705919
 21
167.11824607369749
 31
0.0
  0
LINE
  5
864
  8
0
 10
206.22138673705919
 20
167.11824607369749
 30
0.0
 11
206.55571213388461
 21
167.11824607369749
 31
0.0
  0
LINE
  5
865
  8
0
 10
206.55571213388461
 20
167.11824607369749
 30
0.0
 11
207.0641446735672
 21
167.05078575623719
 31
0.0
  0
LINE
  5
866
  8
0
 10
207.0641446735672
 20
167.05078575623719
 30
0.0
 11
207.17376768944021
 21
166.80078575623719
 31
0.0
  0
LINE
  5
867
  8
0
 10
207.17376768944021
 20
166.80078575623719
 30
0.0
 11
207.07158514975771
 21
166.55574607369749
 31
0.0
  0
LINE
  5
868
  8
0
 10
207.07158514975771
 20
166.55574607369749
 30
0.0
 11
206.71940261007509
 21
166.4833254387768
 31
0.0
  0
LINE
  5
869
  8
0
 10
206.71940261007509
 20
166.4833254387768
 30
0.0
 11
206.22138673705919
 21
166.4833254387768
 31
0.0
  0
ARC
  5
86A
  8
0
 10
210.87499532475081
 20
164.12500450375711
 30
0.0
 40
9.0000000000000089
 50
179.9999999999998
 51
359.99999999999898
  0
ARC
  5
86B
  8
0
 10
210.87499532475081
 20
164.12500450375711
 30
0.0
 40
9.0000000000000124
 50
359.9999999999996
 51
179.9999999999998
  0
LINE
  5
86C
  8
0
 10
140.9999953247501
 20
194.12500450375751
 30
0.0
 11
280.74999532474442
 21
194.12500450375751
 31
0.0
  0
LINE
  5
86D
  8
0
 10
280.74999532474442
 20
100.00000450375769
 30
0.0
 11
140.9999953247501
 21
100.00000450375769
 31
0.0
  0
LINE
  5
86E
  8
0
 10
140.9999953247501
 20
194.12500450375751
 30
0.0
 11
140.9999953247501
 21
100.00000450375769
 31
0.0
  0
LINE
  5
86F
  8
0
 10
280.74999532474442
 20
100.00000450375769
 30
0.0
 11
280.74999532474442
 21
194.12500450375751
 31
0.0
  0
LINE
  5
870
  8
0
 10
140.99999532474999
 20
100.00000450375769
 30
0.0
 11
280.74999532474988
 21
100.00000450375769
 31
0.0
  0
LINE
  5
871
  8
0
 10
280.74999532474988
 20
0.0000045037577365
 30
0.0
 11
140.99999532474999
 21
0.0000045037577365
 31
0.0
  0
LINE
  5
872
  8
0
 10
280.74999532474988
 20
100.00000450375769
 30
0.0
 11
280.74999532474988
 21
0.0000045037577365
 31
0.0
  0
LINE
  5
873
  8
0
 10
140.99999532474999
 20
0.0000045037577365
 30
0.0
 11
140.99999532474999
 21
100.00000450375769
 31
0.0
  0
ARC
  5
874
  8
0
 10
351.62499532475368
 20
164.12500450376109
 30
0.0
 40
8.2500000000000124
 50
179.99999999999969
 51
359.99999999999881
  0
ARC
  5
875
  8
0
 10
351.62499532475368
 20
164.12500450376109
 30
0.0
 40
8.2500000000000124
 50
359.9999999999996
 51
179.99999999999969
  0
ARC
  5
876
  8
0
 10
351.62499532475368
 20
164.12500450376109
 30
0.0
 40
7.687499999999976
 50
0.0000000000010114
 51
180.00000000000031
  0
ARC
  5
877
  8
0
 10
351.62499532475368
 20
164.12500450376109
 30
0.0
 40
7.6874999999999831
 50
180.0000000000002
 51
0.0000000000001018
  0
LINE
  5
878
  8
0
 10
356.74749609874169
 20
161.68314865496379
 30
0.0
 11
356.5525556225511
 21
161.234239924805
 31
0.0
  0
LINE
  5
879
  8
0
 10
356.5525556225511
 20
161.234239924805
 30
0.0
 11
356.10166276540821
 21
161.076997861313
 31
0.0
  0
LINE
  5
87A
  8
0
 10
356.10166276540821
 20
161.076997861313
 30
0.0
 11
355.77713399556689
 21
161.14123397242409
 31
0.0
  0
LINE
  5
87B
  8
0
 10
355.77713399556689
 20
161.14123397242409
 30
0.0
 11
355.54164292413839
 21
161.3339423057574
 31
0.0
  0
LINE
  5
87C
  8
0
 10
355.54164292413839
 20
161.3339423057574
 30
0.0
 11
355.3506707019161
 21
162.09187881369391
 31
0.0
  0
LINE
  5
87D
  8
0
 10
355.3506707019161
 20
162.09187881369391
 30
0.0
 11
355.5346984796941
 21
162.8557677025828
 31
0.0
  0
LINE
  5
87E
  8
0
 10
355.5346984796941
 20
162.8557677025828
 30
0.0
 11
355.76448518604309
 21
163.04549984543991
 31
0.0
  0
LINE
  5
87F
  8
0
 10
355.76448518604309
 20
163.04549984543991
 30
0.0
 11
356.08578974953531
 21
163.108743893059
 31
0.0
  0
LINE
  5
880
  8
0
 10
356.08578974953531
 20
163.108743893059
 30
0.0
 11
356.55404371778923
 21
162.96539071845581
 31
0.0
  0
LINE
  5
881
  8
0
 10
356.55404371778923
 20
162.96539071845581
 30
0.0
 11
356.74749609874169
 21
162.54029151210659
 31
0.0
  0
LINE
  5
882
  8
0
 10
356.74749609874169
 20
162.54029151210659
 30
0.0
 11
357.8903532415988
 21
162.54029151210659
 31
0.0
  0
LINE
  5
883
  8
0
 10
357.8903532415988
 20
162.54029151210659
 30
0.0
 11
357.73013498763038
 21
163.18798496448761
 31
0.0
  0
LINE
  5
884
  8
0
 10
357.73013498763038
 20
163.18798496448761
 30
0.0
 11
357.36257546382092
 21
163.66677960734469
 31
0.0
  0
LINE
  5
885
  8
0
 10
357.36257546382092
 20
163.66677960734469
 30
0.0
 11
356.80354768604309
 21
163.9625385359162
 31
0.0
  0
LINE
  5
886
  8
0
 10
356.80354768604309
 20
163.9625385359162
 30
0.0
 11
356.06892467017008
 21
164.06112484543999
 31
0.0
  0
LINE
  5
887
  8
0
 10
356.06892467017008
 20
164.06112484543999
 30
0.0
 11
355.27093359874158
 21
163.92918040099551
 31
0.0
  0
LINE
  5
888
  8
0
 10
355.27093359874158
 20
163.92918040099551
 30
0.0
 11
354.66069054318598
 21
163.53334706766219
 31
0.0
  0
LINE
  5
889
  8
0
 10
354.66069054318598
 20
163.53334706766219
 30
0.0
 11
354.2734137574717
 21
162.9093391311543
 31
0.0
  0
LINE
  5
88A
  8
0
 10
354.2734137574717
 20
162.9093391311543
 30
0.0
 11
354.14432149556689
 21
162.09287087718599
 31
0.0
  0
LINE
  5
88B
  8
0
 10
354.14432149556689
 20
162.09287087718599
 30
0.0
 11
354.27403379715429
 21
161.27454250417011
 31
0.0
  0
LINE
  5
88C
  8
0
 10
354.27403379715429
 20
161.27454250417011
 30
0.0
 11
354.6631707019161
 21
160.65090659147171
 31
0.0
  0
LINE
  5
88D
  8
0
 10
354.6631707019161
 20
160.65090659147171
 30
0.0
 11
355.27849808286851
 21
160.25618932956689
 31
0.0
  0
LINE
  5
88E
  8
0
 10
355.27849808286851
 20
160.25618932956689
 30
0.0
 11
356.0867818130273
 21
160.12461690893201
 31
0.0
  0
LINE
  5
88F
  8
0
 10
356.0867818130273
 20
160.12461690893201
 30
0.0
 11
356.80987209080502
 21
160.22679944861451
 31
0.0
  0
LINE
  5
890
  8
0
 10
356.80987209080502
 20
160.22679944861451
 30
0.0
 11
357.36604768604309
 21
160.53334706766219
 31
0.0
  0
LINE
  5
891
  8
0
 10
357.36604768604309
 20
160.53334706766219
 30
0.0
 11
357.7334832019161
 21
161.0251625438527
 31
0.0
  0
LINE
  5
892
  8
0
 10
357.7334832019161
 20
161.0251625438527
 30
0.0
 11
357.8903532415988
 21
161.68314865496379
 31
0.0
  0
LINE
  5
893
  8
0
 10
357.8903532415988
 20
161.68314865496379
 30
0.0
 11
356.74749609874169
 21
161.68314865496379
 31
0.0
  0
LINE
  5
894
  8
0
 10
349.52576872097387
 20
162.457222843887
 30
0.0
 11
350.70334808605321
 21
162.457222843887
 31
0.0
  0
LINE
  5
895
  8
0
 10
350.70334808605321
 20
162.457222843887
 30
0.0
 11
350.85017348287869
 21
162.9651593518235
 31
0.0
  0
LINE
  5
896
  8
0
 10
350.85017348287869
 20
162.9651593518235
 30
0.0
 11
352.0535464987517
 21
162.9651593518235
 31
0.0
  0
LINE
  5
897
  8
0
 10
352.0535464987517
 20
162.9651593518235
 30
0.0
 11
352.1954115781167
 21
162.457222843887
 31
0.0
  0
LINE
  5
898
  8
0
 10
352.1954115781167
 20
162.457222843887
 30
0.0
 11
353.39878459398972
 21
162.457222843887
 31
0.0
  0
LINE
  5
899
  8
0
 10
353.39878459398972
 20
162.457222843887
 30
0.0
 11
352.06941951462471
 21
166.26674665341079
 31
0.0
  0
LINE
  5
89A
  8
0
 10
352.06941951462471
 20
166.26674665341079
 30
0.0
 11
350.84025284795803
 21
166.26674665341079
 31
0.0
  0
LINE
  5
89B
  8
0
 10
350.84025284795803
 20
166.26674665341079
 30
0.0
 11
349.52576872097387
 21
162.457222843887
 31
0.0
  0
LINE
  5
89C
  8
0
 10
351.07041157811682
 20
163.79055617722031
 30
0.0
 11
351.45632427652941
 21
165.0941276057917
 31
0.0
  0
LINE
  5
89D
  8
0
 10
351.45632427652941
 20
165.0941276057917
 30
0.0
 11
351.83330840351363
 21
163.79055617722031
 31
0.0
  0
LINE
  5
89E
  8
0
 10
351.83330840351363
 20
163.79055617722031
 30
0.0
 11
351.07041157811682
 21
163.79055617722031
 31
0.0
  0
LINE
  5
89F
  8
0
 10
345.7650375307125
 20
164.19761115306719
 30
0.0
 11
347.46444229261721
 21
164.19761115306719
 31
0.0
  0
LINE
  5
8A0
  8
0
 10
347.46444229261721
 20
164.19761115306719
 30
0.0
 11
348.23229943547437
 21
164.2363016292577
 31
0.0
  0
LINE
  5
8A1
  8
0
 10
348.23229943547437
 20
164.2363016292577
 30
0.0
 11
348.64499784817281
 21
164.3682460737021
 31
0.0
  0
LINE
  5
8A2
  8
0
 10
348.64499784817281
 20
164.3682460737021
 30
0.0
 11
349.05323197515702
 21
164.75118258163869
 31
0.0
  0
LINE
  5
8A3
  8
0
 10
349.05323197515702
 20
164.75118258163869
 30
0.0
 11
349.19360895928389
 21
165.33848416894031
 31
0.0
  0
LINE
  5
8A4
  8
0
 10
349.19360895928389
 20
165.33848416894031
 30
0.0
 11
349.04975975293468
 21
165.90148020068631
 31
0.0
  0
LINE
  5
8A5
  8
0
 10
349.04975975293468
 20
165.90148020068631
 30
0.0
 11
348.60630737198233
 21
166.22638099433709
 31
0.0
  0
LINE
  5
8A6
  8
0
 10
348.60630737198233
 20
166.22638099433709
 30
0.0
 11
348.9515454672204
 21
166.54384131179739
 31
0.0
  0
LINE
  5
8A7
  8
0
 10
348.9515454672204
 20
166.54384131179739
 30
0.0
 11
349.06662483229979
 21
166.99622226417841
 31
0.0
  0
LINE
  5
8A8
  8
0
 10
349.06662483229979
 20
166.99622226417841
 30
0.0
 11
348.91285499102997
 21
167.55624210544821
 31
0.0
  0
LINE
  5
8A9
  8
0
 10
348.91285499102997
 20
167.55624210544821
 30
0.0
 11
348.47039467356961
 21
167.8960238514799
 31
0.0
  0
LINE
  5
8AA
  8
0
 10
348.47039467356961
 20
167.8960238514799
 30
0.0
 11
348.07505737198233
 21
167.98134131179739
 31
0.0
  0
LINE
  5
8AB
  8
0
 10
348.07505737198233
 20
167.98134131179739
 30
0.0
 11
347.34142641960131
 21
168.0071349625911
 31
0.0
  0
LINE
  5
8AC
  8
0
 10
347.34142641960131
 20
168.0071349625911
 30
0.0
 11
345.7650375307125
 21
168.0071349625911
 31
0.0
  0
LINE
  5
8AD
  8
0
 10
345.7650375307125
 20
168.0071349625911
 30
0.0
 11
345.7650375307125
 21
164.19761115306719
 31
0.0
  0
LINE
  5
8AE
  8
0
 10
346.97138673706172
 20
165.0865000419561
 30
0.0
 11
346.97138673706172
 21
165.78491274036881
 31
0.0
  0
LINE
  5
8AF
  8
0
 10
346.97138673706172
 20
165.78491274036881
 30
0.0
 11
347.51999784817281
 21
165.78491274036881
 31
0.0
  0
LINE
  5
8B0
  8
0
 10
347.51999784817281
 20
165.78491274036881
 30
0.0
 11
347.92922403864901
 21
165.70554766100369
 31
0.0
  0
LINE
  5
8B1
  8
0
 10
347.92922403864901
 20
165.70554766100369
 30
0.0
 11
348.05075181642673
 21
165.4386825816386
 31
0.0
  0
LINE
  5
8B2
  8
0
 10
348.05075181642673
 20
165.4386825816386
 30
0.0
 11
347.93170419737908
 21
165.16884131179739
 31
0.0
  0
LINE
  5
8B3
  8
0
 10
347.93170419737908
 20
165.16884131179739
 30
0.0
 11
347.53091054658552
 21
165.0865000419561
 31
0.0
  0
LINE
  5
8B4
  8
0
 10
347.53091054658552
 20
165.0865000419561
 30
0.0
 11
346.97138673706172
 21
165.0865000419561
 31
0.0
  0
LINE
  5
8B5
  8
0
 10
346.97138673706172
 20
166.48332543878149
 30
0.0
 11
346.97138673706172
 21
167.11824607370221
 31
0.0
  0
LINE
  5
8B6
  8
0
 10
346.97138673706172
 20
167.11824607370221
 30
0.0
 11
347.3057121338872
 21
167.11824607370221
 31
0.0
  0
LINE
  5
8B7
  8
0
 10
347.3057121338872
 20
167.11824607370221
 30
0.0
 11
347.81414467356961
 21
167.05078575624191
 31
0.0
  0
LINE
  5
8B8
  8
0
 10
347.81414467356961
 20
167.05078575624191
 30
0.0
 11
347.92376768944268
 21
166.80078575624179
 31
0.0
  0
LINE
  5
8B9
  8
0
 10
347.92376768944268
 20
166.80078575624179
 30
0.0
 11
347.82158514976021
 21
166.55574607370221
 31
0.0
  0
LINE
  5
8BA
  8
0
 10
347.82158514976021
 20
166.55574607370221
 30
0.0
 11
347.46940261007762
 21
166.48332543878149
 31
0.0
  0
LINE
  5
8BB
  8
0
 10
347.46940261007762
 20
166.48332543878149
 30
0.0
 11
346.97138673706172
 21
166.48332543878149
 31
0.0
  0
ARC
  5
8BC
  8
0
 10
351.62499532475329
 20
164.1250045037618
 30
0.0
 40
9.0000000000000089
 50
179.9999999999998
 51
359.99999999999881
  0
ARC
  5
8BD
  8
0
 10
351.62499532475329
 20
164.1250045037618
 30
0.0
 40
9.0
 50
0.0
 51
179.99999999999989
  0
LINE
  5
8BE
  8
0
 10
281.749995324753
 20
194.12500450375751
 30
0.0
 11
421.49999532474732
 21
194.12500450375751
 31
0.0
  0
LINE
  5
8BF
  8
0
 10
421.49999532474732
 20
100.00000450375769
 30
0.0
 11
281.749995324753
 21
100.00000450375769
 31
0.0
  0
LINE
  5
8C0
  8
0
 10
281.749995324753
 20
194.12500450375751
 30
0.0
 11
281.749995324753
 21
100.00000450375769
 31
0.0
  0
LINE
  5
8C1
  8
0
 10
421.49999532474732
 20
100.00000450375769
 30
0.0
 11
421.49999532474732
 21
194.12500450375751
 31
0.0
  0
LINE
  5
8C2
  8
0
 10
281.749995324753
 20
100.00000450375769
 30
0.0
 11
421.49999532475277
 21
100.00000450375769
 31
0.0
  0
LINE
  5
8C3
  8
0
 10
421.49999532475277
 20
0.0000045037577365
 30
0.0
 11
281.749995324753
 21
0.0000045037577365
 31
0.0
  0
LINE
  5
8C4
  8
0
 10
421.49999532475277
 20
100.00000450375769
 30
0.0
 11
421.49999532475277
 21
0.0000045037577365
 31
0.0
  0
LINE
  5
8C5
  8
0
 10
281.749995324753
 20
0.0000045037577365
 30
0.0
 11
281.749995324753
 21
100.00000450375769
 31
0.0
  0
LINE
  5
8C6
  8
0
 10
0.2499953247531152
 20
194.12500450375751
 30
0.0
 11
139.9999953247474
 21
194.12500450375751
 31
0.0
  0
LINE
  5
8C7
  8
0
 10
139.9999953247474
 20
100.00000450375769
 30
0.0
 11
0.2499953247531152
 21
100.00000450375769
 31
0.0
  0
LINE
  5
8C8
  8
0
 10
0.2499953247531152
 20
194.12500450375751
 30
0.0
 11
0.2499953247531152
 21
100.00000450375769
 31
0.0
  0
LINE
  5
8C9
  8
0
 10
139.9999953247474
 20
100.00000450375769
 30
0.0
 11
139.9999953247474
 21
194.12500450375751
 31
0.0
  0
LINE
  5
8CA
  8
0
 10
0.2499953247531152
 20
100.00000450375769
 30
0.0
 11
139.99999532475289
 21
100.00000450375769
 31
0.0
  0
LINE
  5
8CB
  8
0
 10
139.99999532475289
 20
0.0000045037577365
 30
0.0
 11
0.2499953247531152
 21
0.0000045037577365
 31
0.0
  0
LINE
  5
8CC
  8
0
 10
139.99999532475289
 20
100.00000450375769
 30
0.0
 11
139.99999532475289
 21
0.0000045037577365
 31
0.0
  0
LINE
  5
8CD
  8
0
 10
0.2499953247531152
 20
0.0000045037577365
 30
0.0
 11
0.2499953247531152
 21
100.00000450375769
 31
0.0
  0
ARC
  5
8CE
  8
0
 10
70.124995324753797
 20
164.1250045037566
 30
0.0
 40
8.25
 50
179.99999999999969
 51
359.99999999999881
  0
ARC
  5
8CF
  8
0
 10
70.124995324753797
 20
164.1250045037566
 30
0.0
 40
8.2499999999999911
 50
359.9999999999996
 51
179.9999999999998
  0
ARC
  5
8D0
  8
0
 10
70.124995324753797
 20
164.1250045037566
 30
0.0
 40
7.6874999999999831
 50
0.0000000000007506
 51
180.0000000000002
  0
ARC
  5
8D1
  8
0
 10
70.124995324753797
 20
164.1250045037566
 30
0.0
 40
7.687499999999992
 50
180.00000000000011
 51
359.9999999999996
  0
LINE
  5
8D2
  8
0
 10
75.247496098741635
 20
161.68314865495921
 30
0.0
 11
75.05255562255121
 21
161.23423992480051
 31
0.0
  0
LINE
  5
8D3
  8
0
 10
75.05255562255121
 20
161.23423992480051
 30
0.0
 11
74.601662765408321
 21
161.07699786130851
 31
0.0
  0
LINE
  5
8D4
  8
0
 10
74.601662765408321
 20
161.07699786130851
 30
0.0
 11
74.277133995566999
 21
161.1412339724196
 31
0.0
  0
LINE
  5
8D5
  8
0
 10
74.277133995566999
 20
161.1412339724196
 30
0.0
 11
74.0416429241385
 21
161.33394230575291
 31
0.0
  0
LINE
  5
8D6
  8
0
 10
74.0416429241385
 20
161.33394230575291
 30
0.0
 11
73.850670701916215
 21
162.09187881368939
 31
0.0
  0
LINE
  5
8D7
  8
0
 10
73.850670701916215
 20
162.09187881368939
 30
0.0
 11
74.034698479694043
 21
162.85576770257831
 31
0.0
  0
LINE
  5
8D8
  8
0
 10
74.034698479694043
 20
162.85576770257831
 30
0.0
 11
74.264485186043203
 21
163.0454998454355
 31
0.0
  0
LINE
  5
8D9
  8
0
 10
74.264485186043203
 20
163.0454998454355
 30
0.0
 11
74.585789749535309
 21
163.10874389305451
 31
0.0
  0
LINE
  5
8DA
  8
0
 10
74.585789749535309
 20
163.10874389305451
 30
0.0
 11
75.054043717789213
 21
162.96539071845129
 31
0.0
  0
LINE
  5
8DB
  8
0
 10
75.054043717789213
 20
162.96539071845129
 30
0.0
 11
75.247496098741635
 21
162.5402915121021
 31
0.0
  0
LINE
  5
8DC
  8
0
 10
75.247496098741635
 20
162.5402915121021
 30
0.0
 11
76.390353241598802
 21
162.5402915121021
 31
0.0
  0
LINE
  5
8DD
  8
0
 10
76.390353241598802
 20
162.5402915121021
 30
0.0
 11
76.230134987630549
 21
163.18798496448301
 31
0.0
  0
LINE
  5
8DE
  8
0
 10
76.230134987630549
 20
163.18798496448301
 30
0.0
 11
75.862575463821031
 21
163.6667796073402
 31
0.0
  0
LINE
  5
8DF
  8
0
 10
75.862575463821031
 20
163.6667796073402
 30
0.0
 11
75.303547686043203
 21
163.96253853591159
 31
0.0
  0
LINE
  5
8E0
  8
0
 10
75.303547686043203
 20
163.96253853591159
 30
0.0
 11
74.56892467017019
 21
164.06112484543539
 31
0.0
  0
LINE
  5
8E1
  8
0
 10
74.56892467017019
 20
164.06112484543539
 30
0.0
 11
73.770933598741635
 21
163.92918040099099
 31
0.0
  0
LINE
  5
8E2
  8
0
 10
73.770933598741635
 20
163.92918040099099
 30
0.0
 11
73.160690543186092
 21
163.5333470676577
 31
0.0
  0
LINE
  5
8E3
  8
0
 10
73.160690543186092
 20
163.5333470676577
 30
0.0
 11
72.773413757471815
 21
162.90933913114969
 31
0.0
  0
LINE
  5
8E4
  8
0
 10
72.773413757471815
 20
162.90933913114969
 30
0.0
 11
72.644321495566999
 21
162.0928708771815
 31
0.0
  0
LINE
  5
8E5
  8
0
 10
72.644321495566999
 20
162.0928708771815
 30
0.0
 11
72.774033797154289
 21
161.27454250416559
 31
0.0
  0
LINE
  5
8E6
  8
0
 10
72.774033797154289
 20
161.27454250416559
 30
0.0
 11
73.163170701916215
 21
160.65090659146719
 31
0.0
  0
LINE
  5
8E7
  8
0
 10
73.163170701916215
 20
160.65090659146719
 30
0.0
 11
73.778498082868623
 21
160.2561893295624
 31
0.0
  0
LINE
  5
8E8
  8
0
 10
73.778498082868623
 20
160.2561893295624
 30
0.0
 11
74.586781813027415
 21
160.12461690892749
 31
0.0
  0
LINE
  5
8E9
  8
0
 10
74.586781813027415
 20
160.12461690892749
 30
0.0
 11
75.309872090805129
 21
160.22679944861
 31
0.0
  0
LINE
  5
8EA
  8
0
 10
75.309872090805129
 20
160.22679944861
 30
0.0
 11
75.866047686043203
 21
160.53334706765759
 31
0.0
  0
LINE
  5
8EB
  8
0
 10
75.866047686043203
 20
160.53334706765759
 30
0.0
 11
76.233483201916215
 21
161.0251625438481
 31
0.0
  0
LINE
  5
8EC
  8
0
 10
76.233483201916215
 20
161.0251625438481
 30
0.0
 11
76.390353241598802
 21
161.68314865495921
 31
0.0
  0
LINE
  5
8ED
  8
0
 10
76.390353241598802
 20
161.68314865495921
 30
0.0
 11
75.247496098741635
 21
161.68314865495921
 31
0.0
  0
LINE
  5
8EE
  8
0
 10
68.025768720973986
 20
162.45722284388251
 30
0.0
 11
69.203348086053325
 21
162.45722284388251
 31
0.0
  0
LINE
  5
8EF
  8
0
 10
69.203348086053325
 20
162.45722284388251
 30
0.0
 11
69.350173482878745
 21
162.96515935181901
 31
0.0
  0
LINE
  5
8F0
  8
0
 10
69.350173482878745
 20
162.96515935181901
 30
0.0
 11
70.553546498751814
 21
162.96515935181901
 31
0.0
  0
LINE
  5
8F1
  8
0
 10
70.553546498751814
 20
162.96515935181901
 30
0.0
 11
70.695411578116818
 21
162.45722284388251
 31
0.0
  0
LINE
  5
8F2
  8
0
 10
70.695411578116818
 20
162.45722284388251
 30
0.0
 11
71.898784593989831
 21
162.45722284388251
 31
0.0
  0
LINE
  5
8F3
  8
0
 10
71.898784593989831
 20
162.45722284388251
 30
0.0
 11
70.569419514624713
 21
166.2667466534063
 31
0.0
  0
LINE
  5
8F4
  8
0
 10
70.569419514624713
 20
166.2667466534063
 30
0.0
 11
69.340252847958141
 21
166.2667466534063
 31
0.0
  0
LINE
  5
8F5
  8
0
 10
69.340252847958141
 20
166.2667466534063
 30
0.0
 11
68.025768720973986
 21
162.45722284388251
 31
0.0
  0
LINE
  5
8F6
  8
0
 10
69.570411578116818
 20
163.79055617721579
 30
0.0
 11
69.956324276529529
 21
165.09412760578721
 31
0.0
  0
LINE
  5
8F7
  8
0
 10
69.956324276529529
 20
165.09412760578721
 30
0.0
 11
70.333308403513627
 21
163.79055617721579
 31
0.0
  0
LINE
  5
8F8
  8
0
 10
70.333308403513627
 20
163.79055617721579
 30
0.0
 11
69.570411578116818
 21
163.79055617721579
 31
0.0
  0
LINE
  5
8F9
  8
0
 10
64.265037530712505
 20
164.1976111530627
 30
0.0
 11
65.964442292617321
 21
164.1976111530627
 31
0.0
  0
LINE
  5
8FA
  8
0
 10
65.964442292617321
 20
164.1976111530627
 30
0.0
 11
66.732299435474431
 21
164.23630162925321
 31
0.0
  0
LINE
  5
8FB
  8
0
 10
66.732299435474431
 20
164.23630162925321
 30
0.0
 11
67.14499784817292
 21
164.36824607369761
 31
0.0
  0
LINE
  5
8FC
  8
0
 10
67.14499784817292
 20
164.36824607369761
 30
0.0
 11
67.553231975157018
 21
164.75118258163411
 31
0.0
  0
LINE
  5
8FD
  8
0
 10
67.553231975157018
 20
164.75118258163411
 30
0.0
 11
67.693608959284006
 21
165.33848416893571
 31
0.0
  0
LINE
  5
8FE
  8
0
 10
67.693608959284006
 20
165.33848416893571
 30
0.0
 11
67.549759752934733
 21
165.90148020068179
 31
0.0
  0
LINE
  5
8FF
  8
0
 10
67.549759752934733
 20
165.90148020068179
 30
0.0
 11
67.106307371982425
 21
166.22638099433249
 31
0.0
  0
LINE
  5
900
  8
0
 10
67.106307371982425
 20
166.22638099433249
 30
0.0
 11
67.451545467220512
 21
166.5438413117929
 31
0.0
  0
LINE
  5
901
  8
0
 10
67.451545467220512
 20
166.5438413117929
 30
0.0
 11
67.566624832299794
 21
166.99622226417381
 31
0.0
  0
LINE
  5
902
  8
0
 10
67.566624832299794
 20
166.99622226417381
 30
0.0
 11
67.412854991030031
 21
167.55624210544369
 31
0.0
  0
LINE
  5
903
  8
0
 10
67.412854991030031
 20
167.55624210544369
 30
0.0
 11
66.970394673569714
 21
167.89602385147541
 31
0.0
  0
LINE
  5
904
  8
0
 10
66.970394673569714
 20
167.89602385147541
 30
0.0
 11
66.575057371982439
 21
167.9813413117929
 31
0.0
  0
LINE
  5
905
  8
0
 10
66.575057371982439
 20
167.9813413117929
 30
0.0
 11
65.841426419601405
 21
168.00713496258649
 31
0.0
  0
LINE
  5
906
  8
0
 10
65.841426419601405
 20
168.00713496258649
 30
0.0
 11
64.265037530712505
 21
168.00713496258649
 31
0.0
  0
LINE
  5
907
  8
0
 10
64.265037530712505
 20
168.00713496258649
 30
0.0
 11
64.265037530712505
 21
164.1976111530627
 31
0.0
  0
LINE
  5
908
  8
0
 10
65.471386737061721
 20
165.08650004195161
 30
0.0
 11
65.471386737061721
 21
165.78491274036429
 31
0.0
  0
LINE
  5
909
  8
0
 10
65.471386737061721
 20
165.78491274036429
 30
0.0
 11
66.01999784817292
 21
165.78491274036429
 31
0.0
  0
LINE
  5
90A
  8
0
 10
66.01999784817292
 20
165.78491274036429
 30
0.0
 11
66.429224038649124
 21
165.7055476609992
 31
0.0
  0
LINE
  5
90B
  8
0
 10
66.429224038649124
 20
165.7055476609992
 30
0.0
 11
66.550751816426782
 21
165.43868258163411
 31
0.0
  0
LINE
  5
90C
  8
0
 10
66.550751816426782
 20
165.43868258163411
 30
0.0
 11
66.43170419737919
 21
165.1688413117929
 31
0.0
  0
LINE
  5
90D
  8
0
 10
66.43170419737919
 20
165.1688413117929
 30
0.0
 11
66.030910546585631
 21
165.08650004195161
 31
0.0
  0
LINE
  5
90E
  8
0
 10
66.030910546585631
 20
165.08650004195161
 30
0.0
 11
65.471386737061721
 21
165.08650004195161
 31
0.0
  0
LINE
  5
90F
  8
0
 10
65.471386737061721
 20
166.483325438777
 30
0.0
 11
65.471386737061721
 21
167.11824607369761
 31
0.0
  0
LINE
  5
910
  8
0
 10
65.471386737061721
 20
167.11824607369761
 30
0.0
 11
65.805712133887141
 21
167.11824607369761
 31
0.0
  0
LINE
  5
911
  8
0
 10
65.805712133887141
 20
167.11824607369761
 30
0.0
 11
66.314144673569729
 21
167.0507857562373
 31
0.0
  0
LINE
  5
912
  8
0
 10
66.314144673569729
 20
167.0507857562373
 30
0.0
 11
66.423767689442684
 21
166.8007857562373
 31
0.0
  0
LINE
  5
913
  8
0
 10
66.423767689442684
 20
166.8007857562373
 30
0.0
 11
66.321585149760153
 21
166.55574607369761
 31
0.0
  0
LINE
  5
914
  8
0
 10
66.321585149760153
 20
166.55574607369761
 30
0.0
 11
65.969402610077623
 21
166.483325438777
 31
0.0
  0
LINE
  5
915
  8
0
 10
65.969402610077623
 20
166.483325438777
 30
0.0
 11
65.471386737061721
 21
166.483325438777
 31
0.0
  0
ARC
  5
916
  8
0
 10
70.124995324753286
 20
164.12500450375731
 30
0.0
 40
9.0
 50
179.99999999999969
 51
359.99999999999881
  0
ARC
  5
917
  8
0
 10
70.124995324753286
 20
164.12500450375731
 30
0.0
 40
9.0000000000000426
 50
359.99999999999937
 51
179.99999999999969
  0
LINE
  5
918
  8
0
 10
-0.0000046752502385
 20
8.5000045037581877
 30
0.0
 11
0.2499953247501025
 21
8.5000045037581877
 31
0.0
  0
LINE
  5
919
  8
0
 10
0.2499953247501025
 20
18.50000450375796
 30
0.0
 11
-0.0000046752502385
 21
18.50000450375796
 31
0.0
  0
LINE
  5
91A
  8
0
 10
-0.0000046752497838
 20
8.5000045037581664
 30
0.0
 11
-0.0000046752497838
 21
8.6703752701587682
 31
0.0
  0
LINE
  5
91B
  8
0
 10
-0.0000046752497838
 20
8.6703753723128134
 30
0.0
 11
-0.0000046752497838
 21
9.9644703211494061
 31
0.0
  0
LINE
  5
91C
  8
0
 10
-0.0000046752497838
 20
9.9644705978253967
 30
0.0
 11
-0.0000046752497838
 21
12.20590927824551
 31
0.0
  0
LINE
  5
91D
  8
0
 10
-0.0000046752497838
 20
12.205909460117921
 30
0.0
 11
-0.0000046752497838
 21
13.500004503758101
 31
0.0
  0
LINE
  5
91E
  8
0
 10
-0.0000046752497838
 20
13.500004503758159
 30
0.0
 11
-0.0000046752497838
 21
14.794099547397551
 31
0.0
  0
LINE
  5
91F
  8
0
 10
-0.0000046752497838
 20
14.79409972927076
 30
0.0
 11
-0.0000046752497838
 21
16.000004503758159
 31
0.0
  0
LINE
  5
920
  8
0
 10
-0.0000046752497838
 20
16.000005025763031
 30
0.0
 11
-0.0000046752496701
 21
18.500004503758159
 31
0.0
  0
LINE
  5
921
  8
0
 10
421.4999953247538
 20
39.000004503758078
 30
0.0
 11
421.7499953247501
 21
39.000004503758078
 31
0.0
  0
LINE
  5
922
  8
0
 10
421.7499953247501
 20
42.000004503758063
 30
0.0
 11
421.4999953247538
 21
42.000004503758063
 31
0.0
  0
LINE
  5
923
  8
0
 10
421.49999532475368
 20
27.500004503757971
 30
0.0
 11
421.74999532474999
 21
27.500004503757971
 31
0.0
  0
LINE
  5
924
  8
0
 10
421.74999532474999
 20
30.50000450375796
 30
0.0
 11
421.49999532475368
 21
30.50000450375796
 31
0.0
  0
LINE
  5
925
  8
0
 10
421.49999532475368
 20
5.6250045037580758
 30
0.0
 11
421.74999532474999
 21
5.6250045037580758
 31
0.0
  0
LINE
  5
926
  8
0
 10
421.74999532474999
 20
7.625004503757963
 30
0.0
 11
421.49999532475368
 21
7.625004503757963
 31
0.0
  0
LINE
  5
927
  8
0
 10
421.74999532475027
 20
42.000004503758127
 30
0.0
 11
421.74999532475027
 21
41.948893243191733
 31
0.0
  0
LINE
  5
928
  8
0
 10
421.74999532475027
 20
41.948892622972288
 30
0.0
 11
421.74999532475027
 21
41.799043633233801
 31
0.0
  0
LINE
  5
929
  8
0
 10
421.74999532475027
 20
41.799042609434792
 30
0.0
 11
421.74999532475027
 21
41.560666008313348
 31
0.0
  0
LINE
  5
92A
  8
0
 10
421.74999532475027
 20
41.56066467553795
 30
0.0
 11
421.74999532475027
 21
40.888233912796238
 31
0.0
  0
LINE
  5
92B
  8
0
 10
421.74999532475027
 20
40.888233071411932
 30
0.0
 11
421.74999532475027
 21
40.500004503758142
 31
0.0
  0
LINE
  5
92C
  8
0
 10
421.74999532475027
 20
40.50000450375812
 30
0.0
 11
421.74999532475027
 21
40.11177593610433
 31
0.0
  0
LINE
  5
92D
  8
0
 10
421.74999532475027
 20
40.111775094719157
 30
0.0
 11
421.74999532475027
 21
39.439344331978312
 31
0.0
  0
LINE
  5
92E
  8
0
 10
421.74999532475027
 20
39.439342999202417
 30
0.0
 11
421.74999532475027
 21
39.200966398081484
 31
0.0
  0
LINE
  5
92F
  8
0
 10
421.74999532475027
 20
39.200965374281381
 30
0.0
 11
421.74999532475027
 21
39.051116384543441
 31
0.0
  0
LINE
  5
930
  8
0
 10
421.74999532475027
 20
39.051115764324521
 30
0.0
 11
421.74999532475027
 21
39.000004503758127
 31
0.0
  0
LINE
  5
931
  8
0
 10
421.74999532475022
 20
30.500004503758142
 30
0.0
 11
421.74999532475022
 21
30.44889332124837
 31
0.0
  0
LINE
  5
932
  8
0
 10
421.74999532475022
 20
30.448893243191751
 30
0.0
 11
421.74999532475022
 21
29.75000554776814
 31
0.0
  0
LINE
  5
933
  8
0
 10
421.74999532475022
 20
29.750004503758142
 30
0.0
 11
421.74999532475022
 21
29.388233071411928
 31
0.0
  0
LINE
  5
934
  8
0
 10
421.74999532475022
 20
29.388231991884851
 30
0.0
 11
421.74999532475022
 21
29.00000546841358
 31
0.0
  0
LINE
  5
935
  8
0
 10
421.74999532475022
 20
29.000004503758131
 30
0.0
 11
421.74999532475022
 21
28.611776083844109
 31
0.0
  0
LINE
  5
936
  8
0
 10
421.74999532475022
 20
28.611775936104351
 30
0.0
 11
421.74999532475022
 21
28.250005400270229
 31
0.0
  0
LINE
  5
937
  8
0
 10
421.74999532475022
 20
28.250004503758142
 30
0.0
 11
421.74999532475022
 21
27.939344331978312
 31
0.0
  0
LINE
  5
938
  8
0
 10
421.74999532475022
 20
27.939344110111541
 30
0.0
 11
421.74999532475022
 21
27.551115764324539
 31
0.0
  0
LINE
  5
939
  8
0
 10
421.74999532475022
 20
27.551113789843139
 30
0.0
 11
421.74999532475022
 21
27.500004503758142
 31
0.0
  0
LINE
  5
93A
  8
0
 10
421.74999532475022
 20
7.62500450375813
 30
0.0
 11
421.74999532475022
 21
7.5909310142280564
 31
0.0
  0
LINE
  5
93B
  8
0
 10
421.74999532475022
 20
7.5909303300472004
 30
0.0
 11
421.74999532475022
 21
7.4910302776755184
 31
0.0
  0
LINE
  5
93C
  8
0
 10
421.74999532475022
 20
7.491029907542571
 30
0.0
 11
421.74999532475022
 21
7.3321112849446823
 31
0.0
  0
LINE
  5
93D
  8
0
 10
421.74999532475022
 20
7.3321111142962181
 30
0.0
 11
421.74999532475022
 21
6.8838238598009669
 31
0.0
  0
LINE
  5
93E
  8
0
 10
421.74999532475022
 20
6.8838235488606561
 30
0.0
 11
421.74999532475022
 21
6.6250045037581371
 31
0.0
  0
LINE
  5
93F
  8
0
 10
421.74999532475022
 20
6.6250042625935386
 30
0.0
 11
421.74999532475022
 21
6.3661854586556057
 31
0.0
  0
LINE
  5
940
  8
0
 10
421.74999532475022
 20
6.3661853976970209
 30
0.0
 11
421.74999532475022
 21
6.1250047278860258
 31
0.0
  0
LINE
  5
941
  8
0
 10
421.74999532475022
 20
6.1250045037581273
 30
0.0
 11
421.74999532475022
 21
5.9178977866651188
 31
0.0
  0
LINE
  5
942
  8
0
 10
421.74999532475022
 20
5.9178977225715803
 30
0.0
 11
421.74999532475022
 21
5.7589790999736907
 31
0.0
  0
LINE
  5
943
  8
0
 10
421.74999532475022
 20
5.7589790422399139
 30
0.0
 11
421.74999532475022
 21
5.6590786774690622
 31
0.0
  0
LINE
  5
944
  8
0
 10
421.74999532475022
 20
5.6590784673935657
 30
0.0
 11
421.74999532475022
 21
5.62500450375813
 31
0.0
  0
LINE
  5
945
  8
0
 10
421.49999532475368
 20
8.5000045037581877
 30
0.0
 11
421.7499953247501
 21
8.5000045037581877
 31
0.0
  0
LINE
  5
946
  8
0
 10
421.7499953247501
 20
18.50000450375796
 30
0.0
 11
421.49999532475368
 21
18.50000450375796
 31
0.0
  0
LINE
  5
947
  8
0
 10
421.74999532475027
 20
18.500004503758159
 30
0.0
 11
421.74999532475027
 21
16.000005025763059
 31
0.0
  0
LINE
  5
948
  8
0
 10
421.74999532475027
 20
16.000004503758181
 30
0.0
 11
421.74999532475027
 21
14.794099729270791
 31
0.0
  0
LINE
  5
949
  8
0
 10
421.74999532475027
 20
14.79409954739757
 30
0.0
 11
421.74999532475027
 21
13.5000045037582
 31
0.0
  0
LINE
  5
94A
  8
0
 10
421.74999532475027
 20
13.500004503758131
 30
0.0
 11
421.74999532475027
 21
12.20590946011796
 31
0.0
  0
LINE
  5
94B
  8
0
 10
421.74999532475027
 20
12.20590927824553
 30
0.0
 11
421.74999532475027
 21
9.9644705978254162
 31
0.0
  0
LINE
  5
94C
  8
0
 10
421.74999532475027
 20
9.9644703211494257
 30
0.0
 11
421.74999532475027
 21
8.6703753723128205
 31
0.0
  0
LINE
  5
94D
  8
0
 10
421.74999532475027
 20
8.6703752701587771
 30
0.0
 11
421.74999532475027
 21
8.5000045037581664
 31
0.0
  0
LINE
  5
94E
  8
0
 10
483.6739009550202
 20
482.82160827560642
 30
0.0
 11
483.61280857830633
 21
482.82160827560642
 31
0.0
  0
LINE
  5
94F
  8
0
 10
483.61280857830633
 20
466.32160827560642
 30
0.0
 11
483.6739009550202
 21
466.32160827560642
 31
0.0
  0
LINE
  5
950
  8
0
 10
483.6128085783065
 20
466.32160827560568
 30
0.0
 11
483.6128085783065
 21
467.2665939266011
 31
0.0
  0
LINE
  5
951
  8
0
 10
483.6128085783065
 20
467.26659606396669
 30
0.0
 11
483.6128085783065
 21
471.64611669056029
 31
0.0
  0
LINE
  5
952
  8
0
 10
483.6128085783065
 20
471.64611795750471
 30
0.0
 11
483.6128085783065
 21
473.57718066349929
 31
0.0
  0
LINE
  5
953
  8
0
 10
483.6128085783065
 20
473.5771813629209
 30
0.0
 11
483.6128085783065
 21
475.56603577515898
 31
0.0
  0
LINE
  5
954
  8
0
 10
483.6128085783065
 20
475.56603588771208
 30
0.0
 11
483.6128085783065
 21
479.25814243613769
 31
0.0
  0
LINE
  5
955
  8
0
 10
483.6128085783065
 20
479.25814303031183
 30
0.0
 11
483.6128085783065
 21
481.87661995884019
 31
0.0
  0
LINE
  5
956
  8
0
 10
483.6128085783065
 20
481.87662048724468
 30
0.0
 11
483.6128085783065
 21
482.58187826937058
 31
0.0
  0
LINE
  5
957
  8
0
 10
483.6128085783065
 20
482.58188005394351
 30
0.0
 11
483.6128085783065
 21
482.82160827560563
 31
0.0
  0
LINE
  5
958
  8
0
 10
483.73390232830678
 20
483.57160827560779
 30
0.0
 11
483.6739023283065
 21
483.57160827560779
 31
0.0
  0
LINE
  5
959
  8
0
 10
483.6739023283065
 20
465.57160827560779
 30
0.0
 11
483.7339023283065
 21
465.57160827560779
 31
0.0
  0
LINE
  5
95A
  8
0
 10
483.67390232830638
 20
465.5716082756062
 30
0.0
 11
483.67390232830638
 21
466.4628869502219
 31
0.0
  0
LINE
  5
95B
  8
0
 10
483.67390232830638
 20
466.46288846448442
 30
0.0
 11
483.67390232830638
 21
467.53512422360421
 31
0.0
  0
LINE
  5
95C
  8
0
 10
483.67390232830638
 20
467.53512493339389
 30
0.0
 11
483.67390232830638
 21
468.96019983851738
 31
0.0
  0
LINE
  5
95D
  8
0
 10
483.67390232830638
 20
468.96020005887749
 30
0.0
 11
483.67390232830638
 21
470.66665410477901
 31
0.0
  0
LINE
  5
95E
  8
0
 10
483.67390232830638
 20
470.66665462354808
 30
0.0
 11
483.67390232830638
 21
472.56891967927999
 31
0.0
  0
LINE
  5
95F
  8
0
 10
483.67390232830638
 20
472.56891986999938
 30
0.0
 11
483.6739023283065
 21
474.57160713037888
 31
0.0
  0
LINE
  5
960
  8
0
 10
483.6739023283065
 20
474.5716082756062
 30
0.0
 11
483.6739023283065
 21
476.57429668121301
 31
0.0
  0
LINE
  5
961
  8
0
 10
483.6739023283065
 20
476.57429748234881
 30
0.0
 11
483.6739023283065
 21
478.47656192766408
 31
0.0
  0
LINE
  5
962
  8
0
 10
483.6739023283065
 20
478.47656307527279
 30
0.0
 11
483.6739023283065
 21
480.18301649233467
 31
0.0
  0
LINE
  5
963
  8
0
 10
483.6739023283065
 20
480.18301736612659
 30
0.0
 11
483.6739023283065
 21
481.60809161781839
 31
0.0
  0
LINE
  5
964
  8
0
 10
483.6739023283065
 20
481.60809302017958
 30
0.0
 11
483.6739023283065
 21
482.68032717059202
 31
0.0
  0
LINE
  5
965
  8
0
 10
483.6739023283065
 20
482.68032808672791
 30
0.0
 11
483.6739023283065
 21
483.5716082756062
 31
0.0
  0
LINE
  5
966
  8
0
 10
624.54390179425366
 20
466.32160827560642
 30
0.0
 11
624.60499607830752
 21
466.32160827560642
 31
0.0
  0
LINE
  5
967
  8
0
 10
624.60499607830752
 20
482.82160827560767
 30
0.0
 11
624.54390179425366
 21
482.82160827560767
 31
0.0
  0
LINE
  5
968
  8
0
 10
624.60499607830707
 20
482.82160827560648
 30
0.0
 11
624.60499607830707
 21
482.5818800539443
 31
0.0
  0
LINE
  5
969
  8
0
 10
624.60499607830707
 20
482.58187826937149
 30
0.0
 11
624.60499607830707
 21
481.87662048724548
 31
0.0
  0
LINE
  5
96A
  8
0
 10
624.60499607830707
 20
481.8766199588398
 30
0.0
 11
624.60499607830707
 21
479.25814303031268
 31
0.0
  0
LINE
  5
96B
  8
0
 10
624.60499607830707
 20
479.2581424361386
 30
0.0
 11
624.60499607830707
 21
478.59865448724861
 31
0.0
  0
LINE
  5
96C
  8
0
 10
624.60499607830707
 20
470.5445626466738
 30
0.0
 11
624.60499607830707
 21
467.26659606396748
 31
0.0
  0
LINE
  5
96D
  8
0
 10
624.60499607830707
 20
467.26659392659968
 30
0.0
 11
624.60499607830707
 21
466.32160827560648
 31
0.0
  0
LINE
  5
96E
  8
0
 10
624.48390232830695
 20
465.57160827560779
 30
0.0
 11
624.54390232830735
 21
465.57160827560779
 31
0.0
  0
LINE
  5
96F
  8
0
 10
624.54390232830735
 20
483.57160827560779
 30
0.0
 11
624.48390232830695
 21
483.57160827560779
 31
0.0
  0
LINE
  5
970
  8
0
 10
624.5439023283069
 20
483.57160827560608
 30
0.0
 11
624.5439023283069
 21
482.6803280867278
 31
0.0
  0
LINE
  5
971
  8
0
 10
624.5439023283069
 20
482.68032717059191
 30
0.0
 11
624.5439023283069
 21
481.60809302017952
 31
0.0
  0
LINE
  5
972
  8
0
 10
624.5439023283069
 20
481.60809161781827
 30
0.0
 11
624.5439023283069
 21
480.18301736612642
 31
0.0
  0
LINE
  5
973
  8
0
 10
624.5439023283069
 20
480.18301649233462
 30
0.0
 11
624.5439023283069
 21
478.57760302204429
 31
0.0
  0
LINE
  5
974
  8
0
 10
624.5439023283069
 20
470.56561415417332
 30
0.0
 11
624.5439023283069
 21
468.96020005887749
 31
0.0
  0
LINE
  5
975
  8
0
 10
624.5439023283069
 20
468.96019983851721
 30
0.0
 11
624.5439023283069
 21
467.53512493339372
 31
0.0
  0
LINE
  5
976
  8
0
 10
624.5439023283069
 20
467.5351242236041
 30
0.0
 11
624.5439023283069
 21
466.46288846448431
 31
0.0
  0
LINE
  5
977
  8
0
 10
624.5439023283069
 20
466.46288695022179
 30
0.0
 11
624.5439023283069
 21
465.57160827560602
 31
0.0
  0
LINE
  5
978
  8
0
 10
483.73390232830678
 20
544.44660827560676
 30
0.0
 11
483.73390232830678
 21
404.6966082756125
 31
0.0
  0
LINE
  5
979
  8
0
 10
483.73390232830678
 20
404.6966082756125
 30
0.0
 11
624.48390232830388
 21
404.69660827561222
 31
0.0
  0
LINE
  5
97A
  8
0
 10
624.48390232830388
 20
404.69660827561222
 30
0.0
 11
624.48390232830411
 21
544.44660827560654
 31
0.0
  0
LINE
  5
97B
  8
0
 10
624.48390232830411
 20
544.44660827560654
 30
0.0
 11
483.73390232830678
 21
544.44660827560676
 31
0.0
  0
LINE
  5
97C
  8
0
 10
622.85890232830695
 20
542.82160827560676
 30
0.0
 11
622.85890232830684
 21
406.32160827560688
 31
0.0
1001
ACAD
1000
ASC_BOUNDS
1002
{
1070
    19
1005
A34
1002
}
  0
LINE
  5
97D
  8
0
 10
622.85890232830684
 20
406.32160827560688
 30
0.0
 11
485.3589023283069
 21
406.3216082756071
 31
0.0
1001
ACAD
1000
ASC_BOUNDS
1002
{
1070
    19
1005
A34
1002
}
  0
LINE
  5
97E
  8
0
 10
485.3589023283069
 20
406.3216082756071
 30
0.0
 11
485.35890232830712
 21
542.8216082756071
 31
0.0
1001
ACAD
1000
ASC_BOUNDS
1002
{
1070
    19
1005
A34
1002
}
  0
LINE
  5
97F
  8
0
 10
485.35890232830712
 20
542.8216082756071
 30
0.0
 11
622.85890232830695
 21
542.82160827560676
 31
0.0
1001
ACAD
1000
ASC_BOUNDS
1002
{
1070
    19
1005
A34
1002
}
  0
LINE
  5
980
  8
0
 10
624.48390232830411
 20
404.69660827560699
 30
0.0
 11
625.73390232830695
 21
404.69660827560699
 31
0.0
  0
LINE
  5
981
  8
0
 10
625.73390232830695
 20
404.69660827560699
 30
0.0
 11
625.73390232830695
 21
544.44660827560676
 31
0.0
  0
LINE
  5
982
  8
0
 10
625.73390232830695
 20
544.44660827560676
 30
0.0
 11
624.48390232830411
 21
544.44660827560676
 31
0.0
  0
LINE
  5
983
  8
0
 10
483.6739009550202
 20
342.07160827560421
 30
0.0
 11
483.61280857830633
 21
342.07160827560421
 31
0.0
  0
LINE
  5
984
  8
0
 10
483.61280857830633
 20
325.57160827560421
 30
0.0
 11
483.6739009550202
 21
325.57160827560421
 31
0.0
  0
LINE
  5
985
  8
0
 10
483.6128085783065
 20
325.57160827560318
 30
0.0
 11
483.6128085783065
 21
326.5165960639643
 31
0.0
  0
LINE
  5
986
  8
0
 10
483.6128085783065
 20
326.51659629391969
 30
0.0
 11
483.6128085783065
 21
327.64639087691722
 31
0.0
  0
LINE
  5
987
  8
0
 10
483.6128085783065
 20
327.6463946031916
 30
0.0
 11
483.6128085783065
 21
329.13507311978231
 31
0.0
  0
LINE
  5
988
  8
0
 10
483.6128085783065
 20
329.13507411507118
 30
0.0
 11
483.6128085783065
 21
330.89611265253109
 31
0.0
  0
LINE
  5
989
  8
0
 10
483.6128085783065
 20
330.89611795750233
 30
0.0
 11
483.6128085783065
 21
332.82717747412943
 31
0.0
  0
LINE
  5
98A
  8
0
 10
483.6128085783065
 20
332.82718066349679
 30
0.0
 11
483.6128085783065
 21
334.81603482613059
 31
0.0
  0
LINE
  5
98B
  8
0
 10
483.6128085783065
 20
334.81603588770957
 30
0.0
 11
483.6128085783065
 21
336.74709859370421
 31
0.0
  0
LINE
  5
98C
  8
0
 10
483.6128085783065
 20
336.74709947541203
 30
0.0
 11
483.61280857830661
 21
341.12661683049578
 31
0.0
  0
LINE
  5
98D
  8
0
 10
483.61280857830661
 20
341.12662048724218
 30
0.0
 11
483.61280857830661
 21
341.83187826936819
 31
0.0
  0
LINE
  5
98E
  8
0
 10
483.61280857830661
 20
341.83188385003251
 30
0.0
 11
483.61280857830661
 21
342.07160827560318
 31
0.0
  0
LINE
  5
98F
  8
0
 10
483.73390232830678
 20
342.82160827560563
 30
0.0
 11
483.6739023283065
 21
342.82160827560563
 31
0.0
  0
LINE
  5
990
  8
0
 10
483.6739023283065
 20
324.82160827560563
 30
0.0
 11
483.73390232830678
 21
324.82160827560563
 31
0.0
  0
LINE
  5
991
  8
0
 10
483.6739023283065
 20
324.82160827560381
 30
0.0
 11
483.6739023283065
 21
325.04725308343842
 31
0.0
  0
LINE
  5
992
  8
0
 10
483.6739023283065
 20
325.0472570659673
 30
0.0
 11
483.6739023283065
 21
325.71288846448198
 31
0.0
  0
LINE
  5
993
  8
0
 10
483.6739023283065
 20
325.71288908319968
 30
0.0
 11
483.6739023283065
 21
326.78511974376028
 31
0.0
  0
LINE
  5
994
  8
0
 10
483.6739023283065
 20
326.7851249333915
 30
0.0
 11
483.6739023283065
 21
328.21019561183431
 31
0.0
  0
LINE
  5
995
  8
0
 10
483.6739023283065
 20
328.21020005887522
 30
0.0
 11
483.6739023283065
 21
331.81891869216958
 31
0.0
  0
LINE
  5
996
  8
0
 10
483.6739023283065
 20
331.81891986999688
 30
0.0
 11
483.6739023283065
 21
333.82160827560381
 31
0.0
  0
LINE
  5
997
  8
0
 10
483.6739023283065
 20
333.8216119390047
 30
0.0
 11
483.6739023283065
 21
337.72656192766181
 31
0.0
  0
LINE
  5
998
  8
0
 10
483.6739023283065
 20
337.72656510907723
 30
0.0
 11
483.6739023283065
 21
339.43301633961067
 31
0.0
  0
LINE
  5
999
  8
0
 10
483.6739023283065
 20
339.43301649233229
 30
0.0
 11
483.6739023283065
 21
340.858091617816
 31
0.0
  0
LINE
  5
99A
  8
0
 10
483.6739023283065
 20
340.85809190021882
 30
0.0
 11
483.6739023283065
 21
341.9303240530819
 31
0.0
  0
LINE
  5
99B
  8
0
 10
483.6739023283065
 20
341.93032808672541
 30
0.0
 11
483.6739023283065
 21
342.82160827560369
 31
0.0
  0
LINE
  5
99C
  8
0
 10
624.54390179425366
 20
607.07160827560324
 30
0.0
 11
624.60499607830684
 21
607.07160827560324
 31
0.0
  0
LINE
  5
99D
  8
0
 10
624.60499607830684
 20
623.57160827560313
 30
0.0
 11
624.54390179425366
 21
623.57160827560313
 31
0.0
  0
LINE
  5
99E
  8
0
 10
624.60499607830707
 20
623.57160827560176
 30
0.0
 11
624.60499607830707
 21
622.62662465224582
 31
0.0
  0
LINE
  5
99F
  8
0
 10
624.60499607830707
 20
622.62662048724064
 30
0.0
 11
624.60499607830707
 21
620.00814723477561
 31
0.0
  0
LINE
  5
9A0
  8
0
 10
624.60499607830707
 20
620.00814243613377
 30
0.0
 11
624.60499607830707
 21
619.34864977572227
 31
0.0
  0
LINE
  5
9A1
  8
0
 10
624.60499607830707
 20
611.29456076206316
 30
0.0
 11
624.60499607830707
 21
609.14639460319017
 31
0.0
  0
LINE
  5
9A2
  8
0
 10
624.60499607830707
 20
609.14639310885968
 30
0.0
 11
624.60499607830707
 21
608.01659785808988
 31
0.0
  0
LINE
  5
9A3
  8
0
 10
624.60499607830707
 20
608.01659606396288
 30
0.0
 11
624.60499607830707
 21
607.07160827560176
 31
0.0
  0
LINE
  5
9A4
  8
0
 10
624.48390232830695
 20
606.32160827560176
 30
0.0
 11
624.54390232830735
 21
606.32160827560176
 31
0.0
  0
LINE
  5
9A5
  8
0
 10
624.54390232830735
 20
624.32160827560187
 30
0.0
 11
624.48390232830695
 21
624.32160827560187
 31
0.0
  0
LINE
  5
9A6
  8
0
 10
624.5439023283069
 20
624.32160827560119
 30
0.0
 11
624.5439023283069
 21
624.09597034021101
 31
0.0
  0
LINE
  5
9A7
  8
0
 10
624.5439023283069
 20
624.0959594852377
 30
0.0
 11
624.5439023283069
 21
623.43033163281655
 31
0.0
  0
LINE
  5
9A8
  8
0
 10
624.5439023283069
 20
623.43032808672297
 30
0.0
 11
624.5439023283069
 21
622.35809161781356
 31
0.0
  0
LINE
  5
9A9
  8
0
 10
624.5439023283069
 20
622.35808845962731
 30
0.0
 11
624.5439023283069
 21
620.9330164923299
 31
0.0
  0
LINE
  5
9AA
  8
0
 10
624.5439023283069
 20
620.9330128098685
 30
0.0
 11
624.5439023283069
 21
619.32759796853077
 31
0.0
  0
LINE
  5
9AB
  8
0
 10
624.5439023283069
 20
611.31561213276757
 30
0.0
 11
624.5439023283069
 21
609.7102000588726
 31
0.0
  0
LINE
  5
9AC
  8
0
 10
624.5439023283069
 20
609.7101977251765
 30
0.0
 11
624.5439023283069
 21
608.28512493338906
 31
0.0
  0
LINE
  5
9AD
  8
0
 10
624.5439023283069
 20
608.28512198368298
 30
0.0
 11
624.5439023283069
 21
607.21289064195423
 31
0.0
  0
LINE
  5
9AE
  8
0
 10
624.5439023283069
 20
607.21288846447953
 30
0.0
 11
624.5439023283069
 21
606.54725706596491
 31
0.0
  0
LINE
  5
9AF
  8
0
 10
624.5439023283069
 20
606.54725688209908
 30
0.0
 11
624.5439023283069
 21
606.32160827560131
 31
0.0
  0
LINE
  5
9B0
  8
0
 10
483.73390232830678
 20
403.69660827560381
 30
0.0
 11
483.73390232830673
 21
263.94660827560961
 31
0.0
  0
LINE
  5
9B1
  8
0
 10
483.73390232830673
 20
263.94660827560961
 30
0.0
 11
624.48390232830366
 21
263.94660827560932
 31
0.0
  0
LINE
  5
9B2
  8
0
 10
624.48390232830366
 20
263.94660827560932
 30
0.0
 11
624.48390232830411
 21
403.69660827560358
 31
0.0
  0
LINE
  5
9B3
  8
0
 10
624.48390232830411
 20
403.69660827560358
 30
0.0
 11
483.73390232830678
 21
403.69660827560381
 31
0.0
  0
LINE
  5
9B4
  8
0
 10
622.85890232830695
 20
402.07160827560392
 30
0.0
 11
622.85890232830673
 21
265.57160827560398
 31
0.0
1001
ACAD
1000
ASC_BOUNDS
1002
{
1070
    19
1005
A34
1002
}
  0
LINE
  5
9B5
  8
0
 10
622.85890232830673
 20
265.57160827560398
 30
0.0
 11
485.35890232830678
 21
265.57160827560432
 31
0.0
1001
ACAD
1000
ASC_BOUNDS
1002
{
1070
    19
1005
A34
1002
}
  0
LINE
  5
9B6
  8
0
 10
485.35890232830678
 20
265.57160827560432
 30
0.0
 11
485.35890232830701
 21
402.07160827560432
 31
0.0
1001
ACAD
1000
ASC_BOUNDS
1002
{
1070
    19
1005
A34
1002
}
  0
LINE
  5
9B7
  8
0
 10
485.35890232830701
 20
402.07160827560432
 30
0.0
 11
622.85890232830695
 21
402.07160827560392
 31
0.0
1001
ACAD
1000
ASC_BOUNDS
1002
{
1070
    19
1005
A34
1002
}
  0
LINE
  5
9B8
  8
0
 10
624.48390232830343
 20
263.94660827560398
 30
0.0
 11
625.73390232830695
 21
263.94660827560398
 31
0.0
  0
LINE
  5
9B9
  8
0
 10
625.73390232830695
 20
263.94660827560398
 30
0.0
 11
625.73390232830718
 21
403.69660827560381
 31
0.0
  0
LINE
  5
9BA
  8
0
 10
625.73390232830718
 20
403.69660827560381
 30
0.0
 11
624.48390232830388
 21
403.69660827560381
 31
0.0
  0
LINE
  5
9BB
  8
0
 10
483.73390232830752
 20
685.19660827560392
 30
0.0
 11
483.73390232830752
 21
545.44660827560961
 31
0.0
  0
LINE
  5
9BC
  8
0
 10
483.73390232830752
 20
545.44660827560961
 30
0.0
 11
624.48390232830445
 21
545.44660827560926
 31
0.0
  0
LINE
  5
9BD
  8
0
 10
624.48390232830445
 20
545.44660827560926
 30
0.0
 11
624.48390232830479
 21
685.19660827560358
 31
0.0
  0
LINE
  5
9BE
  8
0
 10
624.48390232830479
 20
685.19660827560358
 30
0.0
 11
483.73390232830752
 21
685.19660827560392
 31
0.0
  0
LINE
  5
9BF
  8
0
 10
622.85890232830775
 20
683.57160827560392
 30
0.0
 11
622.85890232830752
 21
547.07160827560404
 31
0.0
1001
ACAD
1000
ASC_BOUNDS
1002
{
1070
    19
1005
A34
1002
}
  0
LINE
  5
9C0
  8
0
 10
622.85890232830752
 20
547.07160827560404
 30
0.0
 11
485.35890232830758
 21
547.07160827560415
 31
0.0
1001
ACAD
1000
ASC_BOUNDS
1002
{
1070
    19
1005
A34
1002
}
  0
LINE
  5
9C1
  8
0
 10
485.35890232830758
 20
547.07160827560415
 30
0.0
 11
485.35890232830781
 21
683.57160827560415
 31
0.0
1001
ACAD
1000
ASC_BOUNDS
1002
{
1070
    19
1005
A34
1002
}
  0
LINE
  5
9C2
  8
0
 10
485.35890232830781
 20
683.57160827560415
 30
0.0
 11
622.85890232830775
 21
683.57160827560392
 31
0.0
1001
ACAD
1000
ASC_BOUNDS
1002
{
1070
    19
1005
A34
1002
}
  0
LINE
  5
9C3
  8
0
 10
624.48390232830434
 20
545.44660827560404
 30
0.0
 11
625.73390232830752
 21
545.44660827560404
 31
0.0
  0
LINE
  5
9C4
  8
0
 10
625.73390232830752
 20
545.44660827560404
 30
0.0
 11
625.73390232830764
 21
685.19660827560381
 31
0.0
  0
LINE
  5
9C5
  8
0
 10
625.73390232830764
 20
685.19660827560381
 30
0.0
 11
624.48390232830479
 21
685.19660827560381
 31
0.0
  0
LINE
  5
9C6
  8
0
 10
515.85890232830695
 20
685.19660827560676
 30
0.0
 11
515.85890232830695
 21
685.44660827560722
 31
0.0
  0
LINE
  5
9C7
  8
0
 10
505.85890232830718
 20
685.44660827560722
 30
0.0
 11
505.85890232830718
 21
685.19660827560676
 31
0.0
  0
LINE
  5
9C8
  8
0
 10
505.8589023283069
 20
685.44660827560676
 30
0.0
 11
506.02926787954181
 21
685.44660827560676
 31
0.0
  0
LINE
  5
9C9
  8
0
 10
506.02927319686148
 20
685.44660827560676
 30
0.0
 11
506.52877530938468
 21
685.44660827560676
 31
0.0
  0
LINE
  5
9CA
  8
0
 10
506.52877630622379
 20
685.44660827560676
 30
0.0
 11
510.85890039899931
 21
685.44660827560676
 31
0.0
  0
LINE
  5
9CB
  8
0
 10
510.8589023283069
 20
685.44660827560676
 30
0.0
 11
512.15299755381955
 21
685.44660827560676
 31
0.0
  0
LINE
  5
9CC
  8
0
 10
512.15299835858025
 20
685.44660827560676
 30
0.0
 11
514.39443623423972
 21
685.44660827560676
 31
0.0
  0
LINE
  5
9CD
  8
0
 10
514.39443845501228
 20
685.44660827560676
 30
0.0
 11
515.18902934722905
 21
685.44660827560676
 31
0.0
  0
LINE
  5
9CE
  8
0
 10
515.18903026070075
 20
685.44660827560676
 30
0.0
 11
515.85890232830695
 21
685.44660827560676
 31
0.0
  0
LINE
  5
9DA
  8
0
 10
624.73390232830707
 20
619.32160827560085
 30
0.0
 11
624.48390232830695
 21
619.32160827560085
 31
0.0
  0
LINE
  5
9DB
  8
0
 10
624.48390232830695
 20
611.32160827560142
 30
0.0
 11
624.73390232830707
 21
611.32160827560142
 31
0.0
  0
LINE
  5
9DC
  8
0
 10
624.73390232830695
 20
337.82160827560062
 30
0.0
 11
624.48390232830695
 21
337.82160827560062
 31
0.0
  0
LINE
  5
9DD
  8
0
 10
624.48390232830695
 20
329.8216082755996
 30
0.0
 11
624.73390232830695
 21
329.8216082755996
 31
0.0
  0
LINE
  5
9DE
  8
0
 10
624.73390232830707
 20
478.57160827560551
 30
0.0
 11
624.48390232830695
 21
478.57160827560551
 31
0.0
  0
LINE
  5
9DF
  8
0
 10
624.48390232830695
 20
470.57160827560591
 30
0.0
 11
624.73390232830707
 21
470.57160827560591
 31
0.0
  0
LINE
  5
9E0
  8
0
 10
624.73390232830707
 20
615.32160809154436
 30
0.0
 11
624.73390232830707
 21
614.28633209519069
 31
0.0
  0
LINE
  5
9E1
  8
0
 10
624.73390232830707
 20
614.28632966071075
 30
0.0
 11
624.73390232830707
 21
613.32160827560074
 31
0.0
  0
LINE
  5
9E2
  8
0
 10
624.73390232830707
 20
613.32160390036051
 30
0.0
 11
624.73390232830707
 21
612.49318115085453
 31
0.0
  0
LINE
  5
9E3
  8
0
 10
624.73390232830707
 20
612.49317738482455
 30
0.0
 11
624.73390232830707
 21
611.85750666046295
 31
0.0
  0
LINE
  5
9E4
  8
0
 10
624.73390232830707
 20
611.85750369190725
 30
0.0
 11
624.73390232830707
 21
611.32160827560074
 31
0.0
  0
LINE
  5
9E5
  8
0
 10
624.73390232830707
 20
619.32160827560074
 30
0.0
 11
624.73390232830707
 21
619.18532154124625
 31
0.0
  0
LINE
  5
9E6
  8
0
 10
624.73390232830707
 20
619.18531158075677
 30
0.0
 11
624.73390232830707
 21
618.78571238244547
 31
0.0
  0
LINE
  5
9E7
  8
0
 10
624.73390232830707
 20
618.78570989073842
 30
0.0
 11
624.73390232830707
 21
618.15003874245338
 31
0.0
  0
LINE
  5
9E8
  8
0
 10
624.73390232830707
 20
618.15003540034695
 30
0.0
 11
624.73390232830707
 21
617.32161225244499
 31
0.0
  0
LINE
  5
9E9
  8
0
 10
624.73390232830707
 20
617.32160827560074
 30
0.0
 11
624.73390232830707
 21
616.35688650891666
 31
0.0
  0
LINE
  5
9EA
  8
0
 10
624.73390232830707
 20
616.35688445601056
 30
0.0
 11
624.73390232830707
 21
615.32160827560074
 31
0.0
  0
LINE
  5
9EB
  8
0
 10
624.73390232830695
 20
333.82160827559869
 30
0.0
 11
624.73390232830695
 21
332.78633355376098
 31
0.0
  0
LINE
  5
9EC
  8
0
 10
624.73390232830695
 20
332.7863320951887
 30
0.0
 11
624.73390232830695
 21
331.82160827559869
 31
0.0
  0
LINE
  5
9ED
  8
0
 10
624.73390232830695
 20
331.82160807640241
 30
0.0
 11
624.73390232830695
 21
329.95790497044243
 31
0.0
  0
LINE
  5
9EE
  8
0
 10
624.73390232830695
 20
329.95790187188021
 30
0.0
 11
624.73390232830695
 21
329.82160827559869
 31
0.0
  0
LINE
  5
9EF
  8
0
 10
624.73390232830695
 20
337.82160827559881
 30
0.0
 11
624.73390232830695
 21
337.28571738082968
 31
0.0
  0
LINE
  5
9F0
  8
0
 10
624.73390232830695
 20
337.2857098907366
 30
0.0
 11
624.73390232830695
 21
334.85688445600891
 31
0.0
  0
LINE
  5
9F1
  8
0
 10
624.73390232830695
 20
334.85687891472372
 30
0.0
 11
624.73390232830695
 21
333.82161195016829
 31
0.0
  0
LINE
  5
9F2
  8
0
 10
624.73390232830695
 20
474.57160712688813
 30
0.0
 11
624.73390232830695
 21
473.53633209519512
 31
0.0
  0
LINE
  5
9F3
  8
0
 10
624.73390232830695
 20
473.53633166057
 30
0.0
 11
624.73390232830695
 21
471.74318115085902
 31
0.0
  0
LINE
  5
9F4
  8
0
 10
624.73390232830695
 20
471.74317960664109
 30
0.0
 11
624.73390232830695
 21
471.10750666046749
 31
0.0
  0
LINE
  5
9F5
  8
0
 10
624.73390232830695
 20
471.1075061911032
 30
0.0
 11
624.73390232830695
 21
470.70790497044902
 31
0.0
  0
LINE
  5
9F6
  8
0
 10
624.73390232830695
 20
470.7079037682991
 30
0.0
 11
624.73390232830695
 21
470.57160827560529
 31
0.0
  0
LINE
  5
9F7
  8
0
 10
624.73390232830695
 20
478.57160827560517
 30
0.0
 11
624.73390232830695
 21
478.4353139556423
 31
0.0
  0
LINE
  5
9F8
  8
0
 10
624.73390232830695
 20
478.43531158076149
 30
0.0
 11
624.73390232830695
 21
478.03571113284579
 31
0.0
  0
LINE
  5
9F9
  8
0
 10
624.73390232830695
 20
478.03570989074302
 30
0.0
 11
624.73390232830695
 21
475.60688550898573
 31
0.0
  0
LINE
  5
9FA
  8
0
 10
624.73390232830695
 20
475.60688445601528
 30
0.0
 11
624.73390232830695
 21
474.57160827560529
 31
0.0
  0
LINE
  5
9FB
  8
0
 10
550.48390232830639
 20
263.6966082756083
 30
0.0
 11
550.48390232830639
 21
263.9466082756046
 31
0.0
  0
LINE
  5
9FC
  8
0
 10
547.48390232830604
 20
263.9466082756046
 30
0.0
 11
547.48390232830604
 21
263.6966082756083
 31
0.0
  0
LINE
  5
9FD
  8
0
 10
489.98390232830621
 20
263.6966082756083
 30
0.0
 11
489.98390232830621
 21
263.9466082756046
 31
0.0
  0
LINE
  5
9FE
  8
0
 10
486.98390232830621
 20
263.9466082756046
 30
0.0
 11
486.98390232830621
 21
263.6966082756083
 31
0.0
  0
LINE
  5
9FF
  8
0
 10
486.10890232830633
 20
263.9466082756046
 30
0.0
 11
486.10890232830633
 21
263.6966082756083
 31
0.0
  0
LINE
  5
A00
  8
0
 10
550.48390232830604
 20
263.69660827560671
 30
0.0
 11
550.43279209402294
 21
263.69660827560671
 31
0.0
  0
LINE
  5
A01
  8
0
 10
550.4327910677398
 20
263.69660827560671
 30
0.0
 11
550.04456250008604
 21
263.69660827560671
 31
0.0
  0
LINE
  5
A02
  8
0
 10
550.04456224411888
 20
263.69660827560671
 30
0.0
 11
548.5956737606524
 21
263.69660827560671
 31
0.0
  0
LINE
  5
A03
  8
0
 10
548.59567291927283
 20
263.69660827560671
 30
0.0
 11
547.92324215652638
 21
263.69660827560671
 31
0.0
  0
LINE
  5
A04
  8
0
 10
547.9232408237566
 20
263.69660827560671
 30
0.0
 11
547.68486422262947
 21
263.69660827560671
 31
0.0
  0
LINE
  5
A05
  8
0
 10
547.68486319883687
 20
263.69660827560671
 30
0.0
 11
547.53501420909527
 21
263.69660827560671
 31
0.0
  0
LINE
  5
A06
  8
0
 10
547.5350135888724
 20
263.69660827560671
 30
0.0
 11
547.48390232830604
 21
263.69660827560671
 31
0.0
  0
LINE
  5
A07
  8
0
 10
489.9839023283061
 20
263.69660827560671
 30
0.0
 11
489.78294043398279
 21
263.69660827560671
 31
0.0
  0
LINE
  5
A08
  8
0
 10
489.78294029204301
 20
263.69660827560671
 30
0.0
 11
489.23390441633239
 21
263.69660827560671
 31
0.0
  0
LINE
  5
A09
  8
0
 10
489.2339023283061
 20
263.69660827560671
 30
0.0
 11
488.87213373720869
 21
263.69660827560671
 31
0.0
  0
LINE
  5
A0A
  8
0
 10
488.87213089595991
 20
263.69660827560671
 30
0.0
 11
488.48390425762318
 21
263.69660827560671
 31
0.0
  0
LINE
  5
A0B
  8
0
 10
488.48390232830621
 20
263.69660827560671
 30
0.0
 11
488.0956748401839
 21
263.69660827560671
 31
0.0
  0
LINE
  5
A0C
  8
0
 10
488.09567376065229
 20
263.69660827560671
 30
0.0
 11
487.18486422262953
 21
263.69660827560671
 31
0.0
  0
LINE
  5
A0D
  8
0
 10
487.18486194924031
 20
263.69660827560671
 30
0.0
 11
487.03501358887257
 21
263.69660827560671
 31
0.0
  0
LINE
  5
A0E
  8
0
 10
487.03501351082582
 20
263.69660827560671
 30
0.0
 11
486.9839023283061
 21
263.69660827560671
 31
0.0
  0
LINE
  5
A0F
  8
0
 10
486.98280147413209
 20
263.69660827560671
 30
0.0
 11
486.85008328320339
 21
263.69660827560671
 31
0.0
  0
LINE
  5
A10
  8
0
 10
486.85008272228578
 20
263.69660827560671
 30
0.0
 11
486.60890412133671
 21
263.69660827560671
 31
0.0
  0
LINE
  5
A11
  8
0
 10
486.60890232830587
 20
263.69660827560671
 30
0.0
 11
486.40179554711949
 21
263.69660827560671
 31
0.0
  0
LINE
  5
A12
  8
0
 10
486.40179465860871
 20
263.69660827560671
 30
0.0
 11
486.24287692452151
 21
263.69660827560671
 31
0.0
  0
LINE
  5
A13
  8
0
 10
486.24287624199559
 20
263.69660827560671
 30
0.0
 11
486.14297650201689
 21
263.69660827560671
 31
0.0
  0
LINE
  5
A14
  8
0
 10
486.14297392144789
 20
263.69660827560671
 30
0.0
 11
486.10890232830587
 21
263.69660827560671
 31
0.0
  0
LINE
  5
A15
  8
0
 10
515.85890232830661
 20
263.6966082756083
 30
0.0
 11
515.85890232830661
 21
263.9466082756046
 31
0.0
  0
LINE
  5
A16
  8
0
 10
505.85890232830639
 20
263.9466082756046
 30
0.0
 11
505.85890232830639
 21
263.6966082756083
 31
0.0
  0
LINE
  5
A17
  8
0
 10
515.85890232830627
 20
263.69660827560671
 30
0.0
 11
515.18903026070132
 21
263.69660827560671
 31
0.0
  0
LINE
  5
A18
  8
0
 10
515.1890293472286
 20
263.69660827560671
 30
0.0
 11
514.39443845501216
 21
263.69660827560671
 31
0.0
  0
LINE
  5
A19
  8
0
 10
514.39443623423904
 20
263.69660827560671
 30
0.0
 11
512.15299835858036
 21
263.69660827560671
 31
0.0
  0
LINE
  5
A1A
  8
0
 10
512.15299755381886
 20
263.69660827560671
 30
0.0
 11
510.85890232830633
 21
263.69660827560671
 31
0.0
  0
LINE
  5
A1B
  8
0
 10
510.8589003989992
 20
263.69660827560671
 30
0.0
 11
506.52877630622362
 21
263.69660827560671
 31
0.0
  0
LINE
  5
A1C
  8
0
 10
506.52877530938412
 20
263.69660827560671
 30
0.0
 11
506.02927319686103
 21
263.69660827560671
 31
0.0
  0
LINE
  5
A1D
  8
0
 10
506.02926787954198
 20
263.69660827560671
 30
0.0
 11
505.85890232830633
 21
263.69660827560671
 31
0.0
  0
INSERT
  5
A34
  8
0
  6
CONTINUOUS
  2
*X4
 10
0.0
 20
0.0
 30
0.0
1001
GRADIENTCOLOR1ACI
1070
     5
1001
GRADIENTCOLOR2ACI
1070
     2
1001
ACAD
1000
HATCH
1002
{
1070
    19
1000
ANSI31
1040
12.0
1040
2.3561944901923439
1000
ASC_BOUNDS
1070
     3
1070
     1
1070
     4
1005
9B4
1005
9B5
1005
9B6
1005
9B7
1070
     1
1070
     4
1005
97C
1005
97D
1005
97E
1005
97F
1070
     1
1070
     4
1005
9BF
1005
9C0
1005
9C1
1005
9C2
1000
ASC_SEEDPOINT
1011
530.23272696442473
1021
0.0
1031
0.0
1021
642.12402673687302
1031
0.0
1000
R14_HATCH_DATA
1000
A34
1011
1.0
1021
0.0
1031
0.0
1021
0.0
1031
0.0
1011
0.0
1021
0.0
1031
0.0
1021
1.0
1031
0.0
1011
0.0
1021
0.0
1031
0.0
1021
0.0
1031
1.0
1040
0.0
1010
0.0
1020
0.0
1030
1.0
1000
ANSI31
1070
     0
1070
     1
1071
        3
1071
        7
1070
     0
1070
     1
1071
        4
1040
485.35890232830781
1040
683.57160827560415
1040
485.35890232830758
1040
547.07160827560415
1040
622.85890232830752
1040
547.07160827560404
1040
622.85890232830775
1040
683.57160827560392
1071
        4
1005
9C2
1005
9C1
1005
9C0
1005
9BF
1071
        7
1070
     0
1070
     1
1071
        4
1040
622.85890232830684
1040
406.32160827560688
1040
622.85890232830695
1040
542.82160827560676
1040
485.35890232830712
1040
542.8216082756071
1040
485.3589023283069
1040
406.3216082756071
1071
        4
1005
97F
1005
97E
1005
97D
1005
97C
1071
        7
1070
     0
1070
     1
1071
        4
1040
485.35890232830701
1040
402.07160827560432
1040
485.35890232830678
1040
265.57160827560432
1040
622.85890232830673
1040
265.57160827560398
1040
622.85890232830695
1040
402.07160827560392
1071
        4
1005
9B7
1005
9B6
1005
9B5
1005
9B4
1070
     1
1070
     1
1040
2.3561944901923439
1040
12.0
1070
     0
1070
     1
1040
3.1415926535897931
1040
0.0
1040
39.5
1040
-0.0000000000000002
1040
-1.5
1070
     0
1040
0.7272599590228328
1071
        3
1040
530.23272696442473
1040
642.12402673687302
1040
0.0
1040
546.6328421200933
1040
464.00385618088848
1040
0.0
1040
537.17389856781801
1040
357.09664225488592
1040
0.0
1002
}
  0
INSERT
  5
A74
  8
0
  6
CONTINUOUS
  2
*X5
 10
0.0
 20
0.0
 30
0.0
1001
GRADIENTCOLOR1ACI
1070
     5
1001
GRADIENTCOLOR2ACI
1070
     2
1001
ACAD
1000
HATCH
1002
{
1070
    19
1000
NET
1040
12.0
1040
0.0
1000
ASC_BOUNDS
1070
    12
1070
     1
1070
     4
1005
796
1005
797
1005
78A
1005
795
1070
     1
1070
     4
1005
790
1005
797
1005
78E
1005
795
1070
     1
1070
     4
1005
788
1005
797
1005
786
1005
795
1070
     1
1070
     4
1005
783
1005
797
1005
794
1005
795
1070
     1
1070
     4
1005
6DA
1005
6DB
1005
6CE
1005
6D9
1070
     1
1070
     4
1005
6D4
1005
6DB
1005
6D2
1005
6D9
1070
     1
1070
     4
1005
6CC
1005
6DB
1005
6CA
1005
6D9
1070
     1
1070
     4
1005
6C7
1005
6DB
1005
6D8
1005
6D9
1070
     1
1070
     4
1005
75D
1005
75E
1005
751
1005
75C
1070
     1
1070
     4
1005
757
1005
75E
1005
755
1005
75C
1070
     1
1070
     4
1005
74F
1005
75E
1005
74D
1005
75C
1070
     1
1070
     4
1005
74A
1005
75E
1005
75B
1005
75C
1000
ASC_SEEDPOINT
1011
696.98598017503616
1021
0.0
1031
0.0
1021
76.835345770751246
1031
0.0
1000
R14_HATCH_DATA
1000
A74
1011
1.0
1021
0.0
1031
0.0
1021
0.0
1031
0.0
1011
0.0
1021
0.0
1031
0.0
1021
1.0
1031
0.0
1011
0.0
1021
0.0
1031
0.0
1021
0.0
1031
1.0
1040
0.0
1010
0.0
1020
0.0
1030
1.0
1000
NET
1070
     0
1070
     1
1071
       12
1071
        7
1070
     0
1070
     1
1071
        4
1040
704.08069858695274
1040
98.375004503757282
1040
690.83069858695285
1040
98.375004503757125
1040
690.83069858695399
1040
4.000004503756613
1040
704.08069858695274
1040
4.0000045037567551
1071
        4
1005
75C
1005
75B
1005
75E
1005
74A
1071
        7
1070
     0
1070
     1
1071
        4
1040
746.07792055812695
1040
98.375004503757694
1040
730.08069858695364
1040
98.375004503757566
1040
730.08069858695364
1040
4.0000045037570109
1040
746.07792055812695
1040
4.0000045037571823
1071
        4
1005
75C
1005
74D
1005
75E
1005
74F
1071
        7
1070
     0
1070
     1
1071
        4
1040
788.089698241625
1040
98.375004503758163
1040
772.07318418770012
1040
98.375004503757992
1040
772.07318418770012
1040
4.0000045037574523
1040
788.089698241625
1040
4.0000045037576077
1071
        4
1005
75C
1005
755
1005
75E
1005
757
1071
        7
1070
     0
1070
     1
1071
        4
1040
827.33069858695285
1040
98.375004503758575
1040
814.07271390372273
1040
98.375004503758433
1040
814.07271390372273
1040
4.0000045037578777
1040
827.33069858695399
1040
4.0000045037580199
1071
        4
1005
75C
1005
751
1005
75E
1005
75D
1071
        7
1070
     0
1070
     1
1071
        4
1040
844.83069858695546
1040
98.375004503757282
1040
831.58069858695603
1040
98.375004503757125
1040
831.58069858695694
1040
4.000004503756613
1040
844.83069858695546
1040
4.0000045037567551
1071
        4
1005
6D9
1005
6D8
1005
6DB
1005
6C7
1071
        7
1070
     0
1070
     1
1071
        4
1040
886.82792055812945
1040
98.375004503757722
1040
870.83069858695637
1040
98.375004503757566
1040
870.83069858695637
1040
4.0000045037570109
1040
886.82792055812945
1040
4.0000045037571681
1071
        4
1005
6D9
1005
6CA
1005
6DB
1005
6CC
1071
        7
1070
     0
1070
     1
1071
        4
1040
928.83969824162762
1040
98.375004503758163
1040
912.82318418770285
1040
98.375004503757992
1040
912.82318418770285
1040
4.0000045037574523
1040
928.83969824162762
1040
4.0000045037576077
1071
        4
1005
6D9
1005
6D2
1005
6DB
1005
6D4
1071
        7
1070
     0
1070
     1
1071
        4
1040
968.08069858695603
1040
98.375004503758575
1040
954.82271390372546
1040
98.375004503758433
1040
954.82271390372546
1040
4.0000045037578777
1040
968.08069858695694
1040
4.0000045037580199
1071
        4
1005
6D9
1005
6CE
1005
6DB
1005
6DA
1071
        7
1070
     0
1070
     1
1071
        4
1040
985.58069858695274
1040
98.375004503757282
1040
972.33069858695285
1040
98.375004503757125
1040
972.33069858695387
1040
4.000004503756613
1040
985.58069858695274
1040
4.0000045037567551
1071
        4
1005
795
1005
794
1005
797
1005
783
1071
        7
1070
     0
1070
     1
1071
        4
1040
1027.5779205581271
1040
98.375004503757722
1040
1011.580698586953
1040
98.375004503757566
1040
1011.580698586953
1040
4.0000045037570109
1040
1027.5779205581271
1040
4.0000045037571681
1071
        4
1005
795
1005
786
1005
797
1005
788
1071
        7
1070
     0
1070
     1
1071
        4
1040
1069.589698241625
1040
98.375004503758163
1040
1053.5731841877
1040
98.375004503757992
1040
1053.5731841877
1040
4.0000045037574523
1040
1069.589698241625
1040
4.0000045037576077
1071
        4
1005
795
1005
78E
1005
797
1005
790
1071
        7
1070
     0
1070
     1
1071
        4
1040
1108.8306985869531
1040
98.375004503758575
1040
1095.5727139037219
1040
98.375004503758433
1040
1095.5727139037219
1040
4.0000045037578777
1040
1108.830698586954
1040
4.0000045037580199
1071
        4
1005
795
1005
78A
1005
797
1005
796
1070
     1
1070
     1
1040
0.0
1040
12.0
1070
     0
1070
     2
1040
0.0
1040
0.0
1040
0.0
1040
0.0
1040
1.5
1070
     0
1040
1.5707963267948959
1040
0.0
1040
0.0
1040
-1.5
1040
0.0000000000000001
1070
     0
1040
0.1793331784912051
1071
       12
1040
696.98598017503616
1040
76.835345770751246
1040
0.0
1040
738.4319375253026
1040
80.601343307939942
1040
0.0
1040
779.33963579362126
1040
72.172683811432307
1040
0.0
1040
818.8119765100804
1040
67.868686409792872
1040
0.0
1040
837.29220767038032
1040
66.434022123212117
1040
0.0
1040
878.73816502064619
1040
63.564690522119008
1040
0.0
1040
922.51657839268455
1040
59.081360841639928
1040
0.0
1040
961.76596377382828
1040
56.750627121494972
1040
0.0
1040
980.24619493412763
1040
58.364625200881157
1040
0.0
1040
1019.718535650587
1040
57.10929319314004
1040
0.0
1040
1062.779272926801
1040
54.419295384852603
1040
0.0
1040
1102.4310306571369
1040
53.701963241562218
1040
0.0
1002
}
  0
ENDSEC
  0
EOF
