  0
SECTION
  2
HEADER
  9
$ACADVER
  1
AC1018
  9
$ACADMAINTVER
 70
   104
  9
$DWGCODEPAGE
  3
ANSI_1252
  9
$AUTHOR
  1
U. Name
  9
$REVISIONNUMBER
  1
Z
  9
$CUSTOMPROPERTYTAG
  1
Manager
  9
$CUSTOMPROPERTY
  1

  9
$CUSTOMPROPERTYTAG
  1
Company
  9
$CUSTOMPROPERTY
  1

  9
$CUSTOMPROPERTYTAG
  1
Category
  9
$CUSTOMPROPERTY
  1

  9
$CUSTOMPROPERTYTAG
  1
Part Number
  9
$CUSTOMPROPERTY
  1
Scaled Schematic Views
  9
$CUSTOMPROPERTYTAG
  1
Description
  9
$CUSTOMPROPERTY
  1

  9
$CUSTOMPROPERTYTAG
  1
Project
  9
$CUSTOMPROPERTY
  1

  9
$CUSTOMPROPERTYTAG
  1
Designer
  9
$CUSTOMPROPERTY
  1
U. Name
  9
$CUSTOMPROPERTYTAG
  1
Engineer
  9
$CUSTOMPROPERTY
  1

  9
$CUSTOMPROPERTYTAG
  1
Authority
  9
$CUSTOMPROPERTY
  1

  9
$CUSTOMPROPERTYTAG
  1
Cost Center
  9
$CUSTOMPROPERTY
  1

  9
$CUSTOMPROPERTYTAG
  1
Vendor
  9
$CUSTOMPROPERTY
  1

  9
$CUSTOMPROPERTYTAG
  1
User Status
  9
$CUSTOMPROPERTY
  1

  9
$CUSTOMPROPERTYTAG
  1
Design Status
  9
$CUSTOMPROPERTY
  1
WorkInProgress
  9
$CUSTOMPROPERTYTAG
  1
Checked by
  9
$CUSTOMPROPERTY
  1

  9
$CUSTOMPROPERTYTAG
  1
Engr Approved by
  9
$CUSTOMPROPERTY
  1
 
  9
$CUSTOMPROPERTYTAG
  1
Mfg Approved by
  9
$CUSTOMPROPERTY
  1

  9
$CUSTOMPROPERTYTAG
  1
Drawing Designator
  9
$CUSTOMPROPERTY
  1

  9
$CUSTOMPROPERTYTAG
  1
Cut Size
  9
$CUSTOMPROPERTY
  1
                   
  9
$CUSTOMPROPERTYTAG
  1
Makes
  9
$CUSTOMPROPERTY
  1
1
  9
$CUSTOMPROPERTYTAG
  1
Source Code
  9
$CUSTOMPROPERTY
  1
M
  9
$CUSTOMPROPERTYTAG
  1
Unit of Measure
  9
$CUSTOMPROPERTY
  1
EA
  9
$CUSTOMPROPERTYTAG
  1
MTL Component #1
  9
$CUSTOMPROPERTY
  1

  9
$CUSTOMPROPERTYTAG
  1
MTL Component #2
  9
$CUSTOMPROPERTY
  1

  9
$CUSTOMPROPERTYTAG
  1
MTL Component #3
  9
$CUSTOMPROPERTY
  1

  9
$CUSTOMPROPERTYTAG
  1
MTL Option #1
  9
$CUSTOMPROPERTY
  1
M3
  9
$CUSTOMPROPERTYTAG
  1
MTL Option #2
  9
$CUSTOMPROPERTY
  1
M5
  9
$CUSTOMPROPERTYTAG
  1
MTL Option #3
  9
$CUSTOMPROPERTY
  1
MG
  9
$CUSTOMPROPERTYTAG
  1
MTL Description #1
  9
$CUSTOMPROPERTY
  1

  9
$CUSTOMPROPERTYTAG
  1
MTL Description #2
  9
$CUSTOMPROPERTY
  1

  9
$CUSTOMPROPERTYTAG
  1
MTL Description #3
  9
$CUSTOMPROPERTY
  1

  9
$CUSTOMPROPERTYTAG
  1
Assembly Type
  9
$CUSTOMPROPERTY
  1
1
  9
$INSBASE
 10
0.0
 20
0.0
 30
0.0
  9
$EXTMIN
 10
0.0
 20
0.0
 30
0.0
  9
$EXTMAX
 10
1100.0
 20
850.0
 30
0.0
  9
$LIMMIN
 10
0.0
 20
0.0
  9
$LIMMAX
 10
1100.0
 20
850.0
  9
$ORTHOMODE
 70
     0
  9
$REGENMODE
 70
     1
  9
$FILLMODE
 70
     1
  9
$QTEXTMODE
 70
     0
  9
$MIRRTEXT
 70
     0
  9
$LTSCALE
 40
100.0
  9
$ATTMODE
 70
     1
  9
$TEXTSIZE
 40
0.2
  9
$TRACEWID
 40
0.05
  9
$TEXTSTYLE
  7
Standard
  9
$CLAYER
  8
0
  9
$CELTYPE
  6
ByLayer
  9
$CECOLOR
 62
   256
  9
$CELTSCALE
 40
1.0
  9
$DISPSILH
 70
     0
  9
$DIMSCALE
 40
1.0
  9
$DIMASZ
 40
0.0708661417322835
  9
$DIMEXO
 40
0.0625
  9
$DIMDLI
 40
0.38
  9
$DIMRND
 40
0.0
  9
$DIMDLE
 40
0.0
  9
$DIMEXE
 40
0.18
  9
$DIMTP
 40
0.0
  9
$DIMTM
 40
0.0
  9
$DIMTXT
 40
0.2540000081062317
  9
$DIMCEN
 40
0.09
  9
$DIMTSZ
 40
0.0
  9
$DIMTOL
 70
     0
  9
$DIMLIM
 70
     0
  9
$DIMTIH
 70
     1
  9
$DIMTOH
 70
     1
  9
$DIMSE1
 70
     0
  9
$DIMSE2
 70
     0
  9
$DIMTAD
 70
     0
  9
$DIMZIN
 70
     0
  9
$DIMBLK
  1

  9
$DIMASO
 70
     1
  9
$DIMSHO
 70
     1
  9
$DIMPOST
  1

  9
$DIMAPOST
  1

  9
$DIMALT
 70
     0
  9
$DIMALTD
 70
     2
  9
$DIMALTF
 40
25.4
  9
$DIMLFAC
 40
1.0
  9
$DIMTOFL
 70
     0
  9
$DIMTVP
 40
0.0
  9
$DIMTIX
 70
     0
  9
$DIMSOXD
 70
     0
  9
$DIMSAH
 70
     0
  9
$DIMBLK1
  1

  9
$DIMBLK2
  1

  9
$DIMSTYLE
  2
Standard
  9
$DIMCLRD
 70
     0
  9
$DIMCLRE
 70
     0
  9
$DIMCLRT
 70
     0
  9
$DIMTFAC
 40
1.0
  9
$DIMGAP
 40
0.09
  9
$DIMJUST
 70
     0
  9
$DIMSD1
 70
     0
  9
$DIMSD2
 70
     0
  9
$DIMTOLJ
 70
     1
  9
$DIMTZIN
 70
     0
  9
$DIMALTZ
 70
     0
  9
$DIMALTTZ
 70
     0
  9
$DIMUPT
 70
     0
  9
$DIMDEC
 70
     4
  9
$DIMTDEC
 70
     4
  9
$DIMALTU
 70
     2
  9
$DIMALTTD
 70
     2
  9
$DIMTXSTY
  7
Standard
  9
$DIMAUNIT
 70
     0
  9
$DIMADEC
 70
     0
  9
$DIMALTRND
 40
0.0
  9
$DIMAZIN
 70
     0
  9
$DIMDSEP
 70
    46
  9
$DIMATFIT
 70
     3
  9
$DIMFRAC
 70
     0
  9
$DIMLDRBLK
  1

  9
$DIMLUNIT
 70
     2
  9
$DIMLWD
 70
    -2
  9
$DIMLWE
 70
    -2
  9
$DIMTMOVE
 70
     0
  9
$LUNITS
 70
     2
  9
$LUPREC
 70
     4
  9
$SKETCHINC
 40
0.1
  9
$FILLETRAD
 40
0.0
  9
$AUNITS
 70
     0
  9
$AUPREC
 70
     0
  9
$MENU
  1
.
  9
$ELEVATION
 40
0.0
  9
$PELEVATION
 40
0.0
  9
$THICKNESS
 40
0.0
  9
$LIMCHECK
 70
     0
  9
$CHAMFERA
 40
0.0
  9
$CHAMFERB
 40
0.0
  9
$CHAMFERC
 40
0.0
  9
$CHAMFERD
 40
0.0
  9
$SKPOLY
 70
     0
  9
$TDCREATE
 40
2455741.705699618
  9
$TDUCREATE
 40
2455741.872366285
  9
$TDUPDATE
 40
2455741.705699618
  9
$TDUUPDATE
 40
2455741.872366285
  9
$TDINDWG
 40
0.0000244097
  9
$TDUSRTIMER
 40
0.0000244097
  9
$USRTIMER
 70
     1
  9
$ANGBASE
 50
0.0
  9
$ANGDIR
 70
     0
  9
$PDMODE
 70
     0
  9
$PDSIZE
 40
0.0
  9
$PLINEWID
 40
0.0
  9
$SPLFRAME
 70
     0
  9
$SPLINETYPE
 70
     6
  9
$SPLINESEGS
 70
     8
  9
$HANDSEED
  5
69B
  9
$SURFTAB1
 70
     6
  9
$SURFTAB2
 70
     6
  9
$SURFTYPE
 70
     6
  9
$SURFU
 70
     6
  9
$SURFV
 70
     6
  9
$UCSBASE
  2

  9
$UCSNAME
  2

  9
$UCSORG
 10
0.0
 20
0.0
 30
0.0
  9
$UCSXDIR
 10
1.0
 20
0.0
 30
0.0
  9
$UCSYDIR
 10
0.0
 20
1.0
 30
0.0
  9
$UCSORTHOREF
  2

  9
$UCSORTHOVIEW
 70
     0
  9
$UCSORGTOP
 10
0.0
 20
0.0
 30
0.0
  9
$UCSORGBOTTOM
 10
0.0
 20
0.0
 30
0.0
  9
$UCSORGLEFT
 10
0.0
 20
0.0
 30
0.0
  9
$UCSORGRIGHT
 10
0.0
 20
0.0
 30
0.0
  9
$UCSORGFRONT
 10
0.0
 20
0.0
 30
0.0
  9
$UCSORGBACK
 10
0.0
 20
0.0
 30
0.0
  9
$PUCSBASE
  2

  9
$PUCSNAME
  2

  9
$PUCSORG
 10
0.0
 20
0.0
 30
0.0
  9
$PUCSXDIR
 10
1.0
 20
0.0
 30
0.0
  9
$PUCSYDIR
 10
0.0
 20
1.0
 30
0.0
  9
$PUCSORTHOREF
  2

  9
$PUCSORTHOVIEW
 70
     0
  9
$PUCSORGTOP
 10
0.0
 20
0.0
 30
0.0
  9
$PUCSORGBOTTOM
 10
0.0
 20
0.0
 30
0.0
  9
$PUCSORGLEFT
 10
0.0
 20
0.0
 30
0.0
  9
$PUCSORGRIGHT
 10
0.0
 20
0.0
 30
0.0
  9
$PUCSORGFRONT
 10
0.0
 20
0.0
 30
0.0
  9
$PUCSORGBACK
 10
0.0
 20
0.0
 30
0.0
  9
$USERI1
 70
     0
  9
$USERI2
 70
     0
  9
$USERI3
 70
     0
  9
$USERI4
 70
     0
  9
$USERI5
 70
     0
  9
$USERR1
 40
0.0
  9
$USERR2
 40
0.0
  9
$USERR3
 40
0.0
  9
$USERR4
 40
0.0
  9
$USERR5
 40
0.0
  9
$WORLDVIEW
 70
     1
  9
$SHADEDGE
 70
     3
  9
$SHADEDIF
 70
    70
  9
$TILEMODE
 70
     1
  9
$MAXACTVP
 70
    64
  9
$PINSBASE
 10
0.0
 20
0.0
 30
0.0
  9
$PLIMCHECK
 70
     0
  9
$PEXTMIN
 10
0.0
 20
0.0
 30
0.0
  9
$PEXTMAX
 10
1100.0
 20
850.0
 30
0.0
  9
$PLIMMIN
 10
0.0
 20
0.0
  9
$PLIMMAX
 10
1100.0
 20
850.0
  9
$UNITMODE
 70
     0
  9
$VISRETAIN
 70
     1
  9
$PLINEGEN
 70
     0
  9
$PSLTSCALE
 70
     1
  9
$TREEDEPTH
 70
  3020
  9
$CMLSTYLE
  2
Standard
  9
$CMLJUST
 70
     0
  9
$CMLSCALE
 40
1.0
  9
$PROXYGRAPHICS
 70
     1
  9
$MEASUREMENT
 70
     0
  9
$CELWEIGHT
370
    -1
  9
$ENDCAPS
280
     0
  9
$JOINSTYLE
280
     0
  9
$LWDISPLAY
290
     0
  9
$INSUNITS
 70
     1
  9
$HYPERLINKBASE
  1

  9
$STYLESHEET
  1

  9
$XEDIT
290
     1
  9
$CEPSNTYPE
380
     0
  9
$PSTYLEMODE
290
     1
  9
$FINGERPRINTGUID
  2
{3E63D851-7F2E-4B4D-A8E1-3E91CEE3CB50}
  9
$VERSIONGUID
  2
{93BA426F-64CA-40EC-9B0F-84AF6E6AF235}
  9
$EXTNAMES
290
     1
  9
$PSVPSCALE
 40
0.0
  9
$OLESTARTUP
290
     0
  9
$SORTENTS
280
   127
  9
$INDEXCTL
280
     0
  9
$HIDETEXT
280
     1
  9
$XCLIPFRAME
290
     0
  9
$HALOGAP
280
     0
  9
$OBSCOLOR
 70
   257
  9
$OBSLTYPE
280
     0
  9
$INTERSECTIONDISPLAY
280
     0
  9
$INTERSECTIONCOLOR
 70
   257
  9
$DIMASSOC
280
     1
  9
$PROJECTNAME
  1

  0
ENDSEC
  0
SECTION
  2
CLASSES
  0
CLASS
  1
ACDBDICTIONARYWDFLT
  2
AcDbDictionaryWithDefault
  3
ObjectDBX Classes
 90
        0
 91
        1
280
     0
281
     0
  0
CLASS
  1
MATERIAL
  2
AcDbMaterial
  3
ObjectDBX Classes
 90
     1153
 91
        3
280
     0
281
     0
  0
CLASS
  1
VISUALSTYLE
  2
AcDbVisualStyle
  3
ObjectDBX Classes
 90
     4095
 91
       24
280
     0
281
     0
  0
CLASS
  1
SCALE
  2
AcDbScale
  3
ObjectDBX Classes
 90
     1153
 91
       17
280
     0
281
     0
  0
CLASS
  1
TABLESTYLE
  2
AcDbTableStyle
  3
ObjectDBX Classes
 90
     4095
 91
        1
280
     0
281
     0
  0
CLASS
  1
MLEADERSTYLE
  2
AcDbMLeaderStyle
  3
ACDB_MLEADERSTYLE_CLASS
 90
     4095
 91
        1
280
     0
281
     0
  0
CLASS
  1
DICTIONARYVAR
  2
AcDbDictionaryVar
  3
ObjectDBX Classes
 90
        0
 91
        8
280
     0
281
     0
  0
CLASS
  1
CELLSTYLEMAP
  2
AcDbCellStyleMap
  3
ObjectDBX Classes
 90
     1152
 91
        1
280
     0
281
     0
  0
ENDSEC
  0
SECTION
  2
TABLES
  0
TABLE
  2
VPORT
  5
8
330
0
100
AcDbSymbolTable
 70
     1
  0
VPORT
  5
57
330
8
100
AcDbSymbolTableRecord
100
AcDbViewportTableRecord
  2
*Active
 70
     0
 10
0.0
 20
0.0
 11
1.0
 21
1.0
 12
550.0
 22
425.0
 13
0.0
 23
0.0
 14
1.0
 24
1.0
 15
0.0
 25
0.0
 16
0.0
 26
0.0
 36
1.0
 17
0.0
 27
0.0
 37
0.0
 40
850.0
 41
1.294117647058823
 42
50.0
 43
0.0
 44
0.0
 50
0.0
 51
0.0
 71
     0
 72
   100
 73
     1
 74
     1
 75
     0
 76
     0
 77
     0
 78
     0
281
     0
 65
     1
110
0.0
120
0.0
130
0.0
111
1.0
121
0.0
131
0.0
112
0.0
122
1.0
132
0.0
 79
     0
146
0.0
  0
ENDTAB
  0
TABLE
  2
LTYPE
  5
5
330
0
100
AcDbSymbolTable
 70
     1
  0
LTYPE
  5
5B
330
5
100
AcDbSymbolTableRecord
100
AcDbLinetypeTableRecord
  2
ByBlock
 70
     0
  3

 72
    65
 73
     0
 40
0.0
  0
LTYPE
  5
5C
330
5
100
AcDbSymbolTableRecord
100
AcDbLinetypeTableRecord
  2
ByLayer
 70
     0
  3

 72
    65
 73
     0
 40
0.0
  0
LTYPE
  5
5D
330
5
100
AcDbSymbolTableRecord
100
AcDbLinetypeTableRecord
  2
Continuous
 70
     0
  3
Solid line
 72
    65
 73
     0
 40
0.0
  0
ENDTAB
  0
TABLE
  2
LAYER
  5
2
330
0
100
AcDbSymbolTable
 70
    59
  0
LAYER
  5
54
330
2
100
AcDbSymbolTableRecord
100
AcDbLayerTableRecord
  2
0
 70
     0
 62
     7
  6
Continuous
370
    -3
390
F
  0
LAYER
  5
88
330
2
100
AcDbSymbolTableRecord
100
AcDbLayerTableRecord
  2
Hatch
 70
     0
 62
   179
420
  1973831
  6
Continuous
370
     9
390
F
  0
LAYER
  5
98
330
2
100
AcDbSymbolTableRecord
100
AcDbLayerTableRecord
  2
Sketch Geometry(BAC Assy)
 70
     0
 62
     7
  6
Continuous
370
    35
390
F
  0
LAYER
  5
9D
330
2
100
AcDbSymbolTableRecord
100
AcDbLayerTableRecord
  2
Symbol (ANSI)
 70
     0
 62
     7
  6
Continuous
370
    25
390
F
  0
LAYER
  5
9E
330
2
100
AcDbSymbolTableRecord
100
AcDbLayerTableRecord
  2
Symbols(BAC Assy)
 70
     0
 62
     7
  6
Continuous
370
    25
390
F
  0
LAYER
  5
A4
330
2
100
AcDbSymbolTableRecord
100
AcDbLayerTableRecord
  2
Visible (ANSI)
 70
     0
 62
     7
  6
Continuous
370
    35
390
F
  0
ENDTAB
  0
TABLE
  2
STYLE
  5
3
330
0
100
AcDbSymbolTable
 70
    15
  0
STYLE
  5
55
330
3
100
AcDbSymbolTableRecord
100
AcDbTextStyleTableRecord
  2
Standard
 70
     0
 40
0.0
 41
1.0
 50
0.0
 71
     0
 42
0.2
  3
TAHOMA.TTF
  4

1001
ACAD
1000
Tahoma
1071
      256
  0
STYLE
  5
5A
330
3
100
AcDbSymbolTableRecord
100
AcDbTextStyleTableRecord
  2
Annotative
 70
     0
 40
0.0
 41
1.0
 50
0.0
 71
     0
 42
0.2
  3
txt
  4

1001
AcadAnnotative
1000
AnnotativeData
1002
{
1070
     1
1070
     1
1002
}
  0
STYLE
  5
AE
330
3
100
AcDbSymbolTableRecord
100
AcDbTextStyleTableRecord
  2
BAC Rev
 70
     0
 40
0.0
 41
1.0
 50
0.0
 71
     0
 42
0.2
  3
ARIALN.TTF
  4

1001
ACAD
1000
Arial Narrow
1071
      256
  0
STYLE
  5
AF
330
3
100
AcDbSymbolTableRecord
100
AcDbTextStyleTableRecord
  2
BAC Text
 70
     0
 40
0.0
 41
1.0
 50
0.0
 71
     0
 42
0.2
  3
TAHOMA.TTF
  4

1001
ACAD
1000
Tahoma
1071
      256
  0
STYLE
  5
B0
330
3
100
AcDbSymbolTableRecord
100
AcDbTextStyleTableRecord
  2
Border_1
 70
     0
 40
0.0
 41
1.0
 50
0.0
 71
     0
 42
0.2
  3
ARIAL.TTF
  4

1001
ACAD
1000
Arial
1071
      256
  0
STYLE
  5
B1
330
3
100
AcDbSymbolTableRecord
100
AcDbTextStyleTableRecord
  2
Current-ANSI
 70
     0
 40
0.0
 41
1.0
 50
0.0
 71
     0
 42
0.2
  3
ARIAL.TTF
  4

1001
ACAD
1000
Arial
1071
      256
  0
STYLE
  5
B2
330
3
100
AcDbSymbolTableRecord
100
AcDbTextStyleTableRecord
  2
Current-ANSI-BAC Part
 70
     0
 40
0.0
 41
1.0
 50
0.0
 71
     0
 42
0.2
  3
ARIAL.TTF
  4

1001
ACAD
1000
Arial
1071
      256
  0
STYLE
  5
B3
330
3
100
AcDbSymbolTableRecord
100
AcDbTextStyleTableRecord
  2
Current-ANSI-BAC Part-BAC Assy
 70
     0
 40
0.0
 41
1.0
 50
0.0
 71
     0
 42
0.2
  3
monos.ttf
  4

1001
ACAD
1000
Monospac821 BT
1071
      256
  0
STYLE
  5
B4
330
3
100
AcDbSymbolTableRecord
100
AcDbTextStyleTableRecord
  2
DEFAULT-BAC Assy
 70
     0
 40
0.0
 41
1.0
 50
0.0
 71
     0
 42
0.2
  3
ARIAL.TTF
  4

1001
ACAD
1000
Arial
1071
      256
  0
STYLE
  5
B5
330
3
100
AcDbSymbolTableRecord
100
AcDbTextStyleTableRecord
  2
DEFAULT-BAC AssyBigText
 70
     0
 40
0.0
 41
1.0
 50
0.0
 71
     0
 42
0.2
  3
ARIAL.TTF
  4

1001
ACAD
1000
Arial
1071
      256
  0
STYLE
  5
B6
330
3
100
AcDbSymbolTableRecord
100
AcDbTextStyleTableRecord
  2
DEFAULT-BAC AssyByLayer
 70
     0
 40
0.0
 41
1.0
 50
0.0
 71
     0
 42
0.2
  3
ARIAL.TTF
  4

1001
ACAD
1000
Arial
1071
      256
  0
STYLE
  5
B7
330
3
100
AcDbSymbolTableRecord
100
AcDbTextStyleTableRecord
  2
DEFAULT-BAC Part~0
 70
     0
 40
0.0
 41
1.0
 50
0.0
 71
     0
 42
0.2
  3
ARIAL.TTF
  4

1001
ACAD
1000
Arial
1071
      256
  0
STYLE
  5
B8
330
3
100
AcDbSymbolTableRecord
100
AcDbTextStyleTableRecord
  2
Label Text (ANSI)
 70
     0
 40
0.0
 41
1.0
 50
0.0
 71
     0
 42
0.2
  3
TAHOMA.TTF
  4

1001
ACAD
1000
Tahoma
1071
      256
  0
STYLE
  5
B9
330
3
100
AcDbSymbolTableRecord
100
AcDbTextStyleTableRecord
  2
Note Text (ANSI)
 70
     0
 40
0.0
 41
1.0
 50
0.0
 71
     0
 42
0.2
  3
TAHOMA.TTF
  4

1001
ACAD
1000
Tahoma
1071
      256
  0
STYLE
  5
105
330
3
100
AcDbSymbolTableRecord
100
AcDbTextStyleTableRecord
  2
Text Style74
 70
     0
 40
0.0
 41
1.0
 50
0.0
 71
     0
 42
0.2
  3
monos.ttf
  4

1001
ACAD
1000
Monospac821 BT
1071
      256
  0
ENDTAB
  0
TABLE
  2
VIEW
  5
6
330
0
100
AcDbSymbolTable
 70
     0
  0
ENDTAB
  0
TABLE
  2
UCS
  5
7
330
0
100
AcDbSymbolTable
 70
     0
  0
ENDTAB
  0
TABLE
  2
APPID
  5
9
330
0
100
AcDbSymbolTable
 70
     4
  0
APPID
  5
56
330
9
100
AcDbSymbolTableRecord
100
AcDbRegAppTableRecord
  2
ACAD
 70
     0
  0
APPID
  5
5E
330
9
100
AcDbSymbolTableRecord
100
AcDbRegAppTableRecord
  2
AcadAnnotative
 70
     0
  0
APPID
  5
FF
330
9
100
AcDbSymbolTableRecord
100
AcDbRegAppTableRecord
  2
AcadAnnoPO
 70
     0
  0
APPID
  5
69A
330
9
100
AcDbSymbolTableRecord
100
AcDbRegAppTableRecord
  2
ACAD_MLEADERVER
 70
     0
  0
ENDTAB
  0
TABLE
  2
DIMSTYLE
  5
A
330
0
100
AcDbSymbolTable
 70
    17
100
AcDbDimStyleTable
 71
     0
  0
DIMSTYLE
105
58
330
A
100
AcDbSymbolTableRecord
100
AcDbDimStyleTableRecord
  2
Standard
 70
     0
340
55
  0
DIMSTYLE
105
59
330
A
100
AcDbSymbolTableRecord
100
AcDbDimStyleTableRecord
  2
Annotative
 70
     0
340
55
1001
AcadAnnotative
1000
AnnotativeData
1002
{
1070
     1
1070
     1
1002
}
  0
DIMSTYLE
105
BA
330
A
100
AcDbSymbolTableRecord
100
AcDbDimStyleTableRecord
  2
BAC Global - in [0.000]
 70
     0
 40
100.0
 41
0.0984251946210861
 42
0.03125
 43
0.25
 44
0.0625
 45
0.00000001
 46
0.3125
 73
     0
 78
     3
 79
     1
140
0.1000000014901161
143
1.0
147
0.031496062992126
170
     1
171
     3
176
   256
177
   256
178
   256
271
     6
272
     2
274
     3
276
     2
277
     5
284
     4
285
     4
286
     4
340
B9
371
    -1
372
    -1
  0
DIMSTYLE
105
BB
330
A
100
AcDbSymbolTableRecord
100
AcDbDimStyleTableRecord
  2
BAC Global - in [0.000]$7
 70
     0
 40
100.0
 41
0.0984251946210861
 42
0.03125
 43
0.25
 44
0.0625
 45
0.00000001
 46
0.3125
 73
     0
 78
     3
 79
     1
140
0.1000000014901161
143
1.0
147
0.031496062992126
170
     1
171
     3
176
   256
177
   256
178
   256
271
     6
272
     2
274
     3
276
     2
277
     5
284
     4
285
     4
286
     4
340
B9
371
    -1
372
    -1
  0
DIMSTYLE
105
BC
330
A
100
AcDbSymbolTableRecord
100
AcDbDimStyleTableRecord
  2
DEFAULT-BAC Assy
 70
     0
 40
100.0
 41
0.0984251946210861
 43
0.2362204724409449
 44
0.125
 45
0.00000001
 46
0.3937007874015748
140
0.1200000047683716
147
0.031496062992126
171
     1
176
   250
177
   250
178
   256
271
     2
272
     2
274
     1
340
B7
371
    25
372
    25
  0
DIMSTYLE
105
BD
330
A
100
AcDbSymbolTableRecord
100
AcDbDimStyleTableRecord
  2
DEFAULT-BAC Assy$7
 70
     0
 40
100.0
 41
0.0984251946210861
 43
0.2362204724409449
 44
0.125
 45
0.00000001
 46
0.3937007874015748
140
0.1200000047683716
147
0.031496062992126
171
     1
176
   256
177
   250
178
   256
271
     2
272
     2
274
     1
340
B7
371
    25
372
    25
  0
DIMSTYLE
105
BE
330
A
100
AcDbSymbolTableRecord
100
AcDbDimStyleTableRecord
  2
DEFAULT-BAC AssyBigText
 70
     0
 40
100.0
 41
0.1968503892421722
 43
0.2362204724409449
 44
0.125
 45
0.00000001
 46
0.3937007874015748
140
0.1799999922513962
146
0.666666721856155
147
0.031496062992126
171
     1
176
   250
177
   250
178
   256
271
     2
272
     2
274
     1
340
B5
371
    25
372
    25
  0
DIMSTYLE
105
BF
330
A
100
AcDbSymbolTableRecord
100
AcDbDimStyleTableRecord
  2
DEFAULT-BAC AssyBigText$7
 70
     0
 40
100.0
 41
0.1968503892421722
 43
0.2362204724409449
 44
0.125
 45
0.00000001
 46
0.3937007874015748
140
0.1799999922513962
146
0.666666721856155
147
0.031496062992126
171
     1
176
   256
177
   250
178
   256
271
     2
272
     2
274
     1
340
B5
371
    25
372
    25
  0
DIMSTYLE
105
C0
330
A
100
AcDbSymbolTableRecord
100
AcDbDimStyleTableRecord
  2
Default (ANSI)
 70
     0
 40
100.0
 41
0.0984251946210861
 43
0.2362204724409449
 44
0.125
 45
0.00000001
 46
0.3937007874015748
 78
     4
 79
     1
140
0.1000000014901161
146
1.200000029802321
147
0.031496062992126
171
     1
176
   256
177
   256
178
   256
271
     2
272
     2
274
     1
284
     4
285
     4
340
B9
371
    -1
372
    -1
  0
DIMSTYLE
105
C1
330
A
100
AcDbSymbolTableRecord
100
AcDbDimStyleTableRecord
  2
Default (ANSI)$7
 70
     0
 40
100.0
 41
0.0984251946210861
 43
0.2362204724409449
 44
0.125
 45
0.00000001
 46
0.3937007874015748
 78
     4
 79
     1
140
0.1000000014901161
146
1.200000029802321
147
0.031496062992126
171
     1
176
   256
177
   256
178
   256
271
     2
272
     2
274
     1
284
     4
285
     4
340
B9
371
    -1
372
    -1
  0
DIMSTYLE
105
C2
330
A
100
AcDbSymbolTableRecord
100
AcDbDimStyleTableRecord
  2
Alternate (ANSI)
 70
     0
 40
100.0
 41
0.0979999974370003
340
55
342
C3
  0
DIMSTYLE
105
D4
330
A
100
AcDbSymbolTableRecord
100
AcDbDimStyleTableRecord
  2
Datum (ANSI)
 70
     0
 40
100.0
 41
0.0979999974370003
340
55
342
C3
  0
DIMSTYLE
105
E3
330
A
100
AcDbSymbolTableRecord
100
AcDbDimStyleTableRecord
  2
Large (ANSI)
 70
     0
 40
100.0
 41
0.1959999948740005
340
55
342
C3
  0
DIMSTYLE
105
E4
330
A
100
AcDbSymbolTableRecord
100
AcDbDimStyleTableRecord
  2
Leader-Datum(BAC Assy)
 70
     0
 40
100.0
 41
0.0984251946210861
340
55
342
C3
  0
DIMSTYLE
105
E5
330
A
100
AcDbSymbolTableRecord
100
AcDbDimStyleTableRecord
  2
Leader-Dot(BAC Assy)
 70
     0
 40
100.0
 41
0.0984251946210861
340
55
342
C3
  0
DIMSTYLE
105
E6
330
A
100
AcDbSymbolTableRecord
100
AcDbDimStyleTableRecord
  2
Leader-OriginIndicator(BAC Assy)
 70
     0
 40
100.0
 41
0.0984251946210861
340
55
342
C3
  0
DIMSTYLE
105
E7
330
A
100
AcDbSymbolTableRecord
100
AcDbDimStyleTableRecord
  2
Leader(BAC Assy)
 70
     0
 40
100.0
 41
0.0984251946210861
340
55
342
C3
  0
ENDTAB
  0
TABLE
  2
BLOCK_RECORD
  5
1
330
0
100
AcDbSymbolTable
 70
     6
  0
BLOCK_RECORD
  5
6C
330
1
100
AcDbSymbolTableRecord
100
AcDbBlockTableRecord
  2
*Model_Space
340
6F
  0
BLOCK_RECORD
  5
68
330
1
100
AcDbSymbolTableRecord
100
AcDbBlockTableRecord
  2
*Paper_Space
340
6B
  0
BLOCK_RECORD
  5
70
330
1
100
AcDbSymbolTableRecord
100
AcDbBlockTableRecord
  2
*Paper_Space0
340
73
  0
BLOCK_RECORD
  5
C3
330
1
100
AcDbSymbolTableRecord
100
AcDbBlockTableRecord
  2
_Closed
340
0
  0
BLOCK_RECORD
  5
CA
330
1
100
AcDbSymbolTableRecord
100
AcDbBlockTableRecord
  2
DatumFilled45
340
0
  0
BLOCK_RECORD
  5
D5
330
1
100
AcDbSymbolTableRecord
100
AcDbBlockTableRecord
  2
Filled-1
340
0
  0
BLOCK_RECORD
  5
E8
330
1
100
AcDbSymbolTableRecord
100
AcDbBlockTableRecord
  2
SECTION SYMBOL
340
0
  0
BLOCK_RECORD
  5
101
330
1
100
AcDbSymbolTableRecord
100
AcDbBlockTableRecord
  2
Revision Bubble
340
0
  0
ENDTAB
  0
ENDSEC
  0
SECTION
  2
BLOCKS
  0
BLOCK
  5
6D
330
6C
100
AcDbEntity
  8
0
100
AcDbBlockBegin
  2
*Model_Space
 70
     0
 10
0.0
 20
0.0
 30
0.0
  3
*Model_Space
  1

  0
ENDBLK
  5
6E
330
6C
100
AcDbEntity
  8
0
100
AcDbBlockEnd
  0
BLOCK
  5
69
330
68
100
AcDbEntity
 67
     1
  8
0
100
AcDbBlockBegin
  2
*Paper_Space
 70
     0
 10
0.0
 20
0.0
 30
0.0
  3
*Paper_Space
  1

  0
ENDBLK
  5
6A
330
68
100
AcDbEntity
 67
     1
  8
0
100
AcDbBlockEnd
  0
BLOCK
  5
71
330
70
100
AcDbEntity
 67
     1
  8
0
100
AcDbBlockBegin
  2
*Paper_Space0
 70
     0
 10
0.0
 20
0.0
 30
0.0
  3
*Paper_Space0
  1

  0
ENDBLK
  5
72
330
70
100
AcDbEntity
 67
     1
  8
0
100
AcDbBlockEnd
  0
BLOCK
  5
C8
330
C3
100
AcDbEntity
  8
0
100
AcDbBlockBegin
  2
_Closed
 70
     0
 10
0.0
 20
0.0
 30
0.0
  3
_Closed
  1

  0
LINE
  5
C4
330
C3
100
AcDbEntity
  8
0
  6
ByBlock
 62
     0
370
    -2
100
AcDbLine
 10
-1.0
 20
0.1666666666666666
 30
0.0
 11
0.0
 21
0.0
 31
0.0
  0
LINE
  5
C5
330
C3
100
AcDbEntity
  8
0
  6
ByBlock
 62
     0
370
    -2
100
AcDbLine
 10
0.0
 20
0.0
 30
0.0
 11
-1.0
 21
-0.1666666666666666
 31
0.0
  0
LINE
  5
C6
330
C3
100
AcDbEntity
  8
0
  6
ByBlock
 62
     0
370
    -2
100
AcDbLine
 10
-1.0
 20
0.1666666666666666
 30
0.0
 11
-1.0
 21
-0.1666666666666666
 31
0.0
  0
LINE
  5
C7
330
C3
100
AcDbEntity
  8
0
  6
ByBlock
 62
     0
370
    -2
100
AcDbLine
 10
0.0
 20
0.0
 30
0.0
 11
-1.0
 21
0.0
 31
0.0
  0
ENDBLK
  5
C9
330
C3
100
AcDbEntity
  8
0
100
AcDbBlockEnd
  0
BLOCK
  5
CB
330
CA
100
AcDbEntity
  8
0
100
AcDbBlockBegin
  2
DatumFilled45
 70
     0
 10
0.0
 20
0.0
 30
0.0
  3
DatumFilled45
  1

  0
POLYLINE
  5
CD
330
CA
100
AcDbEntity
  8
0
 62
     0
100
AcDb2dPolyline
 66
     1
 10
0.0
 20
0.0
 30
0.0
 70
   128
  0
VERTEX
  5
CE
330
CD
100
AcDbEntity
  8
0
 62
     0
100
AcDbVertex
100
AcDb2dVertex
 10
0.0
 20
0.9999999999999998
 30
0.0
  0
VERTEX
  5
CF
330
CD
100
AcDbEntity
  8
0
 62
     0
100
AcDbVertex
100
AcDb2dVertex
 10
0.0
 20
-0.9999999999999998
 30
0.0
  0
VERTEX
  5
D1
330
CD
100
AcDbEntity
  8
0
 62
     0
100
AcDbVertex
100
AcDb2dVertex
 10
-0.9999999999999998
 20
0.0
 30
0.0
  0
VERTEX
  5
D2
330
CD
100
AcDbEntity
  8
0
 62
     0
100
AcDbVertex
100
AcDb2dVertex
 10
0.0
 20
0.9999999999999998
 30
0.0
  0
SEQEND
  5
D0
330
CD
100
AcDbEntity
  8
0
 62
     0
  0
SOLID
  5
D3
330
CA
100
AcDbEntity
  8
0
 62
     0
100
AcDbTrace
 10
0.0
 20
0.9999999999999998
 30
0.0
 11
0.0
 21
-0.9999999999999998
 31
0.0
 12
-0.9999999999999998
 22
0.0
 32
0.0
 13
0.0
 23
0.9999999999999998
 33
0.0
  0
ENDBLK
  5
CC
330
CA
100
AcDbEntity
  8
0
100
AcDbBlockEnd
  0
BLOCK
  5
D6
330
D5
100
AcDbEntity
  8
0
100
AcDbBlockBegin
  2
Filled-1
 70
     0
 10
0.0
 20
0.0
 30
0.0
  3
Filled-1
  1

  0
LINE
  5
D8
330
D5
100
AcDbEntity
  8
0
 62
     0
100
AcDbLine
 10
-0.9999999999999998
 20
0.0
 30
0.0
 11
0.0
 21
0.0
 31
0.0
  0
POLYLINE
  5
D9
330
D5
100
AcDbEntity
  8
0
 62
     0
100
AcDb2dPolyline
 66
     1
 10
0.0
 20
0.0
 30
0.0
 70
   128
  0
VERTEX
  5
DA
330
D9
100
AcDbEntity
  8
0
 62
     0
100
AcDbVertex
100
AcDb2dVertex
 10
-0.9999999999999998
 20
-0.0994897959183674
 30
0.0
  0
VERTEX
  5
DB
330
D9
100
AcDbEntity
  8
0
 62
     0
100
AcDbVertex
100
AcDb2dVertex
 10
0.0
 20
0.0
 30
0.0
  0
VERTEX
  5
DD
330
D9
100
AcDbEntity
  8
0
 62
     0
100
AcDbVertex
100
AcDb2dVertex
 10
-0.9999999999999998
 20
0.0994897959183674
 30
0.0
  0
VERTEX
  5
DE
330
D9
100
AcDbEntity
  8
0
 62
     0
100
AcDbVertex
100
AcDb2dVertex
 10
-0.9999999999999998
 20
-0.0994897959183674
 30
0.0
  0
SEQEND
  5
DC
330
D9
100
AcDbEntity
  8
0
 62
     0
  0
SOLID
  5
DF
330
D5
100
AcDbEntity
  8
0
 62
     0
100
AcDbTrace
 10
-0.9999999999999998
 20
-0.0994897959183674
 30
0.0
 11
0.0
 21
0.0
 31
0.0
 12
-0.9999999999999998
 22
0.0994897959183674
 32
0.0
 13
-0.9999999999999998
 23
-0.0994897959183674
 33
0.0
  0
LINE
  5
E0
330
D5
100
AcDbEntity
  8
0
 62
     0
100
AcDbLine
 10
-0.9999999999999998
 20
-0.0994897959183674
 30
0.0
 11
0.0
 21
0.0
 31
0.0
  0
LINE
  5
E1
330
D5
100
AcDbEntity
  8
0
 62
     0
100
AcDbLine
 10
0.0
 20
0.0
 30
0.0
 11
-0.9999999999999998
 21
0.0994897959183674
 31
0.0
  0
LINE
  5
E2
330
D5
100
AcDbEntity
  8
0
 62
     0
100
AcDbLine
 10
-0.9999999999999998
 20
0.0994897959183674
 30
0.0
 11
-0.9999999999999998
 21
-0.0994897959183674
 31
0.0
  0
ENDBLK
  5
D7
330
D5
100
AcDbEntity
  8
0
100
AcDbBlockEnd
  0
BLOCK
  5
E9
330
E8
100
AcDbEntity
  8
0
100
AcDbBlockBegin
  2
SECTION SYMBOL
 70
     2
 10
0.0
 20
0.0
 30
0.0
  3
SECTION SYMBOL
  1

  0
HATCH
  5
EE
330
E8
100
AcDbEntity
  8
Hatch
 62
     7
100
AcDbHatch
 10
0.0
 20
0.0
 30
0.0
210
0.0
220
0.0
230
1.0
  2
SOLID
 70
     1
 71
     0
 91
        1
 92
        1
 93
        3
 72
     1
 10
-0.6705530757778919
 20
-0.3750000000000002
 11
-0.6393030757778916
 21
-0.2499999999999999
 72
     1
 10
-0.6393030757778915
 20
-0.2499999999999999
 11
-0.7018030757778916
 21
-0.2499999999999999
 72
     1
 10
-0.7018030757778917
 20
-0.2499999999999999
 11
-0.6705530757778919
 21
-0.3750000000000002
 97
        0
 75
     0
 76
     1
 98
        1
 10
0.0
 20
0.0
450
        0
451
        0
460
0.0
461
0.0
452
        0
462
0.0
453
        0
470

  0
HATCH
  5
F2
330
E8
100
AcDbEntity
  8
Hatch
 62
     7
100
AcDbHatch
 10
0.0
 20
0.0
 30
0.0
210
0.0
220
0.0
230
1.0
  2
SOLID
 70
     1
 71
     0
 91
        1
 92
        1
 93
        3
 72
     1
 10
0.6705530757778928
 20
-0.3750000000000002
 11
0.7018030757778924
 21
-0.2499999999999999
 72
     1
 10
0.7018030757778924
 20
-0.2499999999999999
 11
0.6393030757778926
 21
-0.2499999999999999
 72
     1
 10
0.6393030757778926
 20
-0.2499999999999999
 11
0.6705530757778928
 21
-0.3750000000000002
 97
        0
 75
     0
 76
     1
 98
        1
 10
0.0
 20
0.0
450
        0
451
        0
460
0.0
461
0.0
452
        0
462
0.0
453
        0
470

  0
LINE
  5
F3
330
E8
100
AcDbEntity
  8
Sketch Geometry(BAC Assy)
100
AcDbLine
 10
-0.6705530757778919
 20
-0.3750000000000002
 30
0.0
 11
-0.6393030757778915
 21
-0.2499999999999999
 31
0.0
  0
LINE
  5
F4
330
E8
100
AcDbEntity
  8
Sketch Geometry(BAC Assy)
100
AcDbLine
 10
-0.6393030757778915
 20
-0.2499999999999999
 30
0.0
 11
-0.7018030757778917
 21
-0.2499999999999999
 31
0.0
  0
LINE
  5
F5
330
E8
100
AcDbEntity
  8
Sketch Geometry(BAC Assy)
100
AcDbLine
 10
-0.7018030757778917
 20
-0.2499999999999999
 30
0.0
 11
-0.6705530757778919
 21
-0.3750000000000002
 31
0.0
  0
LINE
  5
F6
330
E8
100
AcDbEntity
  8
Sketch Geometry(BAC Assy)
100
AcDbLine
 10
0.6705530757778928
 20
-0.3750000000000002
 30
0.0
 11
0.7018030757778924
 21
-0.2499999999999999
 31
0.0
  0
LINE
  5
F7
330
E8
100
AcDbEntity
  8
Sketch Geometry(BAC Assy)
100
AcDbLine
 10
0.7018030757778924
 20
-0.2499999999999999
 30
0.0
 11
0.6393030757778926
 21
-0.2499999999999999
 31
0.0
  0
LINE
  5
F8
330
E8
100
AcDbEntity
  8
Sketch Geometry(BAC Assy)
100
AcDbLine
 10
0.6393030757778926
 20
-0.2499999999999999
 30
0.0
 11
0.6705530757778928
 21
-0.3750000000000002
 31
0.0
  0
LINE
  5
F9
330
E8
100
AcDbEntity
  8
Sketch Geometry(BAC Assy)
100
AcDbLine
 10
-0.6705530757778919
 20
-0.3750000000000002
 30
0.0
 11
-0.6705530757778919
 21
0.3750000000000002
 31
0.0
  0
LINE
  5
FA
330
E8
100
AcDbEntity
  8
Sketch Geometry(BAC Assy)
100
AcDbLine
 10
-0.6705530757778919
 20
0.3750000000000002
 30
0.0
 11
0.6705530757778922
 21
0.3750000000000002
 31
0.0
  0
LINE
  5
FB
330
E8
100
AcDbEntity
  8
Sketch Geometry(BAC Assy)
100
AcDbLine
 10
0.6705530757778928
 20
-0.3750000000000002
 30
0.0
 11
0.6705530757778922
 21
0.3750000000000002
 31
0.0
  0
ATTDEF
  5
FC
102
{ACAD_XDICTIONARY
360
659
102
}
330
E8
100
AcDbEntity
  8
Symbols(BAC Assy)
 62
     7
100
AcDbText
 10
-0.8051012470333162
 20
-0.3561459447744604
 30
0.0
 40
0.093999997837337
  1

  7
Current-ANSI-BAC Part-BAC Assy
 72
     1
 11
-0.8051012470333162
 21
-0.3091459458557919
 31
0.0
100
AcDbAttributeDefinition
  3
Enter Prompt for Field
  2
Enter_Prompt_for_Field
 70
     0
 74
     2
  0
ATTDEF
  5
100
102
{ACAD_XDICTIONARY
360
65C
102
}
330
E8
100
AcDbEntity
  8
Symbols(BAC Assy)
 62
     7
100
AcDbText
 10
1.424328237886467
 20
-0.343271853321809
 30
0.0
 40
0.093999997837337
  1

  7
Current-ANSI-BAC Part-BAC Assy
 72
     2
 11
1.424328237886467
 21
-0.249271855484472
 31
0.0
100
AcDbAttributeDefinition
  3
Enter Prompt for Field
  2
Enter_Prompt_for_Field
 70
     0
 74
     3
  0
ENDBLK
  5
EA
330
E8
100
AcDbEntity
  8
0
100
AcDbBlockEnd
  0
BLOCK
  5
102
330
101
100
AcDbEntity
  8
0
100
AcDbBlockBegin
  2
Revision Bubble
 70
     2
 10
0.0
 20
0.0
 30
0.0
  3
Revision Bubble
  1

  0
CIRCLE
  5
104
330
101
100
AcDbEntity
  8
Sketch Geometry(BAC Assy)
100
AcDbCircle
 10
0.0
 20
0.0
 30
0.0
 40
0.125
  0
ATTDEF
  5
106
102
{ACAD_XDICTIONARY
360
65F
102
}
330
101
100
AcDbEntity
  8
Symbols(BAC Assy)
 62
   179
420
  2500185
100
AcDbText
 10
-0.7268032520252535
 20
-0.0478732029608019
 30
0.0
 40
0.093999997837337
  1
Rev Level
  7
Text Style74
100
AcDbAttributeDefinition
  3
Rev Level
  2
Rev_Level_001
 70
     0
  0
ATTDEF
  5
107
102
{ACAD_XDICTIONARY
360
662
102
}
330
101
100
AcDbEntity
  8
Symbols(BAC Assy)
 62
   179
420
  2500185
100
AcDbText
 10
-0.0101206886784616
 20
-0.0478732029608019
 30
0.0
 40
0.093999997837337
  1
Line Number
  7
Text Style74
100
AcDbAttributeDefinition
  3
Line Number
  2
Line_Number_001
 70
     0
  0
ENDBLK
  5
103
330
101
100
AcDbEntity
  8
0
100
AcDbBlockEnd
  0
ENDSEC
  0
SECTION
  2
ENTITIES
  0
ARC
  5
108
330
6C
100
AcDbEntity
  8
Visible (ANSI)
100
AcDbCircle
 10
350.1007811876042
 20
588.8451885881254
 30
0.0
 40
1.74999999999999
100
AcDbArc
 50
90.0
 51
270.0
  0
LINE
  5
109
330
6C
100
AcDbEntity
  8
Visible (ANSI)
100
AcDbLine
 10
351.8581405004849
 20
590.5951885881254
 30
0.0
 11
352.3507811876044
 21
590.5951885881254
 31
0.0
  0
LINE
  5
10A
330
6C
100
AcDbEntity
  8
Visible (ANSI)
100
AcDbLine
 10
351.8581405004849
 20
587.0951885881255
 30
0.0
 11
352.3507811876044
 21
587.0951885881255
 31
0.0
  0
LINE
  5
10B
330
6C
100
AcDbEntity
  8
Visible (ANSI)
100
AcDbLine
 10
351.8581405004849
 20
590.5951885881254
 30
0.0
 11
350.1007811876042
 21
590.5951885881254
 31
0.0
  0
LINE
  5
10C
330
6C
100
AcDbEntity
  8
Visible (ANSI)
100
AcDbLine
 10
350.1007811876042
 20
587.0951885881255
 30
0.0
 11
351.8581405004849
 21
587.0951885881255
 31
0.0
  0
ARC
  5
10D
330
6C
100
AcDbEntity
  8
Visible (ANSI)
100
AcDbCircle
 10
350.1007811876042
 20
588.8451885881254
 30
0.0
 40
2.187499999999986
100
AcDbArc
 50
53.13010235415672
 51
306.8698976458444
  0
LINE
  5
10E
330
6C
100
AcDbEntity
  8
Visible (ANSI)
100
AcDbLine
 10
364.3507811876055
 20
542.2201885881257
 30
0.0
 11
364.3507811876055
 21
541.5951885881257
 31
0.0
  0
LINE
  5
10F
330
6C
100
AcDbEntity
  8
Visible (ANSI)
100
AcDbLine
 10
364.3507811876055
 20
541.5951885881257
 30
0.0
 11
431.6007811876038
 21
541.5951885881257
 31
0.0
  0
LINE
  5
110
330
6C
100
AcDbEntity
  8
Visible (ANSI)
100
AcDbLine
 10
431.6007811876038
 20
542.2201885881257
 30
0.0
 11
431.6007811876038
 21
541.5951885881257
 31
0.0
  0
LINE
  5
111
330
6C
100
AcDbEntity
  8
Visible (ANSI)
100
AcDbLine
 10
433.8507811876038
 20
643.3451885881252
 30
0.0
 11
433.8507811876038
 21
541.5951885881257
 31
0.0
  0
LINE
  5
112
330
6C
100
AcDbEntity
  8
Visible (ANSI)
100
AcDbLine
 10
362.1007811876042
 20
643.3451885881252
 30
0.0
 11
362.7257811876043
 21
643.3451885881252
 31
0.0
  0
LINE
  5
113
330
6C
100
AcDbEntity
  8
Visible (ANSI)
100
AcDbLine
 10
433.225781187604
 20
643.3451885881252
 30
0.0
 11
433.8507811876038
 21
643.3451885881252
 31
0.0
  0
LINE
  5
114
330
6C
100
AcDbEntity
  8
Visible (ANSI)
100
AcDbLine
 10
362.1007811876042
 20
541.5951885881257
 30
0.0
 11
362.1007811876042
 21
544.095188588126
 31
0.0
  0
LINE
  5
115
330
6C
100
AcDbEntity
  8
Visible (ANSI)
100
AcDbLine
 10
362.1007811876042
 20
593.0951885881256
 30
0.0
 11
362.1007811876042
 21
609.5951885881254
 31
0.0
  0
LINE
  5
116
330
6C
100
AcDbEntity
  8
Visible (ANSI)
100
AcDbLine
 10
362.1007811876042
 20
614.0951885881254
 30
0.0
 11
362.1007811876042
 21
643.3451885881252
 31
0.0
  0
LINE
  5
117
330
6C
100
AcDbEntity
  8
Visible (ANSI)
100
AcDbLine
 10
433.8507811876038
 20
541.5951885881257
 30
0.0
 11
431.6007811876038
 21
541.5951885881257
 31
0.0
  0
LINE
  5
118
330
6C
100
AcDbEntity
  8
Visible (ANSI)
100
AcDbLine
 10
364.3507811876056
 20
541.5951885881257
 30
0.0
 11
362.1007811876042
 21
541.5951885881257
 31
0.0
  0
LINE
  5
119
330
6C
100
AcDbEntity
  8
Visible (ANSI)
100
AcDbLine
 10
351.3507811876042
 20
592.9076885881254
 30
0.0
 11
352.3507811876044
 21
592.9076885881254
 31
0.0
  0
LINE
  5
11A
330
6C
100
AcDbEntity
  8
Visible (ANSI)
100
AcDbLine
 10
351.5382811876043
 20
584.5951885881255
 30
0.0
 11
352.3507811876044
 21
584.5951885881255
 31
0.0
  0
LINE
  5
11B
330
6C
100
AcDbEntity
  8
Visible (ANSI)
100
AcDbLine
 10
351.3507811876042
 20
592.9076885881254
 30
0.0
 11
351.3507811876042
 21
590.6403644151686
 31
0.0
  0
LINE
  5
11C
330
6C
100
AcDbEntity
  8
Visible (ANSI)
100
AcDbLine
 10
351.5382811876043
 20
587.0951885881255
 30
0.0
 11
351.5382811876043
 21
584.5951885881255
 31
0.0
  0
LINE
  5
11D
330
6C
100
AcDbEntity
  8
Visible (ANSI)
100
AcDbLine
 10
351.5382811876043
 20
584.5951885881255
 30
0.0
 11
351.0811744064178
 21
584.138081806939
 31
0.0
  0
ARC
  5
11E
330
6C
100
AcDbEntity
  8
Visible (ANSI)
100
AcDbCircle
 10
351.7882811876043
 20
583.4309750257524
 30
0.0
 40
1.000000000000036
100
AcDbArc
 50
135.0
 51
180.0
  0
LINE
  5
11F
330
6C
100
AcDbEntity
  8
Visible (ANSI)
100
AcDbLine
 10
350.7882811876042
 20
583.4309750257524
 30
0.0
 11
350.7882811876042
 21
575.9701885881255
 31
0.0
  0
ARC
  5
120
330
6C
100
AcDbEntity
  8
Visible (ANSI)
100
AcDbCircle
 10
352.7882811876043
 20
575.9701885881255
 30
0.0
 40
1.99999999999999
100
AcDbArc
 50
180.0
 51
257.3643749069835
  0
LINE
  5
121
330
6C
100
AcDbEntity
  8
Visible (ANSI)
100
AcDbLine
 10
356.3507811876043
 20
606.8451885881254
 30
0.0
 11
356.3507811876043
 21
593.0951885881256
 31
0.0
  0
LINE
  5
122
330
6C
100
AcDbEntity
  8
Visible (ANSI)
100
AcDbLine
 10
351.8507811876043
 20
606.8451885881254
 30
0.0
 11
351.8507811876043
 21
592.9076885881254
 31
0.0
  0
ARC
  5
123
330
6C
100
AcDbEntity
  8
Visible (ANSI)
100
AcDbCircle
 10
359.1007811876043
 20
606.8451885881254
 30
0.0
 40
7.249999999999914
100
AcDbArc
 50
90.0
 51
180.0
  0
ARC
  5
124
330
6C
100
AcDbEntity
  8
Visible (ANSI)
100
AcDbCircle
 10
359.1007811876043
 20
606.8451885881254
 30
0.0
 40
2.749999999999936
100
AcDbArc
 50
90.0
 51
180.0
  0
LINE
  5
125
330
6C
100
AcDbEntity
  8
Visible (ANSI)
100
AcDbLine
 10
362.7257811876042
 20
609.5951885881254
 30
0.0
 11
359.1007811876042
 21
609.5951885881254
 31
0.0
  0
LINE
  5
126
330
6C
100
AcDbEntity
  8
Visible (ANSI)
100
AcDbLine
 10
362.7257811876042
 20
614.0951885881254
 30
0.0
 11
359.1007811876042
 21
614.0951885881254
 31
0.0
  0
LINE
  5
127
330
6C
100
AcDbEntity
  8
Visible (ANSI)
100
AcDbLine
 10
366.2257811876041
 20
579.8451885881256
 30
0.0
 11
366.2257811876041
 21
587.8451885881258
 31
0.0
  0
LINE
  5
128
330
6C
100
AcDbEntity
  8
Visible (ANSI)
100
AcDbLine
 10
429.7257811876041
 20
579.8451885881255
 30
0.0
 11
366.2257811876041
 21
579.8451885881256
 31
0.0
  0
LINE
  5
129
330
6C
100
AcDbEntity
  8
Visible (ANSI)
100
AcDbLine
 10
429.7257811876041
 20
587.8451885881258
 30
0.0
 11
429.7257811876041
 21
579.8451885881255
 31
0.0
  0
LINE
  5
12A
330
6C
100
AcDbEntity
  8
Visible (ANSI)
100
AcDbLine
 10
366.2257811876041
 20
587.8451885881258
 30
0.0
 11
377.3622427055774
 21
587.8451885881258
 31
0.0
  0
LINE
  5
12B
330
6C
100
AcDbEntity
  8
Visible (ANSI)
100
AcDbLine
 10
418.5893196696309
 20
587.8451885881258
 30
0.0
 11
429.7257811876041
 21
587.8451885881258
 31
0.0
  0
LINE
  5
12C
330
6C
100
AcDbEntity
  8
Visible (ANSI)
100
AcDbLine
 10
429.7257811876041
 20
587.8451885881258
 30
0.0
 11
433.2257811876042
 21
587.8451885881258
 31
0.0
  0
LINE
  5
12D
330
6C
100
AcDbEntity
  8
Visible (ANSI)
100
AcDbLine
 10
362.7257811876041
 20
587.8451885881258
 30
0.0
 11
366.2257811876041
 21
587.8451885881258
 31
0.0
  0
LINE
  5
12E
330
6C
100
AcDbEntity
  8
Visible (ANSI)
100
AcDbLine
 10
362.7257811876041
 20
542.2201885881257
 30
0.0
 11
362.7257811876041
 21
544.0951885881258
 31
0.0
  0
LINE
  5
12F
330
6C
100
AcDbEntity
  8
Visible (ANSI)
100
AcDbLine
 10
433.2257811876042
 20
587.8451885881258
 30
0.0
 11
433.225781187604
 21
542.2201885881257
 31
0.0
  0
LINE
  5
130
330
6C
100
AcDbEntity
  8
Visible (ANSI)
100
AcDbLine
 10
433.225781187604
 20
542.2201885881257
 30
0.0
 11
362.7257811876041
 21
542.2201885881257
 31
0.0
  0
LINE
  5
131
330
6C
100
AcDbEntity
  8
Visible (ANSI)
100
AcDbLine
 10
362.7257811876041
 20
593.0951885881256
 30
0.0
 11
352.3507811876041
 21
593.0951885881256
 31
0.0
  0
LINE
  5
132
330
6C
100
AcDbEntity
  8
Visible (ANSI)
100
AcDbLine
 10
362.7257811876041
 20
587.8451885881258
 30
0.0
 11
362.7257811876041
 21
593.0951885881256
 31
0.0
  0
LINE
  5
133
330
6C
100
AcDbEntity
  8
Visible (ANSI)
100
AcDbLine
 10
352.3507811876041
 20
593.0951885881256
 30
0.0
 11
352.350781187604
 21
544.0951885881258
 31
0.0
  0
LINE
  5
134
330
6C
100
AcDbEntity
  8
Visible (ANSI)
100
AcDbLine
 10
352.350781187604
 20
544.0951885881258
 30
0.0
 11
362.7257811876041
 21
544.0951885881258
 31
0.0
  0
LINE
  5
135
330
6C
100
AcDbEntity
  8
Visible (ANSI)
100
AcDbLine
 10
431.3507811876042
 20
579.0951885881256
 30
0.0
 11
431.350781187604
 21
544.0951885881258
 31
0.0
  0
LINE
  5
136
330
6C
100
AcDbEntity
  8
Visible (ANSI)
100
AcDbLine
 10
364.6007811876041
 20
579.0951885881256
 30
0.0
 11
431.3507811876042
 21
579.0951885881256
 31
0.0
  0
LINE
  5
137
330
6C
100
AcDbEntity
  8
Visible (ANSI)
100
AcDbLine
 10
364.6007811876041
 20
544.0951885881258
 30
0.0
 11
364.6007811876041
 21
579.0951885881256
 31
0.0
  0
LINE
  5
138
330
6C
100
AcDbEntity
  8
Visible (ANSI)
100
AcDbLine
 10
431.350781187604
 20
544.0951885881258
 30
0.0
 11
364.6007811876041
 21
544.0951885881258
 31
0.0
  0
LINE
  5
139
330
6C
100
AcDbEntity
  8
Visible (ANSI)
100
AcDbLine
 10
348.725781187604
 20
560.4701885881257
 30
0.0
 11
348.725781187604
 21
564.9701885881257
 31
0.0
  0
LINE
  5
13A
330
6C
100
AcDbEntity
  8
Visible (ANSI)
100
AcDbLine
 10
352.3507811876041
 20
560.4701885881257
 30
0.0
 11
348.725781187604
 21
560.4701885881257
 31
0.0
  0
LINE
  5
13B
330
6C
100
AcDbEntity
  8
Visible (ANSI)
100
AcDbLine
 10
352.3507811876041
 20
564.9701885881257
 30
0.0
 11
348.725781187604
 21
564.9701885881257
 31
0.0
  0
LINE
  5
13C
330
6C
100
AcDbEntity
  8
Visible (ANSI)
100
AcDbLine
 10
364.6007811876041
 20
552.5951885881256
 30
0.0
 11
431.350781187604
 21
552.5951885881256
 31
0.0
  0
LINE
  5
13D
330
6C
100
AcDbEntity
  8
Visible (ANSI)
100
AcDbLine
 10
364.6007811876041
 20
548.0951885881256
 30
0.0
 11
431.350781187604
 21
548.0951885881256
 31
0.0
  0
LINE
  5
13E
330
6C
100
AcDbEntity
  8
Visible (ANSI)
100
AcDbLine
 10
364.6007811876041
 20
564.3451885881257
 30
0.0
 11
431.350781187604
 21
564.3451885881257
 31
0.0
  0
LINE
  5
13F
330
6C
100
AcDbEntity
  8
Visible (ANSI)
100
AcDbLine
 10
364.6007811876041
 20
559.8451885881257
 30
0.0
 11
431.350781187604
 21
559.8451885881257
 31
0.0
  0
LINE
  5
140
330
6C
100
AcDbEntity
  8
Visible (ANSI)
100
AcDbLine
 10
364.6007811876041
 20
576.0951885881256
 30
0.0
 11
431.350781187604
 21
576.0951885881257
 31
0.0
  0
LINE
  5
141
330
6C
100
AcDbEntity
  8
Visible (ANSI)
100
AcDbLine
 10
364.6007811876041
 20
571.5951885881256
 30
0.0
 11
431.350781187604
 21
571.5951885881257
 31
0.0
  0
ELLIPSE
  5
142
330
6C
100
AcDbEntity
  8
Visible (ANSI)
100
AcDbEllipse
 10
399.7435481405706
 20
613.9254555410921
 30
0.0
 11
-0.0883883476483183
 21
0.0883883476483183
 31
0.0
210
0.0
220
0.0
230
1.0
 40
0.1701288793327024
 41
2.997101436680917
 42
6.42767652408846
  0
ELLIPSE
  5
143
330
6C
100
AcDbEntity
  8
Visible (ANSI)
100
AcDbEllipse
 10
419.4541496661456
 20
633.6360570666671
 30
0.0
 11
-0.0883883476483184
 21
0.0883883476483185
 31
0.0
210
0.0
220
0.0
230
1.0
 40
0.0856890347290828
 41
3.1415926535944
 42
6.283185307184194
  0
LINE
  5
144
330
6C
100
AcDbEntity
  8
Visible (ANSI)
100
AcDbLine
 10
420.6031981855737
 20
634.6083288907987
 30
0.0
 11
420.426421490277
 21
634.7851055860951
 31
0.0
  0
ELLIPSE
  5
145
330
6C
100
AcDbEntity
  8
Visible (ANSI)
100
AcDbEllipse
 10
400.4757811876041
 20
612.1576885881258
 30
0.0
 11
0.0000000000000038
 21
0.1250000000000036
 31
0.0
210
0.0
220
0.0
230
1.0
 40
0.1701288793326967
 41
2.997101436679488
 42
6.427676524086901
  0
ELLIPSE
  5
146
330
6C
100
AcDbEntity
  8
Visible (ANSI)
100
AcDbEllipse
 10
428.3507811876042
 20
612.1576885881258
 30
0.0
 11
0.0
 21
0.125
 31
0.0
210
0.0
220
0.0
230
1.0
 40
0.0856890347290828
 41
3.141592653589807
 42
6.2831853071796
  0
LINE
  5
147
330
6C
100
AcDbEntity
  8
Visible (ANSI)
100
AcDbLine
 10
429.8507811876041
 20
612.0326885881257
 30
0.0
 11
429.8507811876041
 21
612.2826885881258
 31
0.0
  0
ELLIPSE
  5
148
330
6C
100
AcDbEntity
  8
Visible (ANSI)
100
AcDbEllipse
 10
399.7435481405706
 20
610.3899216351593
 30
0.0
 11
0.0883883476483216
 21
0.0883883476483229
 31
0.0
210
0.0
220
0.0
230
1.0
 40
0.170128879332702
 41
2.997101436680875
 42
6.427676524088418
  0
ELLIPSE
  5
149
330
6C
100
AcDbEntity
  8
Visible (ANSI)
100
AcDbEllipse
 10
419.4541496661456
 20
590.6793201095843
 30
0.0
 11
0.0883883476483185
 21
0.0883883476483184
 31
0.0
210
0.0
220
0.0
230
1.0
 40
0.0856890347290829
 41
3.141592653589825
 42
6.283185307179618
  0
LINE
  5
14A
330
6C
100
AcDbEntity
  8
Visible (ANSI)
100
AcDbLine
 10
420.426421490277
 20
589.5302715901562
 30
0.0
 11
420.6031981855737
 21
589.7070482854529
 31
0.0
  0
ELLIPSE
  5
14B
330
6C
100
AcDbEntity
  8
Visible (ANSI)
100
AcDbEllipse
 10
397.9757811876043
 20
609.6576885881257
 30
0.0
 11
0.1250000000000033
 21
-0.0000000000000038
 31
0.0
210
0.0
220
0.0
230
1.0
 40
0.170128879332697
 41
2.99710143667949
 42
6.427676524086903
  0
ELLIPSE
  5
14C
330
6C
100
AcDbEntity
  8
Visible (ANSI)
100
AcDbEllipse
 10
397.9757811876043
 20
581.7826885881258
 30
0.0
 11
0.125
 21
0.0
 31
0.0
210
0.0
220
0.0
230
1.0
 40
0.085689034729083
 41
3.141592653589826
 42
6.283185307179619
  0
LINE
  5
14D
330
6C
100
AcDbEntity
  8
Visible (ANSI)
100
AcDbLine
 10
397.8507811876042
 20
580.2826885881257
 30
0.0
 11
398.1007811876042
 21
580.2826885881257
 31
0.0
  0
ELLIPSE
  5
14E
330
6C
100
AcDbEntity
  8
Visible (ANSI)
100
AcDbEllipse
 10
396.2080142346378
 20
610.3899216351593
 30
0.0
 11
0.0883883476483124
 21
-0.0883883476483141
 31
0.0
210
0.0
220
0.0
230
1.0
 40
0.1701288793327001
 41
2.997101436680969
 42
6.427676524088515
  0
ELLIPSE
  5
14F
330
6C
100
AcDbEntity
  8
Visible (ANSI)
100
AcDbEllipse
 10
376.4974127090628
 20
590.6793201095844
 30
0.0
 11
0.0883883476483184
 21
-0.0883883476483185
 31
0.0
210
0.0
220
0.0
230
0.9999999999999998
 40
0.0856890347290832
 41
3.141592653589809
 42
6.283185307179603
  0
LINE
  5
150
330
6C
100
AcDbEntity
  8
Visible (ANSI)
100
AcDbLine
 10
375.3483641896346
 20
589.7070482854529
 30
0.0
 11
375.5251408849313
 21
589.5302715901562
 31
0.0
  0
ELLIPSE
  5
151
330
6C
100
AcDbEntity
  8
Visible (ANSI)
100
AcDbEllipse
 10
395.4757811876042
 20
612.1576885881258
 30
0.0
 11
-0.0000000000000038
 21
-0.1250000000000036
 31
0.0
210
0.0
220
0.0
230
1.0
 40
0.1701288793326971
 41
2.997101436679491
 42
6.427676524086903
  0
ELLIPSE
  5
152
330
6C
100
AcDbEntity
  8
Visible (ANSI)
100
AcDbEllipse
 10
367.6007811876042
 20
612.1576885881258
 30
0.0
 11
0.0
 21
-0.125
 31
0.0
210
0.0
220
0.0
230
1.0
 40
0.0856890347290832
 41
3.141592653589784
 42
6.283185307179577
  0
LINE
  5
153
330
6C
100
AcDbEntity
  8
Visible (ANSI)
100
AcDbLine
 10
366.1007811876042
 20
612.2826885881258
 30
0.0
 11
366.1007811876042
 21
612.0326885881257
 31
0.0
  0
ELLIPSE
  5
154
330
6C
100
AcDbEntity
  8
Visible (ANSI)
100
AcDbEllipse
 10
396.2080142346378
 20
613.9254555410921
 30
0.0
 11
-0.0883883476483235
 21
-0.0883883476483186
 31
0.0
210
0.0
220
0.0
230
1.0
 40
0.1701288793326994
 41
2.997101436681076
 42
6.427676524088623
  0
ELLIPSE
  5
155
330
6C
100
AcDbEntity
  8
Visible (ANSI)
100
AcDbEllipse
 10
376.4974127090628
 20
633.6360570666671
 30
0.0
 11
-0.0883883476483185
 21
-0.0883883476483184
 31
0.0
210
0.0
220
0.0
230
0.9999999999999998
 40
0.0856890347290831
 41
3.141592653585151
 42
6.283185307174944
  0
LINE
  5
156
330
6C
100
AcDbEntity
  8
Visible (ANSI)
100
AcDbLine
 10
375.5251408849313
 20
634.7851055860951
 30
0.0
 11
375.3483641896346
 21
634.6083288907987
 31
0.0
  0
LINE
  5
157
330
6C
100
AcDbEntity
  8
Visible (ANSI)
100
AcDbLine
 10
419.5425380137939
 20
633.5476687190188
 30
0.0
 11
418.2240929490546
 21
632.2292236542795
 31
0.0
  0
LINE
  5
158
330
6C
100
AcDbEntity
  8
Visible (ANSI)
100
AcDbLine
 10
418.0473145396814
 20
632.0524452449063
 30
0.0
 11
415.1880081986869
 21
629.1931389039119
 31
0.0
  0
LINE
  5
159
330
6C
100
AcDbEntity
  8
Visible (ANSI)
100
AcDbLine
 10
415.0112291238851
 20
629.0163598291099
 30
0.0
 11
412.1519086410017
 21
626.1570393462267
 31
0.0
  0
LINE
  5
15A
330
6C
100
AcDbEntity
  8
Visible (ANSI)
100
AcDbLine
 10
411.9751284221396
 20
625.9802591273645
 30
0.0
 11
409.1157820724052
 21
623.1209127776301
 31
0.0
  0
LINE
  5
15B
330
6C
100
AcDbEntity
  8
Visible (ANSI)
100
AcDbLine
 10
408.9389996315818
 20
622.9441303368067
 30
0.0
 11
406.0795977989455
 21
620.0847285041704
 31
0.0
  0
LINE
  5
15C
330
6C
100
AcDbEntity
  8
Visible (ANSI)
100
AcDbLine
 10
405.9028101134878
 20
619.9079408187128
 30
0.0
 11
403.0432502585219
 21
617.0483809637468
 31
0.0
  0
LINE
  5
15D
330
6C
100
AcDbEntity
  8
Visible (ANSI)
100
AcDbLine
 10
402.8664446861422
 20
616.8715753913671
 30
0.0
 11
399.8319364882189
 21
613.8370671934437
 31
0.0
  0
LINE
  5
15E
330
6C
100
AcDbEntity
  8
Visible (ANSI)
100
AcDbLine
 10
419.3657613184972
 20
633.7244454143155
 30
0.0
 11
418.0473162537579
 21
632.4060003495762
 31
0.0
  0
LINE
  5
15F
330
6C
100
AcDbEntity
  8
Visible (ANSI)
100
AcDbLine
 10
417.8705378443848
 20
632.229221940203
 30
0.0
 11
415.0112315033902
 21
629.3699155992085
 31
0.0
  0
LINE
  5
160
330
6C
100
AcDbEntity
  8
Visible (ANSI)
100
AcDbLine
 10
414.8344524285885
 20
629.1931365244066
 30
0.0
 11
411.9751319457051
 21
626.3338160415234
 31
0.0
  0
LINE
  5
161
330
6C
100
AcDbEntity
  8
Visible (ANSI)
100
AcDbLine
 10
411.798351726843
 20
626.1570358226612
 30
0.0
 11
408.9390053771086
 21
623.2976894729268
 31
0.0
  0
LINE
  5
162
330
6C
100
AcDbEntity
  8
Visible (ANSI)
100
AcDbLine
 10
408.7622229362851
 20
623.1209070321033
 30
0.0
 11
405.9028211036489
 21
620.261505199467
 31
0.0
  0
LINE
  5
163
330
6C
100
AcDbEntity
  8
Visible (ANSI)
100
AcDbLine
 10
405.7260334181912
 20
620.0847175140093
 30
0.0
 11
402.8664735632252
 21
617.2251576590435
 31
0.0
  0
LINE
  5
164
330
6C
100
AcDbEntity
  8
Visible (ANSI)
100
AcDbLine
 10
402.6896679908455
 20
617.0483520866638
 30
0.0
 11
399.6551597929222
 21
614.0138438887404
 31
0.0
  0
LINE
  5
165
330
6C
100
AcDbEntity
  8
Visible (ANSI)
100
AcDbLine
 10
420.6031981855737
 20
634.6083288907987
 30
0.0
 11
419.5425380137939
 21
633.5476687190188
 31
0.0
  0
LINE
  5
166
330
6C
100
AcDbEntity
  8
Visible (ANSI)
100
AcDbLine
 10
420.426421490277
 20
634.7851055860951
 30
0.0
 11
419.3657613184972
 21
633.7244454143155
 31
0.0
  0
LINE
  5
167
330
6C
100
AcDbEntity
  8
Visible (ANSI)
100
AcDbLine
 10
428.3507811876042
 20
612.0326885881257
 30
0.0
 11
426.4862182958061
 21
612.0326885881257
 31
0.0
  0
LINE
  5
168
330
6C
100
AcDbEntity
  8
Visible (ANSI)
100
AcDbLine
 10
426.2362158717357
 20
612.0326885881257
 30
0.0
 11
422.1925460653219
 21
612.0326885881257
 31
0.0
  0
LINE
  5
169
330
6C
100
AcDbEntity
  8
Visible (ANSI)
100
AcDbLine
 10
421.9425427001935
 20
612.0326885881257
 30
0.0
 11
417.8988528941286
 21
612.0326885881257
 31
0.0
  0
LINE
  5
16A
330
6C
100
AcDbEntity
  8
Visible (ANSI)
100
AcDbLine
 10
417.6488479110544
 20
612.0326885881257
 30
0.0
 11
413.605121523738
 21
612.0326885881257
 31
0.0
  0
LINE
  5
16B
330
6C
100
AcDbEntity
  8
Visible (ANSI)
100
AcDbLine
 10
413.3551133983361
 20
612.0326885881257
 30
0.0
 11
409.3113085463475
 21
612.0326885881257
 31
0.0
  0
LINE
  5
16C
330
6C
100
AcDbEntity
  8
Visible (ANSI)
100
AcDbLine
 10
409.0612930039127
 20
612.0326885881257
 30
0.0
 11
405.0172646746022
 21
612.0326885881257
 31
0.0
  0
LINE
  5
16D
330
6C
100
AcDbEntity
  8
Visible (ANSI)
100
AcDbLine
 10
404.7672238362397
 20
612.0326885881257
 30
0.0
 11
400.4757811876041
 21
612.0326885881257
 31
0.0
  0
LINE
  5
16E
330
6C
100
AcDbEntity
  8
Visible (ANSI)
100
AcDbLine
 10
428.3507811876042
 20
612.2826885881257
 30
0.0
 11
426.4862182958061
 21
612.2826885881257
 31
0.0
  0
LINE
  5
16F
330
6C
100
AcDbEntity
  8
Visible (ANSI)
100
AcDbLine
 10
426.2362158717357
 20
612.2826885881257
 30
0.0
 11
422.1925460653219
 21
612.2826885881257
 31
0.0
  0
LINE
  5
170
330
6C
100
AcDbEntity
  8
Visible (ANSI)
100
AcDbLine
 10
421.9425427001935
 20
612.2826885881257
 30
0.0
 11
417.8988528941286
 21
612.2826885881257
 31
0.0
  0
LINE
  5
171
330
6C
100
AcDbEntity
  8
Visible (ANSI)
100
AcDbLine
 10
417.6488479110544
 20
612.2826885881257
 30
0.0
 11
413.605121523738
 21
612.2826885881257
 31
0.0
  0
LINE
  5
172
330
6C
100
AcDbEntity
  8
Visible (ANSI)
100
AcDbLine
 10
413.3551133983361
 20
612.2826885881257
 30
0.0
 11
409.3113085463475
 21
612.2826885881258
 31
0.0
  0
LINE
  5
173
330
6C
100
AcDbEntity
  8
Visible (ANSI)
100
AcDbLine
 10
409.0612930039127
 20
612.2826885881258
 30
0.0
 11
405.0172646746022
 21
612.2826885881258
 31
0.0
  0
LINE
  5
174
330
6C
100
AcDbEntity
  8
Visible (ANSI)
100
AcDbLine
 10
404.7672238362397
 20
612.2826885881258
 30
0.0
 11
400.4757811876041
 21
612.2826885881258
 31
0.0
  0
LINE
  5
175
330
6C
100
AcDbEntity
  8
Visible (ANSI)
100
AcDbLine
 10
429.8507811876041
 20
612.0326885881257
 30
0.0
 11
428.3507811876042
 21
612.0326885881257
 31
0.0
  0
LINE
  5
176
330
6C
100
AcDbEntity
  8
Visible (ANSI)
100
AcDbLine
 10
429.8507811876041
 20
612.2826885881257
 30
0.0
 11
428.3507811876042
 21
612.2826885881257
 31
0.0
  0
LINE
  5
177
330
6C
100
AcDbEntity
  8
Visible (ANSI)
100
AcDbLine
 10
419.3657613184972
 20
590.5909317619359
 30
0.0
 11
418.0473162537579
 21
591.9093768266752
 31
0.0
  0
LINE
  5
178
330
6C
100
AcDbEntity
  8
Visible (ANSI)
100
AcDbLine
 10
417.8705378443847
 20
592.0861552360484
 30
0.0
 11
415.0112315033902
 21
594.945461577043
 31
0.0
  0
LINE
  5
179
330
6C
100
AcDbEntity
  8
Visible (ANSI)
100
AcDbLine
 10
414.8344524285885
 20
595.1222406518447
 30
0.0
 11
411.9751319457051
 21
597.9815611347281
 31
0.0
  0
LINE
  5
17A
330
6C
100
AcDbEntity
  8
Visible (ANSI)
100
AcDbLine
 10
411.798351726843
 20
598.1583413535903
 30
0.0
 11
408.9390053771085
 21
601.0176877033246
 31
0.0
  0
LINE
  5
17B
330
6C
100
AcDbEntity
  8
Visible (ANSI)
100
AcDbLine
 10
408.7622229362851
 20
601.1944701441482
 30
0.0
 11
405.9028211036489
 21
604.0538719767844
 31
0.0
  0
LINE
  5
17C
330
6C
100
AcDbEntity
  8
Visible (ANSI)
100
AcDbLine
 10
405.7260334181911
 20
604.230659662242
 30
0.0
 11
402.8664735632252
 21
607.0902195172079
 31
0.0
  0
LINE
  5
17D
330
6C
100
AcDbEntity
  8
Visible (ANSI)
100
AcDbLine
 10
402.6896679908455
 20
607.2670250895876
 30
0.0
 11
399.6551597929222
 21
610.3015332875109
 31
0.0
  0
LINE
  5
17E
330
6C
100
AcDbEntity
  8
Visible (ANSI)
100
AcDbLine
 10
419.5425380137939
 20
590.7677084572326
 30
0.0
 11
418.2240929490546
 21
592.0861535219719
 31
0.0
  0
LINE
  5
17F
330
6C
100
AcDbEntity
  8
Visible (ANSI)
100
AcDbLine
 10
418.0473145396814
 20
592.2629319313451
 30
0.0
 11
415.1880081986869
 21
595.1222382723397
 31
0.0
  0
LINE
  5
180
330
6C
100
AcDbEntity
  8
Visible (ANSI)
100
AcDbLine
 10
415.0112291238851
 20
595.2990173471414
 30
0.0
 11
412.1519086410017
 21
598.1583378300248
 31
0.0
  0
LINE
  5
181
330
6C
100
AcDbEntity
  8
Visible (ANSI)
100
AcDbLine
 10
411.9751284221396
 20
598.3351180488869
 30
0.0
 11
409.1157820724052
 21
601.1944643986213
 31
0.0
  0
LINE
  5
182
330
6C
100
AcDbEntity
  8
Visible (ANSI)
100
AcDbLine
 10
408.9389996315817
 20
601.3712468394449
 30
0.0
 11
406.0795977989455
 21
604.2306486720811
 31
0.0
  0
LINE
  5
183
330
6C
100
AcDbEntity
  8
Visible (ANSI)
100
AcDbLine
 10
405.9028101134878
 20
604.4074363575386
 30
0.0
 11
403.0432502585219
 21
607.2669962125046
 31
0.0
  0
LINE
  5
184
330
6C
100
AcDbEntity
  8
Visible (ANSI)
100
AcDbLine
 10
402.8664446861422
 20
607.4438017848843
 30
0.0
 11
399.8319364882189
 21
610.4783099828076
 31
0.0
  0
LINE
  5
185
330
6C
100
AcDbEntity
  8
Visible (ANSI)
100
AcDbLine
 10
420.426421490277
 20
589.5302715901562
 30
0.0
 11
419.3657613184972
 21
590.5909317619359
 31
0.0
  0
LINE
  5
186
330
6C
100
AcDbEntity
  8
Visible (ANSI)
100
AcDbLine
 10
420.6031981855737
 20
589.7070482854529
 30
0.0
 11
419.5425380137939
 21
590.7677084572326
 31
0.0
  0
LINE
  5
187
330
6C
100
AcDbEntity
  8
Visible (ANSI)
100
AcDbLine
 10
397.8507811876042
 20
581.7826885881258
 30
0.0
 11
397.8507811876042
 21
583.6472514799238
 31
0.0
  0
LINE
  5
188
330
6C
100
AcDbEntity
  8
Visible (ANSI)
100
AcDbLine
 10
397.8507811876042
 20
583.8972539039941
 30
0.0
 11
397.8507811876042
 21
587.9409237104081
 31
0.0
  0
LINE
  5
189
330
6C
100
AcDbEntity
  8
Visible (ANSI)
100
AcDbLine
 10
397.8507811876042
 20
588.1909270755365
 30
0.0
 11
397.8507811876042
 21
592.2346168816012
 31
0.0
  0
LINE
  5
18A
330
6C
100
AcDbEntity
  8
Visible (ANSI)
100
AcDbLine
 10
397.8507811876042
 20
592.4846218646754
 30
0.0
 11
397.8507811876042
 21
596.5283482519919
 31
0.0
  0
LINE
  5
18B
330
6C
100
AcDbEntity
  8
Visible (ANSI)
100
AcDbLine
 10
397.8507811876042
 20
596.7783563773938
 30
0.0
 11
397.8507811876042
 21
600.8221612293824
 31
0.0
  0
LINE
  5
18C
330
6C
100
AcDbEntity
  8
Visible (ANSI)
100
AcDbLine
 10
397.8507811876042
 20
601.0721767718172
 30
0.0
 11
397.8507811876042
 21
605.1162051011277
 31
0.0
  0
LINE
  5
18D
330
6C
100
AcDbEntity
  8
Visible (ANSI)
100
AcDbLine
 10
397.8507811876042
 20
605.3662459394902
 30
0.0
 11
397.8507811876042
 21
609.6576885881257
 31
0.0
  0
LINE
  5
18E
330
6C
100
AcDbEntity
  8
Visible (ANSI)
100
AcDbLine
 10
398.1007811876042
 20
581.7826885881258
 30
0.0
 11
398.1007811876042
 21
583.6472514799238
 31
0.0
  0
LINE
  5
18F
330
6C
100
AcDbEntity
  8
Visible (ANSI)
100
AcDbLine
 10
398.1007811876042
 20
583.8972539039941
 30
0.0
 11
398.1007811876042
 21
587.9409237104081
 31
0.0
  0
LINE
  5
190
330
6C
100
AcDbEntity
  8
Visible (ANSI)
100
AcDbLine
 10
398.1007811876042
 20
588.1909270755365
 30
0.0
 11
398.1007811876042
 21
592.2346168816012
 31
0.0
  0
LINE
  5
191
330
6C
100
AcDbEntity
  8
Visible (ANSI)
100
AcDbLine
 10
398.1007811876042
 20
592.4846218646754
 30
0.0
 11
398.1007811876042
 21
596.5283482519919
 31
0.0
  0
LINE
  5
192
330
6C
100
AcDbEntity
  8
Visible (ANSI)
100
AcDbLine
 10
398.1007811876042
 20
596.7783563773938
 30
0.0
 11
398.1007811876042
 21
600.8221612293824
 31
0.0
  0
LINE
  5
193
330
6C
100
AcDbEntity
  8
Visible (ANSI)
100
AcDbLine
 10
398.1007811876042
 20
601.0721767718172
 30
0.0
 11
398.1007811876042
 21
605.1162051011277
 31
0.0
  0
LINE
  5
194
330
6C
100
AcDbEntity
  8
Visible (ANSI)
100
AcDbLine
 10
398.1007811876042
 20
605.3662459394902
 30
0.0
 11
398.1007811876042
 21
609.6576885881257
 31
0.0
  0
LINE
  5
195
330
6C
100
AcDbEntity
  8
Visible (ANSI)
100
AcDbLine
 10
397.8507811876042
 20
580.2826885881257
 30
0.0
 11
397.8507811876042
 21
581.7826885881258
 31
0.0
  0
LINE
  5
196
330
6C
100
AcDbEntity
  8
Visible (ANSI)
100
AcDbLine
 10
398.1007811876042
 20
580.2826885881257
 30
0.0
 11
398.1007811876042
 21
581.7826885881258
 31
0.0
  0
LINE
  5
197
330
6C
100
AcDbEntity
  8
Visible (ANSI)
100
AcDbLine
 10
376.4090243614145
 20
590.7677084572326
 30
0.0
 11
377.7274694261537
 21
592.0861535219719
 31
0.0
  0
LINE
  5
198
330
6C
100
AcDbEntity
  8
Visible (ANSI)
100
AcDbLine
 10
377.9042478355269
 20
592.2629319313451
 30
0.0
 11
380.7635541765215
 21
595.1222382723397
 31
0.0
  0
LINE
  5
199
330
6C
100
AcDbEntity
  8
Visible (ANSI)
100
AcDbLine
 10
380.9403332513232
 20
595.2990173471414
 30
0.0
 11
383.7996537342066
 21
598.1583378300248
 31
0.0
  0
LINE
  5
19A
330
6C
100
AcDbEntity
  8
Visible (ANSI)
100
AcDbLine
 10
383.9764339530688
 20
598.3351180488869
 30
0.0
 11
386.8357803028032
 21
601.1944643986213
 31
0.0
  0
LINE
  5
19B
330
6C
100
AcDbEntity
  8
Visible (ANSI)
100
AcDbLine
 10
387.0125627436266
 20
601.3712468394449
 30
0.0
 11
389.8719645762628
 21
604.2306486720811
 31
0.0
  0
LINE
  5
19C
330
6C
100
AcDbEntity
  8
Visible (ANSI)
100
AcDbLine
 10
390.0487522617205
 20
604.4074363575386
 30
0.0
 11
392.9083121166865
 21
607.2669962125046
 31
0.0
  0
LINE
  5
19D
330
6C
100
AcDbEntity
  8
Visible (ANSI)
100
AcDbLine
 10
393.0851176890661
 20
607.4438017848843
 30
0.0
 11
396.1196258869895
 21
610.4783099828076
 31
0.0
  0
LINE
  5
19E
330
6C
100
AcDbEntity
  8
Visible (ANSI)
100
AcDbLine
 10
376.5858010567111
 20
590.590931761936
 30
0.0
 11
377.9042461214503
 21
591.9093768266752
 31
0.0
  0
LINE
  5
19F
330
6C
100
AcDbEntity
  8
Visible (ANSI)
100
AcDbLine
 10
378.0810245308236
 20
592.0861552360484
 30
0.0
 11
380.9403308718181
 21
594.945461577043
 31
0.0
  0
LINE
  5
1A0
330
6C
100
AcDbEntity
  8
Visible (ANSI)
100
AcDbLine
 10
381.1171099466199
 20
595.1222406518447
 30
0.0
 11
383.9764304295032
 21
597.9815611347281
 31
0.0
  0
LINE
  5
1A1
330
6C
100
AcDbEntity
  8
Visible (ANSI)
100
AcDbLine
 10
384.1532106483654
 20
598.1583413535903
 30
0.0
 11
387.0125569980999
 21
601.0176877033248
 31
0.0
  0
LINE
  5
1A2
330
6C
100
AcDbEntity
  8
Visible (ANSI)
100
AcDbLine
 10
387.1893394389232
 20
601.1944701441482
 30
0.0
 11
390.0487412715595
 21
604.0538719767844
 31
0.0
  0
LINE
  5
1A3
330
6C
100
AcDbEntity
  8
Visible (ANSI)
100
AcDbLine
 10
390.2255289570172
 20
604.2306596622421
 30
0.0
 11
393.0850888119831
 21
607.0902195172079
 31
0.0
  0
LINE
  5
1A4
330
6C
100
AcDbEntity
  8
Visible (ANSI)
100
AcDbLine
 10
393.2618943843628
 20
607.2670250895876
 30
0.0
 11
396.2964025822861
 21
610.3015332875109
 31
0.0
  0
LINE
  5
1A5
330
6C
100
AcDbEntity
  8
Visible (ANSI)
100
AcDbLine
 10
375.3483641896346
 20
589.7070482854529
 30
0.0
 11
376.4090243614145
 21
590.7677084572326
 31
0.0
  0
LINE
  5
1A6
330
6C
100
AcDbEntity
  8
Visible (ANSI)
100
AcDbLine
 10
375.5251408849313
 20
589.5302715901562
 30
0.0
 11
376.5858010567111
 21
590.590931761936
 31
0.0
  0
LINE
  5
1A7
330
6C
100
AcDbEntity
  8
Visible (ANSI)
100
AcDbLine
 10
367.6007811876042
 20
612.2826885881258
 30
0.0
 11
369.4653440794023
 21
612.2826885881258
 31
0.0
  0
LINE
  5
1A8
330
6C
100
AcDbEntity
  8
Visible (ANSI)
100
AcDbLine
 10
369.7153465034726
 20
612.2826885881258
 30
0.0
 11
373.7590163098865
 21
612.2826885881258
 31
0.0
  0
LINE
  5
1A9
330
6C
100
AcDbEntity
  8
Visible (ANSI)
100
AcDbLine
 10
374.0090196750149
 20
612.2826885881258
 30
0.0
 11
378.0527094810798
 21
612.2826885881258
 31
0.0
  0
LINE
  5
1AA
330
6C
100
AcDbEntity
  8
Visible (ANSI)
100
AcDbLine
 10
378.3027144641538
 20
612.2826885881258
 30
0.0
 11
382.3464408514703
 21
612.2826885881258
 31
0.0
  0
LINE
  5
1AB
330
6C
100
AcDbEntity
  8
Visible (ANSI)
100
AcDbLine
 10
382.5964489768722
 20
612.2826885881258
 30
0.0
 11
386.6402538288609
 21
612.2826885881258
 31
0.0
  0
LINE
  5
1AC
330
6C
100
AcDbEntity
  8
Visible (ANSI)
100
AcDbLine
 10
386.8902693712957
 20
612.2826885881258
 30
0.0
 11
390.9342977006062
 21
612.2826885881258
 31
0.0
  0
LINE
  5
1AD
330
6C
100
AcDbEntity
  8
Visible (ANSI)
100
AcDbLine
 10
391.1843385389687
 20
612.2826885881258
 30
0.0
 11
395.4757811876042
 21
612.2826885881258
 31
0.0
  0
LINE
  5
1AE
330
6C
100
AcDbEntity
  8
Visible (ANSI)
100
AcDbLine
 10
367.6007811876042
 20
612.0326885881257
 30
0.0
 11
369.4653440794023
 21
612.0326885881257
 31
0.0
  0
LINE
  5
1AF
330
6C
100
AcDbEntity
  8
Visible (ANSI)
100
AcDbLine
 10
369.7153465034726
 20
612.0326885881257
 30
0.0
 11
373.7590163098865
 21
612.0326885881257
 31
0.0
  0
LINE
  5
1B0
330
6C
100
AcDbEntity
  8
Visible (ANSI)
100
AcDbLine
 10
374.0090196750149
 20
612.0326885881257
 30
0.0
 11
378.0527094810798
 21
612.0326885881257
 31
0.0
  0
LINE
  5
1B1
330
6C
100
AcDbEntity
  8
Visible (ANSI)
100
AcDbLine
 10
378.3027144641538
 20
612.0326885881257
 30
0.0
 11
382.3464408514703
 21
612.0326885881257
 31
0.0
  0
LINE
  5
1B2
330
6C
100
AcDbEntity
  8
Visible (ANSI)
100
AcDbLine
 10
382.5964489768722
 20
612.0326885881257
 30
0.0
 11
386.6402538288609
 21
612.0326885881257
 31
0.0
  0
LINE
  5
1B3
330
6C
100
AcDbEntity
  8
Visible (ANSI)
100
AcDbLine
 10
386.8902693712957
 20
612.0326885881257
 30
0.0
 11
390.9342977006062
 21
612.0326885881257
 31
0.0
  0
LINE
  5
1B4
330
6C
100
AcDbEntity
  8
Visible (ANSI)
100
AcDbLine
 10
391.1843385389687
 20
612.0326885881257
 30
0.0
 11
395.4757811876042
 21
612.0326885881257
 31
0.0
  0
LINE
  5
1B5
330
6C
100
AcDbEntity
  8
Visible (ANSI)
100
AcDbLine
 10
366.1007811876042
 20
612.2826885881258
 30
0.0
 11
367.6007811876042
 21
612.2826885881258
 31
0.0
  0
LINE
  5
1B6
330
6C
100
AcDbEntity
  8
Visible (ANSI)
100
AcDbLine
 10
366.1007811876042
 20
612.0326885881257
 30
0.0
 11
367.6007811876042
 21
612.0326885881257
 31
0.0
  0
LINE
  5
1B7
330
6C
100
AcDbEntity
  8
Visible (ANSI)
100
AcDbLine
 10
376.5858010567111
 20
633.7244454143155
 30
0.0
 11
377.9042461214503
 21
632.4060003495762
 31
0.0
  0
LINE
  5
1B8
330
6C
100
AcDbEntity
  8
Visible (ANSI)
100
AcDbLine
 10
378.0810245308236
 20
632.229221940203
 30
0.0
 11
380.9403308718182
 21
629.3699155992085
 31
0.0
  0
LINE
  5
1B9
330
6C
100
AcDbEntity
  8
Visible (ANSI)
100
AcDbLine
 10
381.1171099466199
 20
629.1931365244066
 30
0.0
 11
383.9764304295032
 21
626.3338160415234
 31
0.0
  0
LINE
  5
1BA
330
6C
100
AcDbEntity
  8
Visible (ANSI)
100
AcDbLine
 10
384.1532106483654
 20
626.1570358226612
 30
0.0
 11
387.0125569980999
 21
623.2976894729268
 31
0.0
  0
LINE
  5
1BB
330
6C
100
AcDbEntity
  8
Visible (ANSI)
100
AcDbLine
 10
387.1893394389232
 20
623.1209070321033
 30
0.0
 11
390.0487412715595
 21
620.261505199467
 31
0.0
  0
LINE
  5
1BC
330
6C
100
AcDbEntity
  8
Visible (ANSI)
100
AcDbLine
 10
390.2255289570172
 20
620.0847175140093
 30
0.0
 11
393.0850888119831
 21
617.2251576590435
 31
0.0
  0
LINE
  5
1BD
330
6C
100
AcDbEntity
  8
Visible (ANSI)
100
AcDbLine
 10
393.2618943843628
 20
617.0483520866638
 30
0.0
 11
396.2964025822861
 21
614.0138438887404
 31
0.0
  0
LINE
  5
1BE
330
6C
100
AcDbEntity
  8
Visible (ANSI)
100
AcDbLine
 10
376.4090243614145
 20
633.5476687190188
 30
0.0
 11
377.7274694261537
 21
632.2292236542795
 31
0.0
  0
LINE
  5
1BF
330
6C
100
AcDbEntity
  8
Visible (ANSI)
100
AcDbLine
 10
377.9042478355269
 20
632.0524452449063
 30
0.0
 11
380.7635541765215
 21
629.1931389039119
 31
0.0
  0
LINE
  5
1C0
330
6C
100
AcDbEntity
  8
Visible (ANSI)
100
AcDbLine
 10
380.9403332513232
 20
629.0163598291099
 30
0.0
 11
383.7996537342066
 21
626.1570393462267
 31
0.0
  0
LINE
  5
1C1
330
6C
100
AcDbEntity
  8
Visible (ANSI)
100
AcDbLine
 10
383.9764339530688
 20
625.9802591273645
 30
0.0
 11
386.8357803028032
 21
623.1209127776301
 31
0.0
  0
LINE
  5
1C2
330
6C
100
AcDbEntity
  8
Visible (ANSI)
100
AcDbLine
 10
387.0125627436266
 20
622.9441303368067
 30
0.0
 11
389.8719645762628
 21
620.0847285041704
 31
0.0
  0
LINE
  5
1C3
330
6C
100
AcDbEntity
  8
Visible (ANSI)
100
AcDbLine
 10
390.0487522617205
 20
619.9079408187128
 30
0.0
 11
392.9083121166865
 21
617.0483809637468
 31
0.0
  0
LINE
  5
1C4
330
6C
100
AcDbEntity
  8
Visible (ANSI)
100
AcDbLine
 10
393.0851176890661
 20
616.8715753913671
 30
0.0
 11
396.1196258869895
 21
613.8370671934437
 31
0.0
  0
LINE
  5
1C5
330
6C
100
AcDbEntity
  8
Visible (ANSI)
100
AcDbLine
 10
375.5251408849313
 20
634.7851055860953
 30
0.0
 11
376.5858010567111
 21
633.7244454143155
 31
0.0
  0
LINE
  5
1C6
330
6C
100
AcDbEntity
  8
Visible (ANSI)
100
AcDbLine
 10
375.3483641896346
 20
634.6083288907987
 30
0.0
 11
376.4090243614145
 21
633.5476687190188
 31
0.0
  0
ARC
  5
1C7
330
6C
100
AcDbEntity
  8
Visible (ANSI)
100
AcDbCircle
 10
397.9757811876043
 20
612.1576885881258
 30
0.0
 40
30.37499999999999
100
AcDbArc
 50
90.23578576638888
 51
134.7642142336112
  0
ARC
  5
1C8
330
6C
100
AcDbEntity
  8
Visible (ANSI)
100
AcDbCircle
 10
397.9757811876041
 20
612.1576885881258
 30
0.0
 40
31.87499999999996
100
AcDbArc
 50
90.22468990733273
 51
134.7753100926672
  0
ARC
  5
1C9
330
6C
100
AcDbEntity
  8
Visible (ANSI)
100
AcDbCircle
 10
397.9757811876043
 20
612.1576885881258
 30
0.0
 40
30.37499999999999
100
AcDbArc
 50
135.2357857663889
 51
179.7642142336115
  0
ARC
  5
1CA
330
6C
100
AcDbEntity
  8
Visible (ANSI)
100
AcDbCircle
 10
397.9757811876041
 20
612.1576885881258
 30
0.0
 40
31.87499999999998
100
AcDbArc
 50
135.2246899073326
 51
179.7753100926684
  0
ARC
  5
1CB
330
6C
100
AcDbEntity
  8
Visible (ANSI)
100
AcDbCircle
 10
397.9757811876043
 20
612.1576885881258
 30
0.0
 40
30.37499999999999
100
AcDbArc
 50
180.2357857663885
 51
224.7642142336112
  0
ARC
  5
1CC
330
6C
100
AcDbEntity
  8
Visible (ANSI)
100
AcDbCircle
 10
397.9757811876041
 20
612.1576885881258
 30
0.0
 40
31.87499999999995
100
AcDbArc
 50
180.2246899073316
 51
224.7753100926672
  0
ARC
  5
1CD
330
6C
100
AcDbEntity
  8
Visible (ANSI)
100
AcDbCircle
 10
397.9757811876043
 20
612.1576885881258
 30
0.0
 40
30.375
100
AcDbArc
 50
225.2357857663889
 51
269.7642142336112
  0
ARC
  5
1CE
330
6C
100
AcDbEntity
  8
Visible (ANSI)
100
AcDbCircle
 10
397.9757811876041
 20
612.1576885881256
 30
0.0
 40
31.87499999999996
100
AcDbArc
 50
225.2246899073328
 51
269.7753100926671
  0
ARC
  5
1CF
330
6C
100
AcDbEntity
  8
Visible (ANSI)
100
AcDbCircle
 10
397.9757811876043
 20
612.1576885881258
 30
0.0
 40
30.37499999999998
100
AcDbArc
 50
270.2357857663888
 51
314.764214233611
  0
ARC
  5
1D0
330
6C
100
AcDbEntity
  8
Visible (ANSI)
100
AcDbCircle
 10
397.9757811876043
 20
612.1576885881258
 30
0.0
 40
31.875
100
AcDbArc
 50
270.2246899073327
 51
314.7753100926672
  0
ARC
  5
1D1
330
6C
100
AcDbEntity
  8
Visible (ANSI)
100
AcDbCircle
 10
397.9757811876041
 20
612.1576885881258
 30
0.0
 40
30.37500000000003
100
AcDbArc
 50
315.2357857663889
 51
359.7642142336115
  0
ARC
  5
1D2
330
6C
100
AcDbEntity
  8
Visible (ANSI)
100
AcDbCircle
 10
397.9757811876043
 20
612.1576885881258
 30
0.0
 40
31.87499999999996
100
AcDbArc
 50
315.2246899073328
 51
359.7753100926684
  0
ARC
  5
1D3
330
6C
100
AcDbEntity
  8
Visible (ANSI)
100
AcDbCircle
 10
397.9757811876043
 20
612.1576885881258
 30
0.0
 40
31.87499999999993
100
AcDbArc
 50
45.22468990733259
 51
89.77531009266712
  0
ARC
  5
1D4
330
6C
100
AcDbEntity
  8
Visible (ANSI)
100
AcDbCircle
 10
397.9757811876043
 20
612.1576885881258
 30
0.0
 40
30.37500000000002
100
AcDbArc
 50
45.23578576638879
 51
89.76421423361109
  0
ARC
  5
1D5
330
6C
100
AcDbEntity
  8
Visible (ANSI)
100
AcDbCircle
 10
397.9757811876043
 20
612.1576885881256
 30
0.0
 40
8.000000000000085
100
AcDbArc
 50
123.5427967026141
 51
134.1047170134297
  0
ARC
  5
1D6
330
6C
100
AcDbEntity
  8
Visible (ANSI)
100
AcDbCircle
 10
397.9757811876043
 20
612.1576885881258
 30
0.0
 40
7.999999999999993
100
AcDbArc
 50
135.8952829865699
 51
178.398192905017
  0
ARC
  5
1D7
330
6C
100
AcDbEntity
  8
Visible (ANSI)
100
AcDbCircle
 10
397.9757811876043
 20
612.1576885881258
 30
0.0
 40
7.999999999999992
100
AcDbArc
 50
183.5427967026141
 51
224.1047170134301
  0
ARC
  5
1D8
330
6C
100
AcDbEntity
  8
Visible (ANSI)
100
AcDbCircle
 10
397.9757811876041
 20
612.1576885881258
 30
0.0
 40
7.999999999999967
100
AcDbArc
 50
225.8952829865702
 51
238.3981929050168
  0
ARC
  5
1D9
330
6C
100
AcDbEntity
  8
Visible (ANSI)
100
AcDbCircle
 10
397.9757811876043
 20
612.1576885881258
 30
0.0
 40
8.000000000000001
100
AcDbArc
 50
243.5427967026144
 51
269.1047170134297
  0
ARC
  5
1DA
330
6C
100
AcDbEntity
  8
Visible (ANSI)
100
AcDbCircle
 10
397.9757811876043
 20
612.1576885881258
 30
0.0
 40
7.999999999999998
100
AcDbArc
 50
270.8952829865703
 51
298.3981929050167
  0
ARC
  5
1DB
330
6C
100
AcDbEntity
  8
Visible (ANSI)
100
AcDbCircle
 10
397.9757811876043
 20
612.1576885881256
 30
0.0
 40
7.999999999999916
100
AcDbArc
 50
303.5427967026143
 51
314.1047170134301
  0
ARC
  5
1DC
330
6C
100
AcDbEntity
  8
Visible (ANSI)
100
AcDbCircle
 10
397.9757811876043
 20
612.1576885881258
 30
0.0
 40
8.000000000000003
100
AcDbArc
 50
315.8952829865699
 51
358.3981929050164
  0
ARC
  5
1DD
330
6C
100
AcDbEntity
  8
Visible (ANSI)
100
AcDbCircle
 10
397.9757811876043
 20
612.1576885881258
 30
0.0
 40
7.999999999999995
100
AcDbArc
 50
3.54279670261412
 51
44.10471701343011
  0
ARC
  5
1DE
330
6C
100
AcDbEntity
  8
Visible (ANSI)
100
AcDbCircle
 10
397.9757811876041
 20
612.1576885881258
 30
0.0
 40
8.000000000000028
100
AcDbArc
 50
45.89528298656989
 51
58.39819290501642
  0
ARC
  5
1DF
330
6C
100
AcDbEntity
  8
Visible (ANSI)
100
AcDbCircle
 10
397.9757811876043
 20
612.1576885881258
 30
0.0
 40
7.999999999999999
100
AcDbArc
 50
63.54279670261447
 51
89.1047170134297
  0
ARC
  5
1E0
330
6C
100
AcDbEntity
  8
Visible (ANSI)
100
AcDbCircle
 10
397.9757811876043
 20
612.1576885881258
 30
0.0
 40
7.999999999999981
100
AcDbArc
 50
90.89528298657027
 51
118.398192905017
  0
ARC
  5
1E1
330
6C
100
AcDbEntity
  8
Visible (ANSI)
100
AcDbCircle
 10
397.9757811876043
 20
612.1576885881258
 30
0.0
 40
31.87499999999998
100
AcDbArc
 50
0.2246899073316281
 51
44.77531009266713
  0
ARC
  5
1E2
330
6C
100
AcDbEntity
  8
Visible (ANSI)
100
AcDbCircle
 10
397.9757811876043
 20
612.1576885881258
 30
0.0
 40
30.37499999999997
100
AcDbArc
 50
0.2357857663885313
 51
44.76421423361102
  0
CIRCLE
  5
1E3
330
6C
100
AcDbEntity
  8
Visible (ANSI)
100
AcDbCircle
 10
397.9757811876043
 20
612.1576885881258
 30
0.0
 40
2.499999999999999
  0
ELLIPSE
  5
1E4
330
6C
100
AcDbEntity
  8
Visible (ANSI)
100
AcDbEllipse
 10
397.9757811876043
 20
614.6576885881257
 30
0.0
 11
-0.1250000000000032
 21
0.0000000000000037
 31
0.0
210
0.0
220
0.0
230
1.0
 40
0.1701288793326982
 41
2.997101436679487
 42
6.427676524086897
  0
ELLIPSE
  5
1E5
330
6C
100
AcDbEntity
  8
Visible (ANSI)
100
AcDbEllipse
 10
397.9757811876043
 20
642.5326885881258
 30
0.0
 11
-0.125
 21
0.0
 31
0.0
210
0.0
220
0.0
230
1.0
 40
0.0856890347290829
 41
3.141592653589764
 42
6.283185307179557
  0
LINE
  5
1E6
330
6C
100
AcDbEntity
  8
Visible (ANSI)
100
AcDbLine
 10
398.1007811876042
 20
644.0326885881257
 30
0.0
 11
397.8507811876042
 21
644.0326885881257
 31
0.0
  0
LINE
  5
1E7
330
6C
100
AcDbEntity
  8
Visible (ANSI)
100
AcDbLine
 10
398.1007811876042
 20
642.5326885881258
 30
0.0
 11
398.1007811876042
 21
640.6681256963276
 31
0.0
  0
LINE
  5
1E8
330
6C
100
AcDbEntity
  8
Visible (ANSI)
100
AcDbLine
 10
398.1007811876042
 20
640.4181232722573
 30
0.0
 11
398.1007811876042
 21
636.3744534658435
 31
0.0
  0
LINE
  5
1E9
330
6C
100
AcDbEntity
  8
Visible (ANSI)
100
AcDbLine
 10
398.1007811876042
 20
636.1244501007149
 30
0.0
 11
398.1007811876042
 21
632.0807602946501
 31
0.0
  0
LINE
  5
1EA
330
6C
100
AcDbEntity
  8
Visible (ANSI)
100
AcDbLine
 10
398.1007811876042
 20
631.830755311576
 30
0.0
 11
398.1007811876042
 21
627.7870289242596
 31
0.0
  0
LINE
  5
1EB
330
6C
100
AcDbEntity
  8
Visible (ANSI)
100
AcDbLine
 10
398.1007811876042
 20
627.5370207988576
 30
0.0
 11
398.1007811876042
 21
623.4932159468691
 31
0.0
  0
LINE
  5
1EC
330
6C
100
AcDbEntity
  8
Visible (ANSI)
100
AcDbLine
 10
398.1007811876042
 20
623.2432004044341
 30
0.0
 11
398.1007811876042
 21
619.1991720751238
 31
0.0
  0
LINE
  5
1ED
330
6C
100
AcDbEntity
  8
Visible (ANSI)
100
AcDbLine
 10
398.1007811876042
 20
618.9491312367613
 30
0.0
 11
398.1007811876042
 21
614.6576885881257
 31
0.0
  0
LINE
  5
1EE
330
6C
100
AcDbEntity
  8
Visible (ANSI)
100
AcDbLine
 10
397.8507811876042
 20
642.5326885881258
 30
0.0
 11
397.8507811876042
 21
640.6681256963276
 31
0.0
  0
LINE
  5
1EF
330
6C
100
AcDbEntity
  8
Visible (ANSI)
100
AcDbLine
 10
397.8507811876042
 20
640.4181232722573
 30
0.0
 11
397.8507811876042
 21
636.3744534658435
 31
0.0
  0
LINE
  5
1F0
330
6C
100
AcDbEntity
  8
Visible (ANSI)
100
AcDbLine
 10
397.8507811876042
 20
636.1244501007149
 30
0.0
 11
397.8507811876042
 21
632.0807602946501
 31
0.0
  0
LINE
  5
1F1
330
6C
100
AcDbEntity
  8
Visible (ANSI)
100
AcDbLine
 10
397.8507811876042
 20
631.830755311576
 30
0.0
 11
397.8507811876042
 21
627.7870289242596
 31
0.0
  0
LINE
  5
1F2
330
6C
100
AcDbEntity
  8
Visible (ANSI)
100
AcDbLine
 10
397.8507811876042
 20
627.5370207988576
 30
0.0
 11
397.8507811876042
 21
623.4932159468691
 31
0.0
  0
LINE
  5
1F3
330
6C
100
AcDbEntity
  8
Visible (ANSI)
100
AcDbLine
 10
397.8507811876042
 20
623.2432004044341
 30
0.0
 11
397.8507811876042
 21
619.1991720751238
 31
0.0
  0
LINE
  5
1F4
330
6C
100
AcDbEntity
  8
Visible (ANSI)
100
AcDbLine
 10
397.8507811876042
 20
618.9491312367613
 30
0.0
 11
397.8507811876042
 21
614.6576885881257
 31
0.0
  0
LINE
  5
1F5
330
6C
100
AcDbEntity
  8
Visible (ANSI)
100
AcDbLine
 10
398.1007811876042
 20
644.0326885881257
 30
0.0
 11
398.1007811876042
 21
642.5326885881258
 31
0.0
  0
LINE
  5
1F6
330
6C
100
AcDbEntity
  8
Visible (ANSI)
100
AcDbLine
 10
397.8507811876042
 20
644.0326885881257
 30
0.0
 11
397.8507811876042
 21
642.5326885881258
 31
0.0
  0
LINE
  5
1F7
330
6C
100
AcDbEntity
  8
Visible (ANSI)
100
AcDbLine
 10
394.6423021535787
 20
618.7237044907118
 30
0.0
 11
394.5126863280055
 21
618.5940886651386
 31
0.0
  0
LINE
  5
1F8
330
6C
100
AcDbEntity
  8
Visible (ANSI)
100
AcDbLine
 10
394.1496882274618
 20
618.2310905645949
 30
0.0
 11
394.5126863280055
 21
618.5940886651387
 31
0.0
  0
LINE
  5
1F9
330
6C
100
AcDbEntity
  8
Visible (ANSI)
100
AcDbLine
 10
394.1496882274618
 20
618.2310905645949
 30
0.0
 11
393.555303613441
 21
618.8254751786159
 31
0.0
  0
LINE
  5
1FA
330
6C
100
AcDbEntity
  8
Visible (ANSI)
100
AcDbLine
 10
390.4414904627706
 20
614.8473843466989
 30
0.0
 11
388.0979774494985
 21
617.190897359971
 31
0.0
  0
LINE
  5
1FB
330
6C
100
AcDbEntity
  8
Visible (ANSI)
100
AcDbLine
 10
387.9123203340421
 20
617.3765544754274
 30
0.0
 11
384.9514925222833
 21
620.3373822871862
 31
0.0
  0
LINE
  5
1FC
330
6C
100
AcDbEntity
  8
Visible (ANSI)
100
AcDbLine
 10
384.7702361846137
 20
620.5186386248557
 30
0.0
 11
381.8547587800189
 21
623.4341160294506
 31
0.0
  0
LINE
  5
1FD
330
6C
100
AcDbEntity
  8
Visible (ANSI)
100
AcDbLine
 10
381.6752748677804
 20
623.6135999416891
 30
0.0
 11
378.7801979171309
 21
626.5086768923387
 31
0.0
  0
LINE
  5
1FE
330
6C
100
AcDbEntity
  8
Visible (ANSI)
100
AcDbLine
 10
378.6016065820267
 20
626.6872682274428
 30
0.0
 11
375.7174969210731
 21
629.5713778883963
 31
0.0
  0
LINE
  5
1FF
330
6C
100
AcDbEntity
  8
Visible (ANSI)
100
AcDbLine
 10
375.5394186637685
 20
629.7494561457011
 30
0.0
 11
374.2121438354962
 21
631.0767309739733
 31
0.0
  0
LINE
  5
200
330
6C
100
AcDbEntity
  8
Visible (ANSI)
100
AcDbLine
 10
401.9953782438835
 20
618.3275740658678
 30
0.0
 11
401.8183197334182
 21
618.3750167507599
 31
0.0
  0
LINE
  5
201
330
6C
100
AcDbEntity
  8
Visible (ANSI)
100
AcDbLine
 10
401.32245510655
 20
618.5078832770845
 30
0.0
 11
401.8183197334182
 21
618.3750167507599
 31
0.0
  0
LINE
  5
202
330
6C
100
AcDbEntity
  8
Visible (ANSI)
100
AcDbLine
 10
401.32245510655
 20
618.5078832770845
 30
0.0
 11
401.5400149749003
 21
619.3198277594555
 31
0.0
  0
LINE
  5
203
330
6C
100
AcDbEntity
  8
Visible (ANSI)
100
AcDbLine
 10
396.537980680563
 20
620.0274236346157
 30
0.0
 11
397.39576597752
 21
623.2287219448448
 31
0.0
  0
LINE
  5
204
330
6C
100
AcDbEntity
  8
Visible (ANSI)
100
AcDbLine
 10
397.4637211981704
 20
623.4823342809516
 30
0.0
 11
397.8507811876042
 21
624.9268618270955
 31
0.0
  0
LINE
  5
205
330
6C
100
AcDbEntity
  8
Visible (ANSI)
100
AcDbLine
 10
398.1007811876042
 20
625.8598745289877
 30
0.0
 11
398.5474593935056
 21
627.5269002880455
 31
0.0
  0
LINE
  5
206
330
6C
100
AcDbEntity
  8
Visible (ANSI)
100
AcDbLine
 10
398.6138038176896
 20
627.774501049899
 30
0.0
 11
399.6809426119308
 21
631.7571172487352
 31
0.0
  0
LINE
  5
207
330
6C
100
AcDbEntity
  8
Visible (ANSI)
100
AcDbLine
 10
399.7466382833807
 20
632.0022968324235
 30
0.0
 11
400.8063099932292
 21
635.9570454929216
 31
0.0
  0
LINE
  5
208
330
6C
100
AcDbEntity
  8
Visible (ANSI)
100
AcDbLine
 10
400.8716789587731
 20
636.2010057935697
 30
0.0
 11
401.9273363619823
 21
640.1407728577325
 31
0.0
  0
LINE
  5
209
330
6C
100
AcDbEntity
  8
Visible (ANSI)
100
AcDbLine
 10
401.9925175280175
 20
640.3840322810722
 30
0.0
 11
402.4783338329688
 21
642.1971234142958
 31
0.0
  0
LINE
  5
20A
330
6C
100
AcDbEntity
  8
Visible (ANSI)
100
AcDbLine
 10
405.3288572779091
 20
611.7615581632816
 30
0.0
 11
405.2814145930168
 21
611.938616673747
 31
0.0
  0
LINE
  5
20B
330
6C
100
AcDbEntity
  8
Visible (ANSI)
100
AcDbLine
 10
405.1485480666924
 20
612.4344813006151
 30
0.0
 11
405.1892208014209
 21
612.2826885881258
 31
0.0
  0
LINE
  5
20C
330
6C
100
AcDbEntity
  8
Visible (ANSI)
100
AcDbLine
 10
405.2562080995286
 20
612.0326885881257
 30
0.0
 11
405.2814145930167
 21
611.9386166737475
 31
0.0
  0
LINE
  5
20D
330
6C
100
AcDbEntity
  8
Visible (ANSI)
100
AcDbLine
 10
405.1485480666924
 20
612.4344813006151
 30
0.0
 11
405.9604925490634
 21
612.6520411689654
 31
0.0
  0
LINE
  5
20E
330
6C
100
AcDbEntity
  8
Visible (ANSI)
100
AcDbLine
 10
404.0722714053966
 20
617.3377278760425
 30
0.0
 11
407.2735697156257
 21
618.1955131729995
 31
0.0
  0
LINE
  5
20F
330
6C
100
AcDbEntity
  8
Visible (ANSI)
100
AcDbLine
 10
407.5271820517325
 20
618.2634683936499
 30
0.0
 11
411.5717480588266
 21
619.3472065889851
 31
0.0
  0
LINE
  5
210
330
6C
100
AcDbEntity
  8
Visible (ANSI)
100
AcDbLine
 10
411.81934882068
 20
619.4135510131691
 30
0.0
 11
415.8019650195161
 21
620.4806898074102
 31
0.0
  0
LINE
  5
211
330
6C
100
AcDbEntity
  8
Visible (ANSI)
100
AcDbLine
 10
416.0471446032044
 20
620.5463854788602
 30
0.0
 11
420.0018932637026
 21
621.6060571887087
 31
0.0
  0
LINE
  5
212
330
6C
100
AcDbEntity
  8
Visible (ANSI)
100
AcDbLine
 10
420.2458535643506
 20
621.6714261542526
 30
0.0
 11
424.1856206285134
 21
622.7270835574618
 31
0.0
  0
LINE
  5
213
330
6C
100
AcDbEntity
  8
Visible (ANSI)
100
AcDbLine
 10
424.4288800518531
 20
622.792264723497
 30
0.0
 11
426.2419711850767
 21
623.2780810284482
 31
0.0
  0
LINE
  5
214
330
6C
100
AcDbEntity
  8
Visible (ANSI)
100
AcDbLine
 10
401.3092602216297
 20
605.5916726855396
 30
0.0
 11
401.4388760472028
 21
605.7212885111128
 31
0.0
  0
LINE
  5
215
330
6C
100
AcDbEntity
  8
Visible (ANSI)
100
AcDbLine
 10
401.8018741477466
 20
606.0842866116565
 30
0.0
 11
401.4388760472029
 21
605.7212885111129
 31
0.0
  0
LINE
  5
216
330
6C
100
AcDbEntity
  8
Visible (ANSI)
100
AcDbLine
 10
401.8018741477466
 20
606.0842866116565
 30
0.0
 11
402.3962587617673
 21
605.4899019976355
 31
0.0
  0
LINE
  5
217
330
6C
100
AcDbEntity
  8
Visible (ANSI)
100
AcDbLine
 10
405.5100719124378
 20
609.4679928295525
 30
0.0
 11
407.8535849257098
 21
607.1244798162804
 31
0.0
  0
LINE
  5
218
330
6C
100
AcDbEntity
  8
Visible (ANSI)
100
AcDbLine
 10
408.0392420411662
 20
606.938822700824
 30
0.0
 11
411.000069852925
 21
603.9779948890652
 31
0.0
  0
LINE
  5
219
330
6C
100
AcDbEntity
  8
Visible (ANSI)
100
AcDbLine
 10
411.1813261905946
 20
603.7967385513957
 30
0.0
 11
414.0968035951894
 21
600.8812611468009
 31
0.0
  0
LINE
  5
21A
330
6C
100
AcDbEntity
  8
Visible (ANSI)
100
AcDbLine
 10
414.2762875074279
 20
600.7017772345624
 30
0.0
 11
417.1713644580775
 21
597.8067002839128
 31
0.0
  0
LINE
  5
21B
330
6C
100
AcDbEntity
  8
Visible (ANSI)
100
AcDbLine
 10
417.3499557931816
 20
597.6281089488086
 30
0.0
 11
420.2340654541352
 21
594.7439992878551
 31
0.0
  0
LINE
  5
21C
330
6C
100
AcDbEntity
  8
Visible (ANSI)
100
AcDbLine
 10
420.4121437114399
 20
594.5659210305505
 30
0.0
 11
421.7394185397122
 21
593.2386462022781
 31
0.0
  0
LINE
  5
21D
330
6C
100
AcDbEntity
  8
Visible (ANSI)
100
AcDbLine
 10
393.9561841313248
 20
605.9878031103838
 30
0.0
 11
394.1332426417901
 21
605.9403604254915
 31
0.0
  0
LINE
  5
21E
330
6C
100
AcDbEntity
  8
Visible (ANSI)
100
AcDbLine
 10
394.6291072686583
 20
605.8074938991669
 30
0.0
 11
394.1332426417901
 21
605.9403604254915
 31
0.0
  0
LINE
  5
21F
330
6C
100
AcDbEntity
  8
Visible (ANSI)
100
AcDbLine
 10
394.6291072686583
 20
605.8074938991669
 30
0.0
 11
394.4115474003082
 21
604.9955494167959
 31
0.0
  0
LINE
  5
220
330
6C
100
AcDbEntity
  8
Visible (ANSI)
100
AcDbLine
 10
399.4135816946453
 20
604.2879535416357
 30
0.0
 11
398.5557963976884
 21
601.0866552314066
 31
0.0
  0
LINE
  5
221
330
6C
100
AcDbEntity
  8
Visible (ANSI)
100
AcDbLine
 10
398.4878411770381
 20
600.8330428952998
 30
0.0
 11
398.1007811876042
 21
599.3885153491559
 31
0.0
  0
LINE
  5
222
330
6C
100
AcDbEntity
  8
Visible (ANSI)
100
AcDbLine
 10
397.8507811876042
 20
598.4555026472636
 30
0.0
 11
397.4041029817028
 21
596.7884768882059
 31
0.0
  0
LINE
  5
223
330
6C
100
AcDbEntity
  8
Visible (ANSI)
100
AcDbLine
 10
397.3377585575188
 20
596.5408761263524
 30
0.0
 11
396.2706197632776
 21
592.5582599275164
 31
0.0
  0
LINE
  5
224
330
6C
100
AcDbEntity
  8
Visible (ANSI)
100
AcDbLine
 10
396.2049240918276
 20
592.3130803438279
 30
0.0
 11
395.1452523819791
 21
588.3583316833298
 31
0.0
  0
LINE
  5
225
330
6C
100
AcDbEntity
  8
Visible (ANSI)
100
AcDbLine
 10
395.0798834164352
 20
588.1143713826816
 30
0.0
 11
394.0242260132261
 21
584.1746043185191
 31
0.0
  0
LINE
  5
226
330
6C
100
AcDbEntity
  8
Visible (ANSI)
100
AcDbLine
 10
393.959044847191
 20
583.9313448951791
 30
0.0
 11
393.4732285422396
 21
582.1182537619556
 31
0.0
  0
LINE
  5
227
330
6C
100
AcDbEntity
  8
Visible (ANSI)
100
AcDbLine
 10
394.6423021535787
 20
618.7237044907118
 30
0.0
 11
391.9213407261496
 21
621.444665918141
 31
0.0
  0
LINE
  5
228
330
6C
100
AcDbEntity
  8
Visible (ANSI)
100
AcDbLine
 10
391.740770802561
 20
621.6252358417295
 30
0.0
 11
388.8376357153818
 21
624.5283709289087
 31
0.0
  0
LINE
  5
229
330
6C
100
AcDbEntity
  8
Visible (ANSI)
100
AcDbLine
 10
388.6589060428538
 20
624.7071006014367
 30
0.0
 11
385.7750215043401
 21
627.5909851399505
 31
0.0
  0
LINE
  5
22A
330
6C
100
AcDbEntity
  8
Visible (ANSI)
100
AcDbLine
 10
385.5970547322818
 20
627.7689519120087
 30
0.0
 11
382.722007608036
 21
630.6439990362546
 31
0.0
  0
LINE
  5
22B
330
6C
100
AcDbEntity
  8
Visible (ANSI)
100
AcDbLine
 10
382.5444298636989
 20
630.8215767805916
 30
0.0
 11
379.6741789245338
 21
633.6918277197568
 31
0.0
  0
LINE
  5
22C
330
6C
100
AcDbEntity
  8
Visible (ANSI)
100
AcDbLine
 10
379.4968262865066
 20
633.8691803577839
 30
0.0
 11
378.1745803771686
 21
635.1914262671218
 31
0.0
  0
LINE
  5
22D
330
6C
100
AcDbEntity
  8
Visible (ANSI)
100
AcDbLine
 10
401.9953782438837
 20
618.3275740658678
 30
0.0
 11
402.9913192490402
 21
622.0444764984534
 31
0.0
  0
LINE
  5
22E
330
6C
100
AcDbEntity
  8
Visible (ANSI)
100
AcDbLine
 10
403.057412428233
 20
622.2911396012349
 30
0.0
 11
404.1200336207586
 21
626.2568958809395
 31
0.0
  0
LINE
  5
22F
330
6C
100
AcDbEntity
  8
Visible (ANSI)
100
AcDbLine
 10
404.1854532213139
 20
626.5010451540229
 30
0.0
 11
405.2410282239911
 21
630.4405046952139
 31
0.0
  0
LINE
  5
230
330
6C
100
AcDbEntity
  8
Visible (ANSI)
100
AcDbLine
 10
405.306168583594
 20
630.683611826875
 30
0.0
 11
406.3585088681453
 21
634.6109992356721
 31
0.0
  0
LINE
  5
231
330
6C
100
AcDbEntity
  8
Visible (ANSI)
100
AcDbLine
 10
406.4235068337194
 20
634.8535749455833
 30
0.0
 11
407.4740915926899
 21
638.7744106437191
 31
0.0
  0
LINE
  5
232
330
6C
100
AcDbEntity
  8
Visible (ANSI)
100
AcDbLine
 10
407.5390071636362
 20
639.0166788526924
 30
0.0
 11
408.0229827565038
 21
640.8229003548979
 31
0.0
  0
LINE
  5
233
330
6C
100
AcDbEntity
  8
Visible (ANSI)
100
AcDbLine
 10
405.3288572779091
 20
611.7615581632816
 30
0.0
 11
406.3407297989052
 21
612.0326885881257
 31
0.0
  0
LINE
  5
234
330
6C
100
AcDbEntity
  8
Visible (ANSI)
100
AcDbLine
 10
407.2737425007974
 20
612.2826885881258
 30
0.0
 11
409.0457597104949
 21
612.7574991684382
 31
0.0
  0
LINE
  5
235
330
6C
100
AcDbEntity
  8
Visible (ANSI)
100
AcDbLine
 10
409.2924228132763
 20
612.823592347631
 30
0.0
 11
413.2581790929809
 21
613.8862135401565
 31
0.0
  0
LINE
  5
236
330
6C
100
AcDbEntity
  8
Visible (ANSI)
100
AcDbLine
 10
413.5023283660642
 20
613.9516331407119
 30
0.0
 11
417.4417879072552
 21
615.0072081433891
 31
0.0
  0
LINE
  5
237
330
6C
100
AcDbEntity
  8
Visible (ANSI)
100
AcDbLine
 10
417.6848950389164
 20
615.0723485029918
 30
0.0
 11
421.6122824477135
 21
616.1246887875432
 31
0.0
  0
LINE
  5
238
330
6C
100
AcDbEntity
  8
Visible (ANSI)
100
AcDbLine
 10
421.8548581576247
 20
616.1896867531173
 30
0.0
 11
425.7756938557604
 21
617.2402715120879
 31
0.0
  0
LINE
  5
239
330
6C
100
AcDbEntity
  8
Visible (ANSI)
100
AcDbLine
 10
426.0179620647337
 20
617.3051870830341
 30
0.0
 11
427.8241835669395
 21
617.7891626759018
 31
0.0
  0
LINE
  5
23A
330
6C
100
AcDbEntity
  8
Visible (ANSI)
100
AcDbLine
 10
401.3092602216297
 20
605.5916726855396
 30
0.0
 11
404.0302216490588
 21
602.8707112581105
 31
0.0
  0
LINE
  5
23B
330
6C
100
AcDbEntity
  8
Visible (ANSI)
100
AcDbLine
 10
404.2107915726473
 20
602.6901413345219
 30
0.0
 11
407.1139266598264
 21
599.7870062473428
 31
0.0
  0
LINE
  5
23C
330
6C
100
AcDbEntity
  8
Visible (ANSI)
100
AcDbLine
 10
407.2926563323544
 20
599.6082765748147
 30
0.0
 11
410.1765408708683
 21
596.7243920363009
 31
0.0
  0
LINE
  5
23D
330
6C
100
AcDbEntity
  8
Visible (ANSI)
100
AcDbLine
 10
410.3545076429266
 20
596.5464252642427
 30
0.0
 11
413.2295547671724
 21
593.6713781399969
 31
0.0
  0
LINE
  5
23E
330
6C
100
AcDbEntity
  8
Visible (ANSI)
100
AcDbLine
 10
413.4071325115094
 20
593.4938003956598
 30
0.0
 11
416.2773834506745
 21
590.6235494564947
 31
0.0
  0
LINE
  5
23F
330
6C
100
AcDbEntity
  8
Visible (ANSI)
100
AcDbLine
 10
416.4547360887017
 20
590.4461968184675
 30
0.0
 11
417.7769819980396
 21
589.1239509091295
 31
0.0
  0
LINE
  5
240
330
6C
100
AcDbEntity
  8
Visible (ANSI)
100
AcDbLine
 10
393.9561841313248
 20
605.9878031103838
 30
0.0
 11
392.9602431261681
 21
602.270900677798
 31
0.0
  0
LINE
  5
241
330
6C
100
AcDbEntity
  8
Visible (ANSI)
100
AcDbLine
 10
392.8941499469753
 20
602.0242375750166
 30
0.0
 11
391.8315287544498
 21
598.058481295312
 31
0.0
  0
LINE
  5
242
330
6C
100
AcDbEntity
  8
Visible (ANSI)
100
AcDbLine
 10
391.7661091538944
 20
597.8143320222287
 30
0.0
 11
390.7105341512172
 21
593.8748724810376
 31
0.0
  0
LINE
  5
243
330
6C
100
AcDbEntity
  8
Visible (ANSI)
100
AcDbLine
 10
390.6453937916144
 20
593.6317653493764
 30
0.0
 11
389.593053507063
 21
589.7043779405793
 31
0.0
  0
LINE
  5
244
330
6C
100
AcDbEntity
  8
Visible (ANSI)
100
AcDbLine
 10
389.5280555414889
 20
589.4618022306682
 30
0.0
 11
388.4774707825184
 21
585.5409665325324
 31
0.0
  0
LINE
  5
245
330
6C
100
AcDbEntity
  8
Visible (ANSI)
100
AcDbLine
 10
388.4125552115722
 20
585.2986983235592
 30
0.0
 11
387.9285796187045
 21
583.4924768213535
 31
0.0
  0
LINE
  5
246
330
6C
100
AcDbEntity
  8
Visible (ANSI)
100
AcDbLine
 10
390.803014308516
 20
611.8808958756362
 30
0.0
 11
389.9910698261449
 21
611.663336007286
 31
0.0
  0
LINE
  5
247
330
6C
100
AcDbEntity
  8
Visible (ANSI)
100
AcDbLine
 10
390.6227050972992
 20
612.5538190129698
 30
0.0
 11
390.6701477821915
 21
612.3767605025044
 31
0.0
  0
LINE
  5
248
330
6C
100
AcDbEntity
  8
Visible (ANSI)
100
AcDbLine
 10
390.803014308516
 20
611.8808958756362
 30
0.0
 11
390.7623415737875
 21
612.0326885881257
 31
0.0
  0
LINE
  5
249
330
6C
100
AcDbEntity
  8
Visible (ANSI)
100
AcDbLine
 10
390.6953542756797
 20
612.2826885881257
 30
0.0
 11
390.6701477821918
 21
612.3767605025035
 31
0.0
  0
LINE
  5
24A
330
6C
100
AcDbEntity
  8
Visible (ANSI)
100
AcDbLine
 10
391.8792909698118
 20
606.9776493002088
 30
0.0
 11
388.6779926595827
 21
606.1198640032519
 31
0.0
  0
LINE
  5
24B
330
6C
100
AcDbEntity
  8
Visible (ANSI)
100
AcDbLine
 10
388.4243803234759
 20
606.0519087826016
 30
0.0
 11
384.3798143163819
 21
604.9681705872663
 31
0.0
  0
LINE
  5
24C
330
6C
100
AcDbEntity
  8
Visible (ANSI)
100
AcDbLine
 10
384.1322135545283
 20
604.9018261630824
 30
0.0
 11
380.1495973556924
 21
603.8346873688412
 31
0.0
  0
LINE
  5
24D
330
6C
100
AcDbEntity
  8
Visible (ANSI)
100
AcDbLine
 10
379.9044177720039
 20
603.7689916973912
 30
0.0
 11
375.9496691115058
 21
602.7093199875427
 31
0.0
  0
LINE
  5
24E
330
6C
100
AcDbEntity
  8
Visible (ANSI)
100
AcDbLine
 10
375.7057088108578
 20
602.6439510219988
 30
0.0
 11
371.765941746695
 21
601.5882936187896
 31
0.0
  0
LINE
  5
24F
330
6C
100
AcDbEntity
  8
Visible (ANSI)
100
AcDbLine
 10
371.5226823233552
 20
601.5231124527545
 30
0.0
 11
369.7095911901316
 21
601.0372961478033
 31
0.0
  0
LINE
  5
250
330
6C
100
AcDbEntity
  8
Visible (ANSI)
100
AcDbLine
 10
390.6227050972992
 20
612.5538190129698
 30
0.0
 11
389.6108325763031
 21
612.2826885881258
 31
0.0
  0
LINE
  5
251
330
6C
100
AcDbEntity
  8
Visible (ANSI)
100
AcDbLine
 10
388.677819874411
 20
612.0326885881257
 30
0.0
 11
386.9058026647135
 21
611.5578780078132
 31
0.0
  0
LINE
  5
252
330
6C
100
AcDbEntity
  8
Visible (ANSI)
100
AcDbLine
 10
386.6591395619321
 20
611.4917848286204
 30
0.0
 11
382.6933832822275
 21
610.4291636360949
 31
0.0
  0
LINE
  5
253
330
6C
100
AcDbEntity
  8
Visible (ANSI)
100
AcDbLine
 10
382.449234009144
 20
610.3637440355396
 30
0.0
 11
378.5097744679531
 21
609.3081690328624
 31
0.0
  0
LINE
  5
254
330
6C
100
AcDbEntity
  8
Visible (ANSI)
100
AcDbLine
 10
378.2666673362919
 20
609.2430286732596
 30
0.0
 11
374.3392799274948
 21
608.1906883887081
 31
0.0
  0
LINE
  5
255
330
6C
100
AcDbEntity
  8
Visible (ANSI)
100
AcDbLine
 10
374.0967042175836
 20
608.1256904231341
 30
0.0
 11
370.1758685194479
 21
607.0751056641634
 31
0.0
  0
LINE
  5
256
330
6C
100
AcDbEntity
  8
Visible (ANSI)
100
AcDbLine
 10
369.9336003104746
 20
607.0101900932173
 30
0.0
 11
368.127378808269
 21
606.5262145003496
 31
0.0
  0
LINE
  5
257
330
6C
100
AcDbEntity
  8
Visible (ANSI)
100
AcDbLine
 10
429.7257811876041
 20
587.8451885881258
 30
0.0
 11
418.5893196696309
 21
587.8451885881258
 31
0.0
  0
LINE
  5
258
330
6C
100
AcDbEntity
  8
Visible (ANSI)
100
AcDbLine
 10
433.2257811876042
 20
643.9701885881257
 30
0.0
 11
433.2257811876042
 21
587.8451885881258
 31
0.0
  0
LINE
  5
259
330
6C
100
AcDbEntity
  8
Visible (ANSI)
100
AcDbLine
 10
362.7257811876042
 20
643.9701885881257
 30
0.0
 11
395.9806699751651
 21
643.9701885881257
 31
0.0
  0
LINE
  5
25A
330
6C
100
AcDbEntity
  8
Visible (ANSI)
100
AcDbLine
 10
399.9708924000433
 20
643.9701885881257
 30
0.0
 11
433.2257811876042
 21
643.9701885881257
 31
0.0
  0
LINE
  5
25B
330
6C
100
AcDbEntity
  8
Visible (ANSI)
100
AcDbLine
 10
362.7257811876042
 20
593.0951885881255
 30
0.0
 11
362.7257811876042
 21
643.9701885881257
 31
0.0
  0
LINE
  5
25C
330
6C
100
AcDbEntity
  8
Visible (ANSI)
100
AcDbLine
 10
377.3622427055774
 20
587.8451885881258
 30
0.0
 11
366.2257811876042
 21
587.8451885881258
 31
0.0
  0
CIRCLE
  5
25D
330
6C
100
AcDbEntity
  8
Visible (ANSI)
100
AcDbCircle
 10
397.9757811876043
 20
612.1576885881258
 30
0.0
 40
7.042592895920238
  0
CIRCLE
  5
25E
330
6C
100
AcDbEntity
  8
Visible (ANSI)
100
AcDbCircle
 10
397.9757811876043
 20
612.1576885881258
 30
0.0
 40
6.792592895920239
  0
CIRCLE
  5
25F
330
6C
100
AcDbEntity
  8
Visible (ANSI)
100
AcDbCircle
 10
397.9757811876043
 20
612.1576885881258
 30
0.0
 40
11.33621654260442
  0
CIRCLE
  5
260
330
6C
100
AcDbEntity
  8
Visible (ANSI)
100
AcDbCircle
 10
397.9757811876043
 20
612.1576885881258
 30
0.0
 40
11.08621654260441
  0
CIRCLE
  5
261
330
6C
100
AcDbEntity
  8
Visible (ANSI)
100
AcDbCircle
 10
397.9757811876043
 20
612.1576885881258
 30
0.0
 40
15.62984018928859
  0
CIRCLE
  5
262
330
6C
100
AcDbEntity
  8
Visible (ANSI)
100
AcDbCircle
 10
397.9757811876043
 20
612.1576885881258
 30
0.0
 40
15.37984018928859
  0
CIRCLE
  5
263
330
6C
100
AcDbEntity
  8
Visible (ANSI)
100
AcDbCircle
 10
397.9757811876043
 20
612.1576885881258
 30
0.0
 40
19.92346383597277
  0
CIRCLE
  5
264
330
6C
100
AcDbEntity
  8
Visible (ANSI)
100
AcDbCircle
 10
397.9757811876043
 20
612.1576885881258
 30
0.0
 40
19.67346383597277
  0
CIRCLE
  5
265
330
6C
100
AcDbEntity
  8
Visible (ANSI)
100
AcDbCircle
 10
397.9757811876043
 20
612.1576885881258
 30
0.0
 40
24.21708748265695
  0
CIRCLE
  5
266
330
6C
100
AcDbEntity
  8
Visible (ANSI)
100
AcDbCircle
 10
397.9757811876043
 20
612.1576885881258
 30
0.0
 40
23.96708748265695
  0
CIRCLE
  5
267
330
6C
100
AcDbEntity
  8
Visible (ANSI)
100
AcDbCircle
 10
397.9757811876043
 20
612.1576885881258
 30
0.0
 40
28.51071112934113
  0
CIRCLE
  5
268
330
6C
100
AcDbEntity
  8
Visible (ANSI)
100
AcDbCircle
 10
397.9757811876043
 20
612.1576885881258
 30
0.0
 40
28.26071112934114
  0
MTEXT
  5
269
330
6C
100
AcDbEntity
  8
Symbol (ANSI)
100
AcDbMText
 10
365.7911464586875
 20
500.5138646722989
 30
0.0
 40
12.49999981226883
 41
0.0
 71
     7
 72
     1
  1
Plan View
  7
Label Text (ANSI)
 73
     1
 44
1.0
  0
LINE
  5
26B
330
6C
100
AcDbEntity
  8
Visible (ANSI)
100
AcDbLine
 10
427.9757811874922
 20
258.765264546941
 30
0.0
 11
427.9757811874921
 21
303.0152645469407
 31
0.0
  0
LINE
  5
26C
330
6C
100
AcDbEntity
  8
Visible (ANSI)
100
AcDbLine
 10
425.9757811874922
 20
303.0152645469408
 30
0.0
 11
425.9757811874922
 21
258.765264546941
 31
0.0
  0
LINE
  5
26D
330
6C
100
AcDbEntity
  8
Visible (ANSI)
100
AcDbLine
 10
423.9757811874922
 20
258.765264546941
 30
0.0
 11
423.9757811874921
 21
303.0152645469406
 31
0.0
  0
LINE
  5
26E
330
6C
100
AcDbEntity
  8
Visible (ANSI)
100
AcDbLine
 10
421.9757811874922
 20
303.0152645469408
 30
0.0
 11
421.9757811874922
 21
258.765264546941
 31
0.0
  0
LINE
  5
26F
330
6C
100
AcDbEntity
  8
Visible (ANSI)
100
AcDbLine
 10
419.9757811874922
 20
258.765264546941
 30
0.0
 11
419.9757811874922
 21
303.0152645469406
 31
0.0
  0
LINE
  5
270
330
6C
100
AcDbEntity
  8
Visible (ANSI)
100
AcDbLine
 10
417.9757811874922
 20
303.0152645469408
 30
0.0
 11
417.9757811874922
 21
258.7652645469409
 31
0.0
  0
LINE
  5
271
330
6C
100
AcDbEntity
  8
Visible (ANSI)
100
AcDbLine
 10
415.9757811874923
 20
258.7652645469409
 30
0.0
 11
415.9757811874922
 21
303.0152645469406
 31
0.0
  0
LINE
  5
272
330
6C
100
AcDbEntity
  8
Visible (ANSI)
100
AcDbLine
 10
413.9757811874923
 20
303.0152645469407
 30
0.0
 11
413.9757811874923
 21
258.7652645469409
 31
0.0
  0
LINE
  5
273
330
6C
100
AcDbEntity
  8
Visible (ANSI)
100
AcDbLine
 10
411.9757811874923
 20
258.7652645469409
 30
0.0
 11
411.9757811874922
 21
303.0152645469406
 31
0.0
  0
LINE
  5
274
330
6C
100
AcDbEntity
  8
Visible (ANSI)
100
AcDbLine
 10
409.9757811874923
 20
303.0152645469407
 30
0.0
 11
409.9757811874923
 21
258.7652645469409
 31
0.0
  0
LINE
  5
275
330
6C
100
AcDbEntity
  8
Visible (ANSI)
100
AcDbLine
 10
407.9757811874923
 20
258.7652645469409
 30
0.0
 11
407.9757811874923
 21
303.0152645469406
 31
0.0
  0
LINE
  5
276
330
6C
100
AcDbEntity
  8
Visible (ANSI)
100
AcDbLine
 10
405.9757811874924
 20
303.0152645469407
 30
0.0
 11
405.9757811874924
 21
258.7652645469408
 31
0.0
  0
LINE
  5
277
330
6C
100
AcDbEntity
  8
Visible (ANSI)
100
AcDbLine
 10
403.9757811874923
 20
258.7652645469408
 30
0.0
 11
403.9757811874923
 21
303.0152645469406
 31
0.0
  0
LINE
  5
278
330
6C
100
AcDbEntity
  8
Visible (ANSI)
100
AcDbLine
 10
401.9757811874923
 20
303.0152645469407
 30
0.0
 11
401.9757811874923
 21
258.7652645469408
 31
0.0
  0
LINE
  5
279
330
6C
100
AcDbEntity
  8
Visible (ANSI)
100
AcDbLine
 10
399.9757811874924
 20
258.7652645469408
 30
0.0
 11
399.9757811874924
 21
303.0152645469406
 31
0.0
  0
LINE
  5
27A
330
6C
100
AcDbEntity
  8
Visible (ANSI)
100
AcDbLine
 10
397.9757811874924
 20
303.0152645469407
 30
0.0
 11
397.9757811874924
 21
258.7652645469408
 31
0.0
  0
LINE
  5
27B
330
6C
100
AcDbEntity
  8
Visible (ANSI)
100
AcDbLine
 10
395.9757811874924
 20
258.7652645469408
 30
0.0
 11
395.9757811874924
 21
303.0152645469406
 31
0.0
  0
LINE
  5
27C
330
6C
100
AcDbEntity
  8
Visible (ANSI)
100
AcDbLine
 10
393.9757811874924
 20
303.0152645469407
 30
0.0
 11
393.9757811874924
 21
258.7652645469408
 31
0.0
  0
LINE
  5
27D
330
6C
100
AcDbEntity
  8
Visible (ANSI)
100
AcDbLine
 10
391.9757811874925
 20
258.7652645469408
 30
0.0
 11
391.9757811874924
 21
303.0152645469406
 31
0.0
  0
LINE
  5
27E
330
6C
100
AcDbEntity
  8
Visible (ANSI)
100
AcDbLine
 10
389.9757811874924
 20
303.0152645469407
 30
0.0
 11
389.9757811874924
 21
258.7652645469408
 31
0.0
  0
LINE
  5
27F
330
6C
100
AcDbEntity
  8
Visible (ANSI)
100
AcDbLine
 10
387.9757811874925
 20
258.7652645469408
 30
0.0
 11
387.9757811874924
 21
303.0152645469406
 31
0.0
  0
LINE
  5
280
330
6C
100
AcDbEntity
  8
Visible (ANSI)
100
AcDbLine
 10
385.9757811874924
 20
303.0152645469407
 30
0.0
 11
385.9757811874925
 21
258.7652645469408
 31
0.0
  0
LINE
  5
281
330
6C
100
AcDbEntity
  8
Visible (ANSI)
100
AcDbLine
 10
383.9757811874924
 20
258.7652645469408
 30
0.0
 11
383.9757811874924
 21
303.0152645469406
 31
0.0
  0
LINE
  5
282
330
6C
100
AcDbEntity
  8
Visible (ANSI)
100
AcDbLine
 10
381.9757811874924
 20
303.0152645469407
 30
0.0
 11
381.9757811874925
 21
258.7652645469408
 31
0.0
  0
LINE
  5
283
330
6C
100
AcDbEntity
  8
Visible (ANSI)
100
AcDbLine
 10
379.9757811874924
 20
258.7652645469408
 30
0.0
 11
379.9757811874924
 21
303.0152645469406
 31
0.0
  0
LINE
  5
284
330
6C
100
AcDbEntity
  8
Visible (ANSI)
100
AcDbLine
 10
377.9757811874924
 20
303.0152645469407
 30
0.0
 11
377.9757811874925
 21
258.7652645469408
 31
0.0
  0
LINE
  5
285
330
6C
100
AcDbEntity
  8
Visible (ANSI)
100
AcDbLine
 10
375.9757811874925
 20
258.7652645469408
 30
0.0
 11
375.9757811874925
 21
303.0152645469406
 31
0.0
  0
LINE
  5
286
330
6C
100
AcDbEntity
  8
Visible (ANSI)
100
AcDbLine
 10
373.9757811874924
 20
303.0152645469406
 30
0.0
 11
373.9757811874925
 21
258.7652645469408
 31
0.0
  0
LINE
  5
287
330
6C
100
AcDbEntity
  8
Visible (ANSI)
100
AcDbLine
 10
371.9757811874925
 20
258.7652645469408
 30
0.0
 11
371.9757811874925
 21
303.0152645469405
 31
0.0
  0
LINE
  5
288
330
6C
100
AcDbEntity
  8
Visible (ANSI)
100
AcDbLine
 10
369.9757811874925
 20
303.0152645469406
 30
0.0
 11
369.9757811874925
 21
258.7652645469408
 31
0.0
  0
LINE
  5
289
330
6C
100
AcDbEntity
  8
Visible (ANSI)
100
AcDbLine
 10
367.9757811874925
 20
258.7652645469408
 30
0.0
 11
367.9757811874925
 21
303.0152645469405
 31
0.0
  0
LINE
  5
28A
330
6C
100
AcDbEntity
  8
Visible (ANSI)
100
AcDbLine
 10
361.163281187491
 20
310.8902645469545
 30
0.0
 11
355.913281187491
 21
310.8902645469545
 31
0.0
  0
LINE
  5
28B
330
6C
100
AcDbEntity
  8
Visible (ANSI)
100
AcDbLine
 10
355.913281187491
 20
318.8902645469545
 30
0.0
 11
361.163281187491
 21
318.8902645469545
 31
0.0
  0
LINE
  5
28C
330
6C
100
AcDbEntity
  8
Visible (ANSI)
100
AcDbLine
 10
355.913281187491
 20
310.8902645469545
 30
0.0
 11
355.913281187491
 21
318.8902645469545
 31
0.0
  0
LINE
  5
28D
330
6C
100
AcDbEntity
  8
Visible (ANSI)
100
AcDbLine
 10
361.163281187491
 20
310.8902645469545
 30
0.0
 11
361.163281187491
 21
318.8902645469545
 31
0.0
  0
LINE
  5
28E
330
6C
100
AcDbEntity
  8
Visible (ANSI)
100
AcDbLine
 10
360.788281187491
 20
288.0152645469546
 30
0.0
 11
356.288281187491
 21
288.0152645469546
 31
0.0
  0
LINE
  5
28F
330
6C
100
AcDbEntity
  8
Visible (ANSI)
100
AcDbLine
 10
356.788281187491
 20
282.0152645469546
 30
0.0
 11
360.288281187491
 21
282.0152645469546
 31
0.0
  0
LINE
  5
290
330
6C
100
AcDbEntity
  8
Visible (ANSI)
100
AcDbLine
 10
356.788281187491
 20
282.0152645469546
 30
0.0
 11
356.288281187491
 21
288.0152645469546
 31
0.0
  0
LINE
  5
291
330
6C
100
AcDbEntity
  8
Visible (ANSI)
100
AcDbLine
 10
360.288281187491
 20
282.0152645469546
 30
0.0
 11
360.788281187491
 21
288.0152645469546
 31
0.0
  0
LINE
  5
292
330
6C
100
AcDbEntity
  8
Visible (ANSI)
100
AcDbLine
 10
356.288281187491
 20
288.0152645469546
 30
0.0
 11
356.288281187491
 21
310.8902645469545
 31
0.0
  0
LINE
  5
293
330
6C
100
AcDbEntity
  8
Visible (ANSI)
100
AcDbLine
 10
360.788281187491
 20
288.0152645469546
 30
0.0
 11
360.788281187491
 21
310.8902645469545
 31
0.0
  0
SPLINE
  5
294
330
6C
100
AcDbEntity
  8
Visible (ANSI)
100
AcDbSpline
210
0.0
220
0.0
230
1.0
 70
     8
 71
     3
 72
    10
 73
     6
 74
     0
 42
0.0000000001
 43
0.0000000001
 40
-0.7986542096911339
 40
-0.7986542096911339
 40
-0.7986542096911339
 40
-0.7986542096911339
 40
-0.6388421714727365
 40
-0.6388421714727365
 40
0.0
 40
0.0
 40
0.0
 40
0.0
 10
351.8507806985376
 20
250.056767510268
 30
0.0
 10
351.8507808620853
 20
250.0567673992793
 30
0.0
 10
351.8504064901764
 20
250.0562007714917
 30
0.0
 10
351.8466545913752
 20
250.0505266088043
 30
0.0
 10
351.837695615037
 20
250.0369912936913
 30
0.0
 10
351.8234374374911
 20
250.0152645469545
 30
0.0
  0
LINE
  5
295
330
6C
100
AcDbEntity
  8
Visible (ANSI)
100
AcDbLine
 10
356.788281187491
 20
266.9380459211932
 30
0.0
 11
356.788281187491
 21
282.0152645469546
 31
0.0
  0
LINE
  5
296
330
6C
100
AcDbEntity
  8
Visible (ANSI)
100
AcDbLine
 10
360.288281187491
 20
266.9380459211932
 30
0.0
 11
360.288281187491
 21
282.0152645469546
 31
0.0
  0
ARC
  5
297
330
6C
100
AcDbEntity
  8
Visible (ANSI)
100
AcDbCircle
 10
352.5382811874911
 20
266.9380459211932
 30
0.0
 40
7.749999999999991
100
AcDbArc
 50
314.9999999999999
 51
0.0
  0
ARC
  5
298
330
6C
100
AcDbEntity
  8
Visible (ANSI)
100
AcDbCircle
 10
352.5382811874911
 20
266.9380459211932
 30
0.0
 40
4.249999999999986
100
AcDbArc
 50
314.9999999999993
 51
0.0
  0
LINE
  5
299
330
6C
100
AcDbEntity
  8
Visible (ANSI)
100
AcDbLine
 10
350.6207036332953
 20
259.0100607269118
 30
0.0
 11
355.5434850075339
 21
263.9328421011504
 31
0.0
  0
LINE
  5
29A
330
6C
100
AcDbEntity
  8
Visible (ANSI)
100
AcDbLine
 10
353.0955773674482
 20
256.5351869927589
 30
0.0
 11
358.0183587416868
 21
261.4579683669974
 31
0.0
  0
ARC
  5
29B
330
6C
100
AcDbEntity
  8
Visible (ANSI)
100
AcDbCircle
 10
356.1007811874911
 20
253.5299831727161
 30
0.0
 40
7.74999999999999
100
AcDbArc
 50
134.9999999999998
 51
180.0
  0
ARC
  5
29C
330
6C
100
AcDbEntity
  8
Visible (ANSI)
100
AcDbCircle
 10
356.1007811874911
 20
253.5299831727161
 30
0.0
 40
4.249999999999984
100
AcDbArc
 50
135.0
 51
180.0
  0
LINE
  5
29D
330
6C
100
AcDbEntity
  8
Visible (ANSI)
100
AcDbLine
 10
348.3507811874911
 20
250.0152645469546
 30
0.0
 11
348.3507811874911
 21
253.5299831727161
 31
0.0
  0
LINE
  5
29E
330
6C
100
AcDbEntity
  8
Visible (ANSI)
100
AcDbLine
 10
351.8507811874911
 20
250.0567671690838
 30
0.0
 11
351.8507811874911
 21
253.5299831727161
 31
0.0
  0
SPLINE
  5
29F
330
6C
100
AcDbEntity
  8
Visible (ANSI)
100
AcDbSpline
210
0.0
220
0.0
230
1.0
 70
     8
 71
     3
 72
    10
 73
     6
 74
     0
 42
0.0000000001
 43
0.0000000001
 40
-3.514908903879104
 40
-3.514908903879104
 40
-3.514908903879104
 40
-3.514908903879104
 40
-2.166744170901307
 40
-2.166744170901307
 40
0.0
 40
0.0
 40
0.0
 40
0.0
 10
352.1663975707631
 20
250.0152645469544
 30
0.0
 10
352.1162961049894
 20
249.9276572407375
 30
0.0
 10
352.0555955688486
 20
249.8180439486288
 30
0.0
 10
351.8904173009287
 20
249.4979032129964
 30
0.0
 10
351.7805616072868
 20
249.2640302644737
 30
0.0
 10
351.6856259111615
 20
249.0152645469542
 30
0.0
  0
LINE
  5
2A0
330
6C
100
AcDbEntity
  8
Visible (ANSI)
100
AcDbLine
 10
351.6856259111615
 20
249.0152645469542
 30
0.0
 11
347.9132811874911
 21
249.0152645469546
 31
0.0
  0
LINE
  5
2A1
330
6C
100
AcDbEntity
  8
Visible (ANSI)
100
AcDbLine
 10
347.9132811874911
 20
250.0152645469546
 30
0.0
 11
352.1663975707631
 21
250.0152645469544
 31
0.0
  0
LINE
  5
2A2
330
6C
100
AcDbEntity
  8
Visible (ANSI)
100
AcDbLine
 10
347.9132811874911
 20
250.0152645469546
 30
0.0
 11
347.9132811874911
 21
249.0152645469546
 31
0.0
  0
SPLINE
  5
2A3
330
6C
100
AcDbEntity
  8
Visible (ANSI)
100
AcDbSpline
210
0.0
220
0.0
230
1.0
 70
     8
 71
     3
 72
    16
 73
    12
 74
     0
 42
0.0000000001
 43
0.0000000001
 40
-11.91268969849272
 40
-11.91268969849272
 40
-11.91268969849272
 40
-11.91268969849272
 40
-11.31215858249456
 40
-11.31215858249456
 40
-7.398374523200155
 40
-7.398374523200155
 40
-3.526322209402161
 40
-3.526322209402161
 40
0.0
 40
0.0
 40
0.0549825314471541
 40
0.0549825314471541
 40
0.0549825314471541
 40
0.0549825314471541
 10
351.2296874374811
 20
249.0152645469354
 30
0.0
 10
351.2014053795427
 20
248.9620277319924
 30
0.0
 10
351.1732742792355
 20
248.9080711462787
 30
0.0
 10
350.9643676826406
 20
248.4992947545219
 30
0.0
 10
350.7765793497121
 20
248.0873247201522
 30
0.0
 10
350.4417340016277
 20
247.1472429985305
 30
0.0
 10
350.3100636143236
 20
246.6617173647063
 30
0.0
 10
350.1437268811674
 20
245.7101630168622
 30
0.0
 10
350.1020626501979
 20
245.249681418664
 30
0.0
 10
350.100790949525
 20
244.7796956403634
 30
0.0
 10
350.1007811874911
 20
244.7724801022621
 30
0.0
 10
350.1007811874911
 20
244.7652645469541
 30
0.0
  0
LINE
  5
2A4
330
6C
100
AcDbEntity
  8
Visible (ANSI)
100
AcDbLine
 10
348.3507811874911
 20
249.0152645469546
 30
0.0
 11
348.3507811874911
 21
244.7652645469546
 31
0.0
  0
LINE
  5
2A5
330
6C
100
AcDbEntity
  8
Visible (ANSI)
100
AcDbLine
 10
364.4757811874924
 20
314.1402645469407
 30
0.0
 11
431.4757811874907
 21
314.1402645469408
 31
0.0
  0
LINE
  5
2A6
330
6C
100
AcDbEntity
  8
Visible (ANSI)
100
AcDbLine
 10
431.4757811874907
 20
307.0152645469408
 30
0.0
 11
364.4757811874924
 21
307.0152645469407
 31
0.0
  0
LINE
  5
2A7
330
6C
100
AcDbEntity
  8
Visible (ANSI)
100
AcDbLine
 10
431.4757811874907
 20
314.1402645469408
 30
0.0
 11
431.4757811874907
 21
307.0152645469408
 31
0.0
  0
LINE
  5
2A8
330
6C
100
AcDbEntity
  8
Visible (ANSI)
100
AcDbLine
 10
364.4757811874924
 20
307.0152645469407
 30
0.0
 11
364.4757811874924
 21
314.1402645469407
 31
0.0
  0
LINE
  5
2A9
330
6C
100
AcDbEntity
  8
Visible (ANSI)
100
AcDbLine
 10
431.6007811874907
 20
257.7652645469406
 30
0.0
 11
364.3507811874924
 21
257.7652645469407
 31
0.0
  0
LINE
  5
2AA
330
6C
100
AcDbEntity
  8
Visible (ANSI)
100
AcDbLine
 10
364.3507811874924
 20
257.7652645469407
 30
0.0
 11
364.3507811874923
 21
306.2652645469404
 31
0.0
  0
LINE
  5
2AB
330
6C
100
AcDbEntity
  8
Visible (ANSI)
100
AcDbLine
 10
364.3507811874923
 20
306.2652645469404
 30
0.0
 11
431.6007811874905
 21
306.2652645469406
 31
0.0
  0
LINE
  5
2AC
330
6C
100
AcDbEntity
  8
Visible (ANSI)
100
AcDbLine
 10
431.6007811874905
 20
306.2652645469406
 30
0.0
 11
431.6007811874907
 21
257.7652645469406
 31
0.0
  0
LINE
  5
2AD
330
6C
100
AcDbEntity
  8
Visible (ANSI)
100
AcDbLine
 10
362.725781187491
 20
314.8902645469407
 30
0.0
 11
433.2257811874906
 21
314.8902645469408
 31
0.0
  0
LINE
  5
2AE
330
6C
100
AcDbEntity
  8
Visible (ANSI)
100
AcDbLine
 10
433.8507811874907
 20
239.5152645469406
 30
0.0
 11
362.1007811874911
 21
239.5152645469406
 31
0.0
  0
LINE
  5
2AF
330
6C
100
AcDbEntity
  8
Visible (ANSI)
100
AcDbLine
 10
431.4757811874906
 20
257.7652645469409
 30
0.0
 11
431.4757811874907
 21
239.5152645469408
 31
0.0
  0
LINE
  5
2B0
330
6C
100
AcDbEntity
  8
Visible (ANSI)
100
AcDbLine
 10
364.4757811874918
 20
239.5152645469408
 30
0.0
 11
364.4757811874918
 21
257.7652645469409
 31
0.0
  0
LINE
  5
2B1
330
6C
100
AcDbEntity
  8
Visible (ANSI)
100
AcDbLine
 10
433.2257811874907
 20
239.5152645469408
 30
0.0
 11
433.2257811874906
 21
314.8902645469408
 31
0.0
  0
LINE
  5
2B2
330
6C
100
AcDbEntity
  8
Visible (ANSI)
100
AcDbLine
 10
362.725781187491
 20
314.8902645469407
 30
0.0
 11
362.7257811874911
 21
239.5152645469408
 31
0.0
  0
LINE
  5
2B3
330
6C
100
AcDbEntity
  8
Visible (ANSI)
100
AcDbLine
 10
429.9757811874906
 20
303.0152645469406
 30
0.0
 11
429.9757811874906
 21
258.7652645469407
 31
0.0
  0
LINE
  5
2B4
330
6C
100
AcDbEntity
  8
Visible (ANSI)
100
AcDbLine
 10
365.9757811874924
 20
303.0152645469404
 30
0.0
 11
429.9757811874906
 21
303.0152645469406
 31
0.0
  0
LINE
  5
2B5
330
6C
100
AcDbEntity
  8
Visible (ANSI)
100
AcDbLine
 10
365.9757811874924
 20
258.7652645469407
 30
0.0
 11
365.9757811874924
 21
303.0152645469404
 31
0.0
  0
LINE
  5
2B6
330
6C
100
AcDbEntity
  8
Visible (ANSI)
100
AcDbLine
 10
429.9757811874906
 20
258.7652645469407
 30
0.0
 11
365.9757811874924
 21
258.7652645469407
 31
0.0
  0
LINE
  5
2B7
330
6C
100
AcDbEntity
  8
Visible (ANSI)
100
AcDbLine
 10
362.1007811874911
 20
238.7652645469406
 30
0.0
 11
362.1007811874911
 21
239.5152645469406
 31
0.0
  0
LINE
  5
2B8
330
6C
100
AcDbEntity
  8
Visible (ANSI)
100
AcDbLine
 10
433.8507811874907
 20
238.7652645469406
 30
0.0
 11
433.8507811874907
 21
239.5152645469406
 31
0.0
  0
LINE
  5
2B9
330
6C
100
AcDbEntity
  8
Visible (ANSI)
100
AcDbLine
 10
362.1007811874911
 20
238.7652645469406
 30
0.0
 11
433.8507811874907
 21
238.7652645469406
 31
0.0
  0
CIRCLE
  5
2BA
330
6C
100
AcDbEntity
  8
Visible (ANSI)
100
AcDbCircle
 10
354.1007811874911
 20
244.7652645469508
 30
0.0
 40
3.312499999999993
  0
ARC
  5
2BB
330
6C
100
AcDbEntity
  8
Visible (ANSI)
100
AcDbCircle
 10
354.1007811874911
 20
244.7652645469546
 30
0.0
 40
5.74999999999999
100
AcDbArc
 50
180.0
 51
113.0356841059413
  0
LINE
  5
2BC
330
6C
100
AcDbEntity
  8
Visible (ANSI)
100
AcDbLine
 10
362.7257811874911
 20
242.5152645469615
 30
0.0
 11
359.3922838096202
 21
242.5152645469615
 31
0.0
  0
LINE
  5
2BD
330
6C
100
AcDbEntity
  8
Visible (ANSI)
100
AcDbLine
 10
362.7257811874911
 20
247.0152645469615
 30
0.0
 11
359.3922838096202
 21
247.0152645469615
 31
0.0
  0
LINE
  5
2BE
330
6C
100
AcDbEntity
  8
Visible (ANSI)
100
AcDbLine
 10
431.4757811874909
 20
393.0152645469407
 30
0.0
 11
431.4757811874909
 21
359.7652645469408
 31
0.0
  0
LINE
  5
2BF
330
6C
100
AcDbEntity
  8
Visible (ANSI)
100
AcDbLine
 10
364.4757811874909
 20
393.0152645469407
 30
0.0
 11
431.4757811874909
 21
393.0152645469407
 31
0.0
  0
LINE
  5
2C0
330
6C
100
AcDbEntity
  8
Visible (ANSI)
100
AcDbLine
 10
364.475781187491
 20
359.7652645469407
 30
0.0
 11
364.4757811874909
 21
393.0152645469407
 31
0.0
  0
LINE
  5
2C1
330
6C
100
AcDbEntity
  8
Visible (ANSI)
100
AcDbLine
 10
431.4757811874909
 20
359.7652645469408
 30
0.0
 11
364.475781187491
 21
359.7652645469407
 31
0.0
  0
LINE
  5
2C2
330
6C
100
AcDbEntity
  8
Visible (ANSI)
100
AcDbLine
 10
431.4757811874909
 20
358.2652645469407
 30
0.0
 11
431.4757811874909
 21
322.6402645469408
 31
0.0
  0
LINE
  5
2C3
330
6C
100
AcDbEntity
  8
Visible (ANSI)
100
AcDbLine
 10
364.475781187491
 20
358.2652645469407
 30
0.0
 11
431.4757811874909
 21
358.2652645469407
 31
0.0
  0
LINE
  5
2C4
330
6C
100
AcDbEntity
  8
Visible (ANSI)
100
AcDbLine
 10
364.475781187491
 20
322.6402645469407
 30
0.0
 11
364.475781187491
 21
358.2652645469407
 31
0.0
  0
LINE
  5
2C5
330
6C
100
AcDbEntity
  8
Visible (ANSI)
100
AcDbLine
 10
431.4757811874909
 20
322.6402645469408
 30
0.0
 11
364.475781187491
 21
322.6402645469407
 31
0.0
  0
LINE
  5
2C6
330
6C
100
AcDbEntity
  8
Visible (ANSI)
100
AcDbLine
 10
364.4757811874909
 20
394.5152645469408
 30
0.0
 11
364.4757811874909
 21
416.8902645469406
 31
0.0
  0
LINE
  5
2C7
330
6C
100
AcDbEntity
  8
Visible (ANSI)
100
AcDbLine
 10
431.4757811874909
 20
394.5152645469408
 30
0.0
 11
364.4757811874909
 21
394.5152645469407
 31
0.0
  0
LINE
  5
2C8
330
6C
100
AcDbEntity
  8
Visible (ANSI)
100
AcDbLine
 10
431.4757811874908
 20
416.8902645469407
 30
0.0
 11
431.4757811874909
 21
394.5152645469408
 31
0.0
  0
LINE
  5
2C9
330
6C
100
AcDbEntity
  8
Visible (ANSI)
100
AcDbLine
 10
364.4757811874909
 20
416.8902645469406
 30
0.0
 11
431.4757811874908
 21
416.8902645469407
 31
0.0
  0
LINE
  5
2CA
330
6C
100
AcDbEntity
  8
Visible (ANSI)
100
AcDbLine
 10
431.4757811874909
 20
321.1402645469408
 30
0.0
 11
431.475781187491
 21
315.6402645469408
 31
0.0
  0
LINE
  5
2CB
330
6C
100
AcDbEntity
  8
Visible (ANSI)
100
AcDbLine
 10
364.475781187491
 20
321.1402645469407
 30
0.0
 11
431.4757811874909
 21
321.1402645469408
 31
0.0
  0
LINE
  5
2CC
330
6C
100
AcDbEntity
  8
Visible (ANSI)
100
AcDbLine
 10
364.475781187491
 20
315.6402645469407
 30
0.0
 11
364.475781187491
 21
321.1402645469407
 31
0.0
  0
LINE
  5
2CD
330
6C
100
AcDbEntity
  8
Visible (ANSI)
100
AcDbLine
 10
431.475781187491
 20
315.6402645469408
 30
0.0
 11
364.475781187491
 21
315.6402645469407
 31
0.0
  0
LINE
  5
2CE
330
6C
100
AcDbEntity
  8
Visible (ANSI)
100
AcDbLine
 10
356.288281187491
 20
399.6402645469546
 30
0.0
 11
360.788281187491
 21
399.6402645469546
 31
0.0
  0
LINE
  5
2CF
330
6C
100
AcDbEntity
  8
Visible (ANSI)
100
AcDbLine
 10
356.288281187491
 20
399.6402645469546
 30
0.0
 11
355.8677082708243
 21
402.0152645469544
 31
0.0
  0
LINE
  5
2D0
330
6C
100
AcDbEntity
  8
Visible (ANSI)
100
AcDbLine
 10
360.788281187491
 20
399.6402645469546
 30
0.0
 11
361.2088541041576
 21
402.0152645469544
 31
0.0
  0
LINE
  5
2D1
330
6C
100
AcDbEntity
  8
Visible (ANSI)
100
AcDbLine
 10
354.3507811874909
 20
409.6402645469412
 30
0.0
 11
352.3507811874909
 21
411.6402645469412
 31
0.0
  0
LINE
  5
2D2
330
6C
100
AcDbEntity
  8
Visible (ANSI)
100
AcDbLine
 10
354.3507811874909
 20
409.6402645469412
 30
0.0
 11
362.7257811874909
 21
409.6402645469413
 31
0.0
  0
LINE
  5
2D3
330
6C
100
AcDbEntity
  8
Visible (ANSI)
100
AcDbLine
 10
352.3507811874909
 20
417.6402645469412
 30
0.0
 11
352.3507811874909
 21
411.6402645469412
 31
0.0
  0
LINE
  5
2D4
330
6C
100
AcDbEntity
  8
Visible (ANSI)
100
AcDbLine
 10
352.3507811874909
 20
417.6402645469412
 30
0.0
 11
362.7257811874909
 21
417.6402645469412
 31
0.0
  0
LINE
  5
2D5
330
6C
100
AcDbEntity
  8
Visible (ANSI)
100
AcDbLine
 10
362.725781187491
 20
314.8902645469407
 30
0.0
 11
362.7257811874909
 21
417.6402645469407
 31
0.0
  0
LINE
  5
2D6
330
6C
100
AcDbEntity
  8
Visible (ANSI)
100
AcDbLine
 10
433.2257811874909
 20
314.8902645469408
 30
0.0
 11
433.2257811874909
 21
417.6402645469407
 31
0.0
  0
LINE
  5
2D7
330
6C
100
AcDbEntity
  8
Visible (ANSI)
100
AcDbLine
 10
433.2257811874909
 20
417.6402645469407
 30
0.0
 11
362.7257811874909
 21
417.6402645469407
 31
0.0
  0
LINE
  5
2D8
330
6C
100
AcDbEntity
  8
Visible (ANSI)
100
AcDbLine
 10
362.725781187491
 20
314.8902645469407
 30
0.0
 11
433.2257811874909
 21
314.8902645469408
 31
0.0
  0
LINE
  5
2D9
330
6C
100
AcDbEntity
  8
Visible (ANSI)
100
AcDbLine
 10
348.725781187491
 20
324.7652645469468
 30
0.0
 11
348.725781187491
 21
329.2652645469468
 31
0.0
  0
LINE
  5
2DA
330
6C
100
AcDbEntity
  8
Visible (ANSI)
100
AcDbLine
 10
348.7257811874909
 20
402.0152645469468
 30
0.0
 11
348.7257811874909
 21
406.5152645469468
 31
0.0
  0
LINE
  5
2DB
330
6C
100
AcDbEntity
  8
Visible (ANSI)
100
AcDbLine
 10
362.725781187491
 20
324.7652645469468
 30
0.0
 11
348.725781187491
 21
324.7652645469468
 31
0.0
  0
LINE
  5
2DC
330
6C
100
AcDbEntity
  8
Visible (ANSI)
100
AcDbLine
 10
362.725781187491
 20
329.2652645469469
 30
0.0
 11
348.725781187491
 21
329.2652645469469
 31
0.0
  0
LINE
  5
2DD
330
6C
100
AcDbEntity
  8
Visible (ANSI)
100
AcDbLine
 10
362.7257811874909
 20
402.0152645469468
 30
0.0
 11
348.7257811874909
 21
402.0152645469468
 31
0.0
  0
LINE
  5
2DE
330
6C
100
AcDbEntity
  8
Visible (ANSI)
100
AcDbLine
 10
362.7257811874909
 20
406.5152645469468
 30
0.0
 11
348.7257811874909
 21
406.5152645469468
 31
0.0
  0
LINE
  5
2DF
330
6C
100
AcDbEntity
  8
Visible (ANSI)
100
AcDbLine
 10
356.288281187491
 20
318.8902645469546
 30
0.0
 11
356.288281187491
 21
324.7652645469545
 31
0.0
  0
LINE
  5
2E0
330
6C
100
AcDbEntity
  8
Visible (ANSI)
100
AcDbLine
 10
356.288281187491
 20
329.2652645469545
 30
0.0
 11
356.288281187491
 21
399.6402645469546
 31
0.0
  0
LINE
  5
2E1
330
6C
100
AcDbEntity
  8
Visible (ANSI)
100
AcDbLine
 10
360.788281187491
 20
318.8902645469546
 30
0.0
 11
360.788281187491
 21
324.7652645469545
 31
0.0
  0
LINE
  5
2E2
330
6C
100
AcDbEntity
  8
Visible (ANSI)
100
AcDbLine
 10
360.788281187491
 20
329.2652645469545
 30
0.0
 11
360.788281187491
 21
399.6402645469546
 31
0.0
  0
LINE
  5
2E3
330
6C
100
AcDbEntity
  8
Visible (ANSI)
100
AcDbLine
 10
361.8507811874909
 20
409.6402645469545
 30
0.0
 11
361.8507811874909
 21
406.5152645469544
 31
0.0
  0
LINE
  5
2E4
330
6C
100
AcDbEntity
  8
Visible (ANSI)
100
AcDbLine
 10
355.2257811874909
 20
409.6402645469545
 30
0.0
 11
355.2257811874909
 21
406.5152645469544
 31
0.0
  0
LINE
  5
2E5
330
6C
100
AcDbEntity
  8
Visible (ANSI)
100
AcDbLine
 10
400.4727191022887
 20
423.560028313192
 30
0.0
 11
400.4970472974076
 21
423.7009422745302
 31
0.0
  0
SPLINE
  5
2E6
330
6C
100
AcDbEntity
  8
Visible (ANSI)
100
AcDbSpline
210
0.0
220
0.0
230
1.0
 70
     8
 71
     3
 72
    10
 73
     6
 74
     0
 42
0.0000000001
 43
0.0000000001
 40
-0.1250028004331607
 40
-0.1250028004331607
 40
-0.1250028004331607
 40
-0.1250028004331607
 40
-0.121885585335282
 40
-0.121885585335282
 40
-0.0455840251922843
 40
-0.0455840251922843
 40
-0.0455840251922843
 40
-0.0455840251922843
 10
400.4731387615839
 20
423.5283010973724
 30
0.0
 10
400.4731310102053
 20
423.5287017243889
 30
0.0
 10
400.4731233351762
 20
423.5291032120704
 30
0.0
 10
400.472929794687
 20
423.5393531731554
 30
0.0
 10
400.4727922304186
 20
423.5497205822901
 30
0.0
 10
400.4727191022887
 20
423.560028313192
 30
0.0
  0
LINE
  5
2E7
330
6C
100
AcDbEntity
  8
Visible (ANSI)
100
AcDbLine
 10
428.350781187491
 20
418.7652645469614
 30
0.0
 11
428.3614923168322
 21
418.8902645469615
 31
0.0
  0
LINE
  5
2E8
330
6C
100
AcDbEntity
  8
Visible (ANSI)
100
AcDbLine
 10
428.350781187491
 20
418.7652645469614
 30
0.0
 11
428.3400700581499
 21
418.6402645469614
 31
0.0
  0
LINE
  5
2E9
330
6C
100
AcDbEntity
  8
Visible (ANSI)
100
AcDbLine
 10
429.850781187491
 20
418.6402645469614
 30
0.0
 11
429.850781187491
 21
418.8902645469615
 31
0.0
  0
ELLIPSE
  5
2EA
330
6C
100
AcDbEntity
  8
Visible (ANSI)
100
AcDbEllipse
 10
399.7435481404575
 20
423.5777645469609
 30
0.0
 11
-0.0296488066056826
 21
-0.1214328961479665
 31
0.0
210
0.0
220
0.0
230
1.0
 40
0.6967984516404498
 41
5.41306567036074
 42
6.283185307179385
  0
ELLIPSE
  5
2EB
330
6C
100
AcDbEntity
  8
Visible (ANSI)
100
AcDbEllipse
 10
399.7435481404574
 20
423.5777645469609
 30
0.0
 11
0.0296488066055903
 21
0.1214328961479201
 31
0.0
210
0.0
220
0.0
230
1.0
 40
0.6967984516403457
 41
0.0
 42
1.883802957520167
  0
SPLINE
  5
2EC
330
6C
100
AcDbEntity
  8
Visible (ANSI)
100
AcDbSpline
210
0.0
220
0.0
230
1.0
 70
     8
 71
     3
 72
    10
 73
     6
 74
     0
 42
0.0000000001
 43
0.0000000001
 40
-0.1597689612254085
 40
-0.1597689612254085
 40
-0.1597689612254085
 40
-0.1597689612254085
 40
-0.121885585335284
 40
-0.121885585335284
 40
-0.0455840251921179
 40
-0.0455840251921179
 40
-0.0455840251921179
 40
-0.0455840251921179
 10
399.6651274427454
 20
423.5152645469609
 30
0.0
 10
399.663231823939
 20
423.5198490361256
 30
0.0
 10
399.6615319657621
 20
423.524616215209
 30
0.0
 10
399.6570776037815
 20
423.5393531731549
 30
0.0
 10
399.6550111483983
 20
423.5497205822896
 30
0.0
 10
399.6539156406619
 20
423.5600283131915
 30
0.0
  0
ELLIPSE
  5
2ED
330
6C
100
AcDbEntity
  8
Visible (ANSI)
100
AcDbEllipse
 10
419.4541496660324
 20
418.7652645469551
 30
0.0
 11
-0.0149856337786135
 21
-0.1245565523693717
 31
0.0
210
0.0
220
0.0
230
1.0
 40
0.7019893815731609
 41
3.225850360498782
 42
4.796646687293799
  0
ELLIPSE
  5
2EE
330
6C
100
AcDbEntity
  8
Visible (ANSI)
100
AcDbEllipse
 10
419.4541496660324
 20
418.7652645469551
 30
0.0
 11
-0.0149856337785848
 21
-0.1245565523693769
 31
0.0
210
0.0
220
0.0
230
1.0
 40
0.7019893815731612
 41
4.796646687294193
 42
6.367443014089083
  0
ELLIPSE
  5
2EF
330
6C
100
AcDbEntity
  8
Visible (ANSI)
100
AcDbEllipse
 10
420.5148098378121
 20
418.7652645469547
 30
0.0
 11
0.0
 21
0.125
 31
0.0
210
0.0
220
0.0
230
1.0
 40
0.7071067811865478
 41
0.0
 42
6.283185307179586
  0
ELLIPSE
  5
2F0
330
6C
100
AcDbEntity
  8
Visible (ANSI)
100
AcDbEllipse
 10
397.9757811874911
 20
423.5777645469607
 30
0.0
 11
0.125
 21
-0.0000000000000447
 31
0.0
210
0.0
220
0.0
230
1.0
 40
0.9854218205504176
 41
0.0
 42
3.141592653589599
  0
CIRCLE
  5
2F1
330
6C
100
AcDbEntity
  8
Visible (ANSI)
100
AcDbCircle
 10
397.9757811874911
 20
418.765264546952
 30
0.0
 40
0.125
  0
ELLIPSE
  5
2F2
330
6C
100
AcDbEntity
  8
Visible (ANSI)
100
AcDbEllipse
 10
396.2080142345246
 20
423.5777645469609
 30
0.0
 11
0.0296488066056593
 21
-0.1214328961479648
 31
0.0
210
0.0
220
0.0
230
0.9999999999999998
 40
0.6967984516404396
 41
0.0
 42
0.870119636819143
  0
ELLIPSE
  5
2F3
330
6C
100
AcDbEntity
  8
Visible (ANSI)
100
AcDbEllipse
 10
396.2080142345247
 20
423.5777645469609
 30
0.0
 11
-0.0296488066056379
 21
0.121432896147895
 31
0.0
210
0.0
220
0.0
230
1.0
 40
0.6967984516403689
 41
4.399382349658342
 42
6.283185307178721
  0
SPLINE
  5
2F4
330
6C
100
AcDbEntity
  8
Visible (ANSI)
100
AcDbSpline
210
0.0
220
0.0
230
1.0
 70
     8
 71
     3
 72
    10
 73
     6
 74
     0
 42
0.0000000001
 43
0.0000000001
 40
1.007858426954676
 40
1.007858426954676
 40
1.007858426954676
 40
1.007858426954676
 40
1.084159987097785
 40
1.084159987097785
 40
1.122043362987986
 40
1.122043362987986
 40
1.122043362987986
 40
1.122043362987986
 10
396.2976467343201
 20
423.5600283131915
 30
0.0
 10
396.2965512265837
 20
423.5497205822896
 30
0.0
 10
396.2944847712006
 20
423.5393531731549
 30
0.0
 10
396.2900304092199
 20
423.524616215209
 30
0.0
 10
396.288330551043
 20
423.5198490361256
 30
0.0
 10
396.2864349322367
 20
423.5152645469609
 30
0.0
  0
ELLIPSE
  5
2F5
330
6C
100
AcDbEntity
  8
Visible (ANSI)
100
AcDbEllipse
 10
376.4974127089496
 20
418.7652645469551
 30
0.0
 11
0.0149856337786136
 21
-0.1245565523693717
 31
0.0
210
0.0
220
0.0
230
1.0
 40
0.7019893815731604
 41
1.486538619885786
 42
3.057334946680804
  0
ELLIPSE
  5
2F6
330
6C
100
AcDbEntity
  8
Visible (ANSI)
100
AcDbEllipse
 10
376.4974127089496
 20
418.7652645469551
 30
0.0
 11
0.0149856337785848
 21
-0.1245565523693768
 31
0.0
210
0.0
220
0.0
230
1.0
 40
0.7019893815731607
 41
6.198927600270088
 42
7.769723927064978
  0
ELLIPSE
  5
2F7
330
6C
100
AcDbEntity
  8
Visible (ANSI)
100
AcDbEllipse
 10
375.4367525371698
 20
418.7652645469547
 30
0.0
 11
0.0
 21
0.125
 31
0.0
210
0.0
220
0.0
230
1.0
 40
0.7071067811865472
 41
0.0
 42
6.283185307179586
  0
LINE
  5
2F8
330
6C
100
AcDbEntity
  8
Visible (ANSI)
100
AcDbLine
 10
395.4545150775744
 20
423.7009422745302
 30
0.0
 11
395.4788432726933
 21
423.560028313192
 31
0.0
  0
SPLINE
  5
2F9
330
6C
100
AcDbEntity
  8
Visible (ANSI)
100
AcDbSpline
210
0.0
220
0.0
230
1.0
 70
     8
 71
     3
 72
    10
 73
     6
 74
     0
 42
0.0000000001
 43
0.0000000001
 40
1.007858426954725
 40
1.007858426954725
 40
1.007858426954725
 40
1.007858426954725
 40
1.08415998709778
 40
1.08415998709778
 40
1.087277202195712
 40
1.087277202195712
 40
1.087277202195712
 40
1.087277202195712
 10
395.4788432726934
 20
423.560028313192
 30
0.0
 10
395.4787701445635
 20
423.5497205822901
 30
0.0
 10
395.478632580295
 20
423.5393531731554
 30
0.0
 10
395.4784390398058
 20
423.5291032120704
 30
0.0
 10
395.4784313647767
 20
423.5287017243889
 30
0.0
 10
395.4784236133981
 20
423.5283010973724
 30
0.0
  0
LINE
  5
2FA
330
6C
100
AcDbEntity
  8
Visible (ANSI)
100
AcDbLine
 10
367.5900700581499
 20
418.8902645469615
 30
0.0
 11
367.6007811874911
 21
418.7652645469614
 31
0.0
  0
LINE
  5
2FB
330
6C
100
AcDbEntity
  8
Visible (ANSI)
100
AcDbLine
 10
367.6114923168321
 20
418.6402645469614
 30
0.0
 11
367.6007811874911
 21
418.7652645469614
 31
0.0
  0
LINE
  5
2FC
330
6C
100
AcDbEntity
  8
Visible (ANSI)
100
AcDbLine
 10
366.100781187491
 20
418.8902645469615
 30
0.0
 11
366.100781187491
 21
418.6402645469614
 31
0.0
  0
LINE
  5
2FD
330
6C
100
AcDbEntity
  8
Visible (ANSI)
100
AcDbLine
 10
428.3400700581499
 20
418.6402645469614
 30
0.0
 11
424.8813069807569
 21
419.2374052576324
 31
0.0
  0
LINE
  5
2FE
330
6C
100
AcDbEntity
  8
Visible (ANSI)
100
AcDbLine
 10
423.4332550327051
 20
419.4874052576325
 30
0.0
 11
420.5876833340728
 21
419.9786810890106
 31
0.0
  0
LINE
  5
2FF
330
6C
100
AcDbEntity
  8
Visible (ANSI)
100
AcDbLine
 10
419.1396313860209
 20
420.2286810890106
 30
0.0
 11
416.2940596873886
 21
420.7199569203888
 31
0.0
  0
LINE
  5
300
330
6C
100
AcDbEntity
  8
Visible (ANSI)
100
AcDbLine
 10
414.8460077393366
 20
420.9699569203888
 30
0.0
 11
412.0004360407044
 21
421.4612327517671
 31
0.0
  0
LINE
  5
301
330
6C
100
AcDbEntity
  8
Visible (ANSI)
100
AcDbLine
 10
410.5523840926525
 20
421.711232751767
 30
0.0
 11
407.7068123940202
 21
422.2025085831452
 31
0.0
  0
LINE
  5
302
330
6C
100
AcDbEntity
  8
Visible (ANSI)
100
AcDbLine
 10
406.2587604459682
 20
422.4525085831452
 30
0.0
 11
403.413188747336
 21
422.9437844145234
 31
0.0
  0
LINE
  5
303
330
6C
100
AcDbEntity
  8
Visible (ANSI)
100
AcDbLine
 10
401.9651367992841
 20
423.1937844145234
 30
0.0
 11
401.5488931025036
 21
423.2656471155371
 31
0.0
  0
LINE
  5
304
330
6C
100
AcDbEntity
  8
Visible (ANSI)
100
AcDbLine
 10
428.3614923168322
 20
418.8902645469615
 30
0.0
 11
426.3507811874911
 21
419.2374052576324
 31
0.0
  0
LINE
  5
305
330
6C
100
AcDbEntity
  8
Visible (ANSI)
100
AcDbLine
 10
424.9027292394393
 20
419.4874052576325
 30
0.0
 11
422.0571575408071
 21
419.9786810890106
 31
0.0
  0
LINE
  5
306
330
6C
100
AcDbEntity
  8
Visible (ANSI)
100
AcDbLine
 10
420.6091055927551
 20
420.2286810890106
 30
0.0
 11
417.7635338941228
 21
420.7199569203888
 31
0.0
  0
LINE
  5
307
330
6C
100
AcDbEntity
  8
Visible (ANSI)
100
AcDbLine
 10
416.3154819460708
 20
420.9699569203888
 30
0.0
 11
413.4699102474386
 21
421.4612327517671
 31
0.0
  0
LINE
  5
308
330
6C
100
AcDbEntity
  8
Visible (ANSI)
100
AcDbLine
 10
412.0218582993867
 20
421.711232751767
 30
0.0
 11
409.1762866007544
 21
422.2025085831452
 31
0.0
  0
LINE
  5
309
330
6C
100
AcDbEntity
  8
Visible (ANSI)
100
AcDbLine
 10
407.7282346527025
 20
422.4525085831452
 30
0.0
 11
404.8826629540703
 21
422.9437844145234
 31
0.0
  0
LINE
  5
30A
330
6C
100
AcDbEntity
  8
Visible (ANSI)
100
AcDbLine
 10
403.4346110060183
 20
423.1937844145234
 30
0.0
 11
400.4970472974076
 21
423.7009422745302
 31
0.0
  0
LINE
  5
30B
330
6C
100
AcDbEntity
  8
Visible (ANSI)
100
AcDbLine
 10
429.850781187491
 20
418.8902645469615
 30
0.0
 11
428.3614923168322
 21
418.8902645469615
 31
0.0
  0
LINE
  5
30C
330
6C
100
AcDbEntity
  8
Visible (ANSI)
100
AcDbLine
 10
419.4318586361672
 20
418.6420351911447
 30
0.0
 11
416.9933958536907
 21
419.2374052576267
 31
0.0
  0
LINE
  5
30D
330
6C
100
AcDbEntity
  8
Visible (ANSI)
100
AcDbLine
 10
415.9694685017128
 20
419.487405257627
 30
0.0
 11
413.9573454572573
 21
419.9786810890059
 31
0.0
  0
LINE
  5
30E
330
6C
100
AcDbEntity
  8
Visible (ANSI)
100
AcDbLine
 10
412.9334181052795
 20
420.2286810890061
 30
0.0
 11
410.921295060824
 21
420.719956920385
 31
0.0
  0
LINE
  5
30F
330
6C
100
AcDbEntity
  8
Visible (ANSI)
100
AcDbLine
 10
409.8973677088461
 20
420.9699569203853
 30
0.0
 11
407.8852446643908
 21
421.4612327517641
 31
0.0
  0
LINE
  5
310
330
6C
100
AcDbEntity
  8
Visible (ANSI)
100
AcDbLine
 10
406.8613173124128
 20
421.7112327517644
 30
0.0
 11
404.8491942679574
 21
422.2025085831432
 31
0.0
  0
LINE
  5
311
330
6C
100
AcDbEntity
  8
Visible (ANSI)
100
AcDbLine
 10
403.8252669159795
 20
422.4525085831435
 30
0.0
 11
401.8131438715242
 21
422.9437844145222
 31
0.0
  0
LINE
  5
312
330
6C
100
AcDbEntity
  8
Visible (ANSI)
100
AcDbLine
 10
400.7892165195462
 20
423.1937844145226
 30
0.0
 11
399.7138993338518
 21
423.456331650813
 31
0.0
  0
LINE
  5
313
330
6C
100
AcDbEntity
  8
Visible (ANSI)
100
AcDbLine
 10
419.4691886518318
 20
418.890264546955
 30
0.0
 11
418.0474011772677
 21
419.2374052576264
 31
0.0
  0
LINE
  5
314
330
6C
100
AcDbEntity
  8
Visible (ANSI)
100
AcDbLine
 10
417.0234738252897
 20
419.4874052576268
 30
0.0
 11
415.0113507808343
 21
419.9786810890055
 31
0.0
  0
LINE
  5
315
330
6C
100
AcDbEntity
  8
Visible (ANSI)
100
AcDbLine
 10
413.9874234288565
 20
420.2286810890059
 30
0.0
 11
411.975300384401
 21
420.7199569203847
 31
0.0
  0
LINE
  5
316
330
6C
100
AcDbEntity
  8
Visible (ANSI)
100
AcDbLine
 10
410.9513730324231
 20
420.969956920385
 30
0.0
 11
408.9392499879678
 21
421.4612327517638
 31
0.0
  0
LINE
  5
317
330
6C
100
AcDbEntity
  8
Visible (ANSI)
100
AcDbLine
 10
407.9153226359898
 20
421.711232751764
 30
0.0
 11
405.9031995915344
 21
422.2025085831429
 31
0.0
  0
LINE
  5
318
330
6C
100
AcDbEntity
  8
Visible (ANSI)
100
AcDbLine
 10
404.8792722395566
 20
422.4525085831432
 30
0.0
 11
402.8671491951012
 21
422.9437844145221
 31
0.0
  0
LINE
  5
319
330
6C
100
AcDbEntity
  8
Visible (ANSI)
100
AcDbLine
 10
401.8432218431232
 20
423.1937844145223
 30
0.0
 11
399.773196947063
 21
423.6991974431088
 31
0.0
  0
LINE
  5
31A
330
6C
100
AcDbEntity
  8
Visible (ANSI)
100
AcDbLine
 10
420.5148098378121
 20
418.8902645469547
 30
0.0
 11
419.4617235782237
 21
418.890264546955
 31
0.0
  0
LINE
  5
31B
330
6C
100
AcDbEntity
  8
Visible (ANSI)
100
AcDbLine
 10
397.8507811874911
 20
418.7652645469524
 30
0.0
 11
397.8507811874911
 21
419.2374052576242
 31
0.0
  0
LINE
  5
31C
330
6C
100
AcDbEntity
  8
Visible (ANSI)
100
AcDbLine
 10
397.8507811874911
 20
419.4874052576246
 30
0.0
 11
397.8507811874911
 21
419.9786810890037
 31
0.0
  0
LINE
  5
31D
330
6C
100
AcDbEntity
  8
Visible (ANSI)
100
AcDbLine
 10
397.8507811874911
 20
420.2286810890041
 30
0.0
 11
397.8507811874911
 21
420.7199569203831
 31
0.0
  0
LINE
  5
31E
330
6C
100
AcDbEntity
  8
Visible (ANSI)
100
AcDbLine
 10
397.8507811874911
 20
420.9699569203836
 30
0.0
 11
397.8507811874911
 21
421.4612327517627
 31
0.0
  0
LINE
  5
31F
330
6C
100
AcDbEntity
  8
Visible (ANSI)
100
AcDbLine
 10
397.8507811874911
 20
421.711232751763
 30
0.0
 11
397.8507811874911
 21
422.2025085831422
 31
0.0
  0
LINE
  5
320
330
6C
100
AcDbEntity
  8
Visible (ANSI)
100
AcDbLine
 10
397.8507811874911
 20
422.4525085831426
 30
0.0
 11
397.8507811874911
 21
422.9437844145216
 31
0.0
  0
LINE
  5
321
330
6C
100
AcDbEntity
  8
Visible (ANSI)
100
AcDbLine
 10
397.8507811874911
 20
423.193784414522
 30
0.0
 11
397.8507811874911
 21
423.5777645469607
 31
0.0
  0
LINE
  5
322
330
6C
100
AcDbEntity
  8
Visible (ANSI)
100
AcDbLine
 10
398.100781187491
 20
418.7652645469524
 30
0.0
 11
398.100781187491
 21
419.2374052576242
 31
0.0
  0
LINE
  5
323
330
6C
100
AcDbEntity
  8
Visible (ANSI)
100
AcDbLine
 10
398.100781187491
 20
419.4874052576246
 30
0.0
 11
398.100781187491
 21
419.9786810890037
 31
0.0
  0
LINE
  5
324
330
6C
100
AcDbEntity
  8
Visible (ANSI)
100
AcDbLine
 10
398.100781187491
 20
420.2286810890041
 30
0.0
 11
398.100781187491
 21
420.7199569203831
 31
0.0
  0
LINE
  5
325
330
6C
100
AcDbEntity
  8
Visible (ANSI)
100
AcDbLine
 10
398.100781187491
 20
420.9699569203836
 30
0.0
 11
398.100781187491
 21
421.4612327517627
 31
0.0
  0
LINE
  5
326
330
6C
100
AcDbEntity
  8
Visible (ANSI)
100
AcDbLine
 10
398.100781187491
 20
421.711232751763
 30
0.0
 11
398.100781187491
 21
422.2025085831422
 31
0.0
  0
LINE
  5
327
330
6C
100
AcDbEntity
  8
Visible (ANSI)
100
AcDbLine
 10
398.100781187491
 20
422.4525085831426
 30
0.0
 11
398.100781187491
 21
422.9437844145216
 31
0.0
  0
LINE
  5
328
330
6C
100
AcDbEntity
  8
Visible (ANSI)
100
AcDbLine
 10
398.100781187491
 20
423.193784414522
 30
0.0
 11
398.100781187491
 21
423.5777645469607
 31
0.0
  0
LINE
  5
329
330
6C
100
AcDbEntity
  8
Visible (ANSI)
100
AcDbLine
 10
376.4823737231501
 20
418.890264546955
 30
0.0
 11
377.9041611977143
 21
419.2374052576264
 31
0.0
  0
LINE
  5
32A
330
6C
100
AcDbEntity
  8
Visible (ANSI)
100
AcDbLine
 10
378.9280885496923
 20
419.4874052576268
 30
0.0
 11
380.9402115941477
 21
419.9786810890055
 31
0.0
  0
LINE
  5
32B
330
6C
100
AcDbEntity
  8
Visible (ANSI)
100
AcDbLine
 10
381.9641389461256
 20
420.2286810890059
 30
0.0
 11
383.976261990581
 21
420.7199569203847
 31
0.0
  0
LINE
  5
32C
330
6C
100
AcDbEntity
  8
Visible (ANSI)
100
AcDbLine
 10
385.0001893425589
 20
420.969956920385
 30
0.0
 11
387.0123123870143
 21
421.4612327517638
 31
0.0
  0
LINE
  5
32D
330
6C
100
AcDbEntity
  8
Visible (ANSI)
100
AcDbLine
 10
388.0362397389922
 20
421.711232751764
 30
0.0
 11
390.0483627834476
 21
422.2025085831429
 31
0.0
  0
LINE
  5
32E
330
6C
100
AcDbEntity
  8
Visible (ANSI)
100
AcDbLine
 10
391.0722901354255
 20
422.4525085831432
 30
0.0
 11
393.0844131798809
 21
422.9437844145221
 31
0.0
  0
LINE
  5
32F
330
6C
100
AcDbEntity
  8
Visible (ANSI)
100
AcDbLine
 10
394.1083405318588
 20
423.1937844145223
 30
0.0
 11
396.1783654279191
 21
423.6991974431088
 31
0.0
  0
LINE
  5
330
330
6C
100
AcDbEntity
  8
Visible (ANSI)
100
AcDbLine
 10
376.5197037388148
 20
418.6420351911447
 30
0.0
 11
378.9581665212914
 21
419.2374052576267
 31
0.0
  0
LINE
  5
331
330
6C
100
AcDbEntity
  8
Visible (ANSI)
100
AcDbLine
 10
379.9820938732693
 20
419.487405257627
 30
0.0
 11
381.9942169177247
 21
419.9786810890058
 31
0.0
  0
LINE
  5
332
330
6C
100
AcDbEntity
  8
Visible (ANSI)
100
AcDbLine
 10
383.0181442697026
 20
420.2286810890061
 30
0.0
 11
385.030267314158
 21
420.719956920385
 31
0.0
  0
LINE
  5
333
330
6C
100
AcDbEntity
  8
Visible (ANSI)
100
AcDbLine
 10
386.0541946661359
 20
420.9699569203853
 30
0.0
 11
388.0663177105913
 21
421.4612327517641
 31
0.0
  0
LINE
  5
334
330
6C
100
AcDbEntity
  8
Visible (ANSI)
100
AcDbLine
 10
389.0902450625692
 20
421.7112327517644
 30
0.0
 11
391.1023681070246
 21
422.2025085831432
 31
0.0
  0
LINE
  5
335
330
6C
100
AcDbEntity
  8
Visible (ANSI)
100
AcDbLine
 10
392.1262954590025
 20
422.4525085831435
 30
0.0
 11
394.1384185034579
 21
422.9437844145222
 31
0.0
  0
LINE
  5
336
330
6C
100
AcDbEntity
  8
Visible (ANSI)
100
AcDbLine
 10
395.1623458554358
 20
423.1937844145226
 30
0.0
 11
396.2376630411303
 21
423.456331650813
 31
0.0
  0
LINE
  5
337
330
6C
100
AcDbEntity
  8
Visible (ANSI)
100
AcDbLine
 10
375.4367525371698
 20
418.8902645469547
 30
0.0
 11
376.4898387967584
 21
418.890264546955
 31
0.0
  0
LINE
  5
338
330
6C
100
AcDbEntity
  8
Visible (ANSI)
100
AcDbLine
 10
367.5900700581499
 20
418.8902645469614
 30
0.0
 11
369.6007811874908
 21
419.2374052576324
 31
0.0
  0
LINE
  5
339
330
6C
100
AcDbEntity
  8
Visible (ANSI)
100
AcDbLine
 10
371.0488331355428
 20
419.4874052576325
 30
0.0
 11
373.8944048341751
 21
419.9786810890105
 31
0.0
  0
LINE
  5
33A
330
6C
100
AcDbEntity
  8
Visible (ANSI)
100
AcDbLine
 10
375.342456782227
 20
420.2286810890106
 30
0.0
 11
378.1880284808593
 21
420.7199569203888
 31
0.0
  0
LINE
  5
33B
330
6C
100
AcDbEntity
  8
Visible (ANSI)
100
AcDbLine
 10
379.6360804289112
 20
420.9699569203888
 30
0.0
 11
382.4816521275435
 21
421.461232751767
 31
0.0
  0
LINE
  5
33C
330
6C
100
AcDbEntity
  8
Visible (ANSI)
100
AcDbLine
 10
383.9297040755954
 20
421.711232751767
 30
0.0
 11
386.7752757742276
 21
422.2025085831452
 31
0.0
  0
LINE
  5
33D
330
6C
100
AcDbEntity
  8
Visible (ANSI)
100
AcDbLine
 10
388.2233277222796
 20
422.4525085831452
 30
0.0
 11
391.0688994209118
 21
422.9437844145234
 31
0.0
  0
LINE
  5
33E
330
6C
100
AcDbEntity
  8
Visible (ANSI)
100
AcDbLine
 10
392.5169513689637
 20
423.1937844145234
 30
0.0
 11
395.4545150775745
 21
423.7009422745302
 31
0.0
  0
LINE
  5
33F
330
6C
100
AcDbEntity
  8
Visible (ANSI)
100
AcDbLine
 10
367.6114923168321
 20
418.6402645469614
 30
0.0
 11
371.0702553942251
 21
419.2374052576324
 31
0.0
  0
LINE
  5
340
330
6C
100
AcDbEntity
  8
Visible (ANSI)
100
AcDbLine
 10
372.518307342277
 20
419.4874052576325
 30
0.0
 11
375.3638790409093
 21
419.9786810890105
 31
0.0
  0
LINE
  5
341
330
6C
100
AcDbEntity
  8
Visible (ANSI)
100
AcDbLine
 10
376.8119309889612
 20
420.2286810890106
 30
0.0
 11
379.6575026875935
 21
420.7199569203888
 31
0.0
  0
LINE
  5
342
330
6C
100
AcDbEntity
  8
Visible (ANSI)
100
AcDbLine
 10
381.1055546356454
 20
420.9699569203888
 30
0.0
 11
383.9511263342776
 21
421.461232751767
 31
0.0
  0
LINE
  5
343
330
6C
100
AcDbEntity
  8
Visible (ANSI)
100
AcDbLine
 10
385.3991782823296
 20
421.711232751767
 30
0.0
 11
388.2447499809618
 21
422.2025085831452
 31
0.0
  0
LINE
  5
344
330
6C
100
AcDbEntity
  8
Visible (ANSI)
100
AcDbLine
 10
389.6928019290138
 20
422.4525085831452
 30
0.0
 11
392.538373627646
 21
422.9437844145234
 31
0.0
  0
LINE
  5
345
330
6C
100
AcDbEntity
  8
Visible (ANSI)
100
AcDbLine
 10
393.9864255756979
 20
423.1937844145234
 30
0.0
 11
394.4026692724785
 21
423.2656471155371
 31
0.0
  0
LINE
  5
346
330
6C
100
AcDbEntity
  8
Visible (ANSI)
100
AcDbLine
 10
366.100781187491
 20
418.8902645469614
 30
0.0
 11
367.5900700581499
 21
418.8902645469614
 31
0.0
  0
LINE
  5
347
330
6C
100
AcDbEntity
  8
Visible (ANSI)
100
AcDbLine
 10
399.6651274427454
 20
423.5152645469609
 30
0.0
 11
398.1007811874911
 21
423.5152645469606
 31
0.0
  0
LINE
  5
348
330
6C
100
AcDbEntity
  8
Visible (ANSI)
100
AcDbLine
 10
397.8507811874911
 20
423.5152645469606
 30
0.0
 11
396.2864349322367
 21
423.5152645469609
 31
0.0
  0
LINE
  5
349
330
6C
100
AcDbEntity
  8
Visible (ANSI)
100
AcDbLine
 10
375.4367525371698
 20
418.6402645469547
 30
0.0
 11
366.100781187491
 21
418.6402645469614
 31
0.0
  0
LINE
  5
34A
330
6C
100
AcDbEntity
  8
Visible (ANSI)
100
AcDbLine
 10
397.9757811874911
 20
418.6402645469518
 30
0.0
 11
375.4367525371698
 21
418.6402645469547
 31
0.0
  0
LINE
  5
34B
330
6C
100
AcDbEntity
  8
Visible (ANSI)
100
AcDbLine
 10
420.5148098378121
 20
418.6402645469547
 30
0.0
 11
397.9757811874911
 21
418.6402645469519
 31
0.0
  0
LINE
  5
34C
330
6C
100
AcDbEntity
  8
Visible (ANSI)
100
AcDbLine
 10
429.8507811874911
 20
418.6402645469614
 30
0.0
 11
420.5148098378121
 21
418.6402645469547
 31
0.0
  0
LINE
  5
34D
330
6C
100
AcDbEntity
  8
Visible (ANSI)
100
AcDbLine
 10
429.8507811874911
 20
418.5152645469615
 30
0.0
 11
366.100781187491
 21
418.5152645469615
 31
0.0
  0
LINE
  5
34E
330
6C
100
AcDbEntity
  8
Visible (ANSI)
100
AcDbLine
 10
395.9369934107308
 20
423.6402645469611
 30
0.0
 11
395.4757811874911
 21
423.6402645469614
 31
0.0
  0
LINE
  5
34F
330
6C
100
AcDbEntity
  8
Visible (ANSI)
100
AcDbLine
 10
397.8680671301068
 20
423.6402645469606
 30
0.0
 11
396.2765496390905
 21
423.6402645469609
 31
0.0
  0
LINE
  5
350
330
6C
100
AcDbEntity
  8
Visible (ANSI)
100
AcDbLine
 10
399.6750127358916
 20
423.6402645469609
 30
0.0
 11
398.0834952448752
 21
423.6402645469606
 31
0.0
  0
LINE
  5
351
330
6C
100
AcDbEntity
  8
Visible (ANSI)
100
AcDbLine
 10
400.475781187491
 20
423.6402645469614
 30
0.0
 11
400.0145689642513
 21
423.6402645469611
 31
0.0
  0
LINE
  5
352
330
6C
100
AcDbEntity
  8
Visible (ANSI)
100
AcDbLine
 10
367.475781187491
 20
417.6402645469615
 30
0.0
 11
367.475781187491
 21
418.5152645469615
 31
0.0
  0
LINE
  5
353
330
6C
100
AcDbEntity
  8
Visible (ANSI)
100
AcDbLine
 10
428.475781187491
 20
417.6402645469615
 30
0.0
 11
428.475781187491
 21
418.5152645469615
 31
0.0
  0
LINE
  5
354
330
6C
100
AcDbEntity
  8
Visible (ANSI)
100
AcDbLine
 10
366.100781187491
 20
418.5152645469615
 30
0.0
 11
366.100781187491
 21
418.6402645469614
 31
0.0
  0
LINE
  5
355
330
6C
100
AcDbEntity
  8
Visible (ANSI)
100
AcDbLine
 10
429.850781187491
 20
418.5152645469615
 30
0.0
 11
429.850781187491
 21
418.6402645469614
 31
0.0
  0
LINE
  5
356
330
6C
100
AcDbEntity
  8
Visible (ANSI)
100
AcDbLine
 10
395.475781187491
 20
423.5777645469614
 30
0.0
 11
395.475781187491
 21
423.6402645469614
 31
0.0
  0
LINE
  5
357
330
6C
100
AcDbEntity
  8
Visible (ANSI)
100
AcDbLine
 10
400.475781187491
 20
423.5777645469614
 30
0.0
 11
400.475781187491
 21
423.6402645469614
 31
0.0
  0
ARC
  5
358
330
6C
100
AcDbEntity
  8
Visible (ANSI)
100
AcDbCircle
 10
404.8933740834112
 20
423.0687844145235
 30
0.0
 40
0.125
100
AcDbArc
 50
270.0
 51
90.0
  0
ARC
  5
359
330
6C
100
AcDbEntity
  8
Visible (ANSI)
100
AcDbCircle
 10
391.0581882915708
 20
423.0687844145235
 30
0.0
 40
0.125
100
AcDbArc
 50
90.0
 51
270.0
  0
LINE
  5
35A
330
6C
100
AcDbEntity
  8
Visible (ANSI)
100
AcDbLine
 10
404.8933740834113
 20
423.1937844145234
 30
0.0
 11
391.0581882915708
 21
423.1937844145234
 31
0.0
  0
LINE
  5
35B
330
6C
100
AcDbEntity
  8
Visible (ANSI)
100
AcDbLine
 10
391.0581882915708
 20
422.9437844145234
 30
0.0
 11
404.8933740834113
 21
422.9437844145234
 31
0.0
  0
ARC
  5
35C
330
6C
100
AcDbEntity
  8
Visible (ANSI)
100
AcDbCircle
 10
409.1869977300954
 20
422.3275085831452
 30
0.0
 40
0.125
100
AcDbArc
 50
270.0
 51
90.0
  0
ARC
  5
35D
330
6C
100
AcDbEntity
  8
Visible (ANSI)
100
AcDbCircle
 10
386.7645646448866
 20
422.3275085831452
 30
0.0
 40
0.125
100
AcDbArc
 50
90.0
 51
270.0
  0
LINE
  5
35E
330
6C
100
AcDbEntity
  8
Visible (ANSI)
100
AcDbLine
 10
409.1869977300954
 20
422.4525085831452
 30
0.0
 11
386.7645646448867
 21
422.4525085831452
 31
0.0
  0
LINE
  5
35F
330
6C
100
AcDbEntity
  8
Visible (ANSI)
100
AcDbLine
 10
386.7645646448867
 20
422.2025085831452
 30
0.0
 11
409.1869977300954
 21
422.2025085831452
 31
0.0
  0
ARC
  5
360
330
6C
100
AcDbEntity
  8
Visible (ANSI)
100
AcDbCircle
 10
413.4806213767796
 20
421.586232751767
 30
0.0
 40
0.125
100
AcDbArc
 50
270.0
 51
90.0
  0
ARC
  5
361
330
6C
100
AcDbEntity
  8
Visible (ANSI)
100
AcDbCircle
 10
382.4709409982024
 20
421.586232751767
 30
0.0
 40
0.125
100
AcDbArc
 50
90.0
 51
270.0
  0
LINE
  5
362
330
6C
100
AcDbEntity
  8
Visible (ANSI)
100
AcDbLine
 10
413.4806213767797
 20
421.711232751767
 30
0.0
 11
382.4709409982024
 21
421.711232751767
 31
0.0
  0
LINE
  5
363
330
6C
100
AcDbEntity
  8
Visible (ANSI)
100
AcDbLine
 10
382.4709409982024
 20
421.461232751767
 30
0.0
 11
413.4806213767797
 21
421.461232751767
 31
0.0
  0
ARC
  5
364
330
6C
100
AcDbEntity
  8
Visible (ANSI)
100
AcDbCircle
 10
417.7742450234638
 20
420.8449569203889
 30
0.0
 40
0.125
100
AcDbArc
 50
270.0
 51
90.0
  0
ARC
  5
365
330
6C
100
AcDbEntity
  8
Visible (ANSI)
100
AcDbCircle
 10
378.1773173515183
 20
420.8449569203889
 30
0.0
 40
0.125
100
AcDbArc
 50
90.0
 51
270.0
  0
LINE
  5
366
330
6C
100
AcDbEntity
  8
Visible (ANSI)
100
AcDbLine
 10
417.7742450234638
 20
420.9699569203888
 30
0.0
 11
378.1773173515183
 21
420.9699569203888
 31
0.0
  0
LINE
  5
367
330
6C
100
AcDbEntity
  8
Visible (ANSI)
100
AcDbLine
 10
378.1773173515183
 20
420.7199569203888
 30
0.0
 11
417.7742450234638
 21
420.7199569203888
 31
0.0
  0
ARC
  5
368
330
6C
100
AcDbEntity
  8
Visible (ANSI)
100
AcDbCircle
 10
422.067868670148
 20
420.1036810890107
 30
0.0
 40
0.125
100
AcDbArc
 50
270.0
 51
90.0
  0
ARC
  5
369
330
6C
100
AcDbEntity
  8
Visible (ANSI)
100
AcDbCircle
 10
373.8836937048341
 20
420.1036810890106
 30
0.0
 40
0.125
100
AcDbArc
 50
90.0
 51
270.0
  0
LINE
  5
36A
330
6C
100
AcDbEntity
  8
Visible (ANSI)
100
AcDbLine
 10
422.067868670148
 20
420.2286810890106
 30
0.0
 11
373.8836937048341
 21
420.2286810890106
 31
0.0
  0
LINE
  5
36B
330
6C
100
AcDbEntity
  8
Visible (ANSI)
100
AcDbLine
 10
373.8836937048341
 20
419.9786810890105
 30
0.0
 11
422.067868670148
 21
419.9786810890105
 31
0.0
  0
ARC
  5
36C
330
6C
100
AcDbEntity
  8
Visible (ANSI)
100
AcDbCircle
 10
426.3614923168321
 20
419.3624052576324
 30
0.0
 40
0.125
100
AcDbArc
 50
270.0
 51
90.0
  0
ARC
  5
36D
330
6C
100
AcDbEntity
  8
Visible (ANSI)
100
AcDbCircle
 10
369.5900700581499
 20
419.3624052576324
 30
0.0
 40
0.125
100
AcDbArc
 50
90.0
 51
270.0
  0
LINE
  5
36E
330
6C
100
AcDbEntity
  8
Visible (ANSI)
100
AcDbLine
 10
426.3614923168321
 20
419.4874052576325
 30
0.0
 11
369.5900700581499
 21
419.4874052576325
 31
0.0
  0
LINE
  5
36F
330
6C
100
AcDbEntity
  8
Visible (ANSI)
100
AcDbLine
 10
369.5900700581499
 20
419.2374052576324
 30
0.0
 11
426.3614923168321
 21
419.2374052576324
 31
0.0
  0
MTEXT
  5
370
330
6C
100
AcDbEntity
  8
Symbol (ANSI)
100
AcDbMText
 10
348.4618140626074
 20
215.1124264761029
 30
0.0
 40
12.49999981226883
 41
0.0
 71
     7
 72
     1
  1
Air Inlet Face
  7
Label Text (ANSI)
 73
     1
 44
1.0
  0
ARC
  5
371
330
6C
100
AcDbEntity
  8
Visible (ANSI)
100
AcDbCircle
 10
104.198604093958
 20
281.7652645469654
 30
0.0
 40
0.2500000000000008
100
AcDbArc
 50
274.7801918471812
 51
85.21980815278222
  0
LINE
  5
372
330
6C
100
AcDbEntity
  8
Visible (ANSI)
100
AcDbLine
 10
101.2402707606246
 20
281.2670036826705
 30
0.0
 11
104.2194374272913
 21
281.5161341148175
 31
0.0
  0
LINE
  5
373
330
6C
100
AcDbEntity
  8
Visible (ANSI)
100
AcDbLine
 10
104.2194374272914
 20
282.0143949791134
 30
0.0
 11
101.2402707606248
 21
282.2635254112622
 31
0.0
  0
ARC
  5
374
330
6C
100
AcDbEntity
  8
Visible (ANSI)
100
AcDbCircle
 10
101.198604093958
 20
281.7652645469664
 30
0.0
 40
0.5000000000000017
100
AcDbArc
 50
85.21980815278451
 51
274.7801918471812
  0
CIRCLE
  5
375
330
6C
100
AcDbEntity
  8
Visible (ANSI)
100
AcDbCircle
 10
105.8236040939483
 20
248.765264546965
 30
0.0
 40
1.749999999999998
  0
CIRCLE
  5
376
330
6C
100
AcDbEntity
  8
Visible (ANSI)
100
AcDbCircle
 10
88.07360409394641
 20
241.7652645469703
 30
0.0
 40
1.187499999999998
  0
CIRCLE
  5
377
330
6C
100
AcDbEntity
  8
Visible (ANSI)
100
AcDbCircle
 10
93.82360409395408
 20
267.7652645469685
 30
0.0
 40
0.9499999999999989
  0
LINE
  5
378
330
6C
100
AcDbEntity
  8
Visible (ANSI)
100
AcDbLine
 10
141.9486040939652
 20
310.8902645469542
 30
0.0
 11
136.6986040939653
 21
310.8902645469557
 31
0.0
  0
LINE
  5
379
330
6C
100
AcDbEntity
  8
Visible (ANSI)
100
AcDbLine
 10
136.6986040939677
 20
318.8902645469557
 30
0.0
 11
141.9486040939676
 21
318.8902645469542
 31
0.0
  0
LINE
  5
37A
330
6C
100
AcDbEntity
  8
Visible (ANSI)
100
AcDbLine
 10
136.6986040939653
 20
310.8902645469558
 30
0.0
 11
136.6986040939677
 21
318.8902645469557
 31
0.0
  0
LINE
  5
37B
330
6C
100
AcDbEntity
  8
Visible (ANSI)
100
AcDbLine
 10
141.9486040939652
 20
310.8902645469542
 30
0.0
 11
141.9486040939676
 21
318.8902645469542
 31
0.0
  0
LINE
  5
37C
330
6C
100
AcDbEntity
  8
Visible (ANSI)
100
AcDbLine
 10
141.5736040939584
 20
288.0152645469543
 30
0.0
 11
137.0736040939585
 21
288.0152645469557
 31
0.0
  0
LINE
  5
37D
330
6C
100
AcDbEntity
  8
Visible (ANSI)
100
AcDbLine
 10
137.5736040939567
 20
282.0152645469555
 30
0.0
 11
141.0736040939567
 21
282.0152645469545
 31
0.0
  0
LINE
  5
37E
330
6C
100
AcDbEntity
  8
Visible (ANSI)
100
AcDbLine
 10
137.5736040939567
 20
282.0152645469555
 30
0.0
 11
137.0736040939585
 21
288.0152645469557
 31
0.0
  0
LINE
  5
37F
330
6C
100
AcDbEntity
  8
Visible (ANSI)
100
AcDbLine
 10
141.0736040939567
 20
282.0152645469545
 30
0.0
 11
141.5736040939584
 21
288.0152645469543
 31
0.0
  0
LINE
  5
380
330
6C
100
AcDbEntity
  8
Visible (ANSI)
100
AcDbLine
 10
137.0736040939585
 20
288.0152645469557
 30
0.0
 11
137.0736040939653
 21
310.8902645469556
 31
0.0
  0
LINE
  5
381
330
6C
100
AcDbEntity
  8
Visible (ANSI)
100
AcDbLine
 10
141.5736040939584
 20
288.0152645469543
 30
0.0
 11
141.5736040939652
 21
310.8902645469543
 31
0.0
  0
LINE
  5
382
330
6C
100
AcDbEntity
  8
Visible (ANSI)
100
AcDbLine
 10
141.0736040939431
 20
240.7652645469545
 30
0.0
 11
141.0736040939431
 21
244.7652645469545
 31
0.0
  0
LINE
  5
383
330
6C
100
AcDbEntity
  8
Visible (ANSI)
100
AcDbLine
 10
137.5736040939431
 20
240.7652645469556
 30
0.0
 11
137.5736040939431
 21
244.7652645469556
 31
0.0
  0
LINE
  5
384
330
6C
100
AcDbEntity
  8
Visible (ANSI)
100
AcDbLine
 10
135.2611040939435
 20
242.0152645469563
 30
0.0
 11
135.2611040939451
 21
247.5152645469563
 31
0.0
  0
LINE
  5
385
330
6C
100
AcDbEntity
  8
Visible (ANSI)
100
AcDbLine
 10
143.5736040939435
 20
242.2027645469538
 30
0.0
 11
143.5736040939451
 21
247.3277645469538
 31
0.0
  0
LINE
  5
386
330
6C
100
AcDbEntity
  8
Visible (ANSI)
100
AcDbLine
 10
154.1986040939438
 20
243.4527645469506
 30
0.0
 11
154.1986040939446
 21
246.0777645469506
 31
0.0
  0
ARC
  5
387
330
6C
100
AcDbEntity
  8
Visible (ANSI)
100
AcDbCircle
 10
139.3236040939431
 20
240.765264546955
 30
0.0
 40
1.749999999999997
100
AcDbArc
 50
180.0
 51
0.0
  0
LINE
  5
388
330
6C
100
AcDbEntity
  8
Visible (ANSI)
100
AcDbLine
 10
135.2611040939451
 20
247.5152645469563
 30
0.0
 11
137.5736040939451
 21
247.5152645469556
 31
0.0
  0
LINE
  5
389
330
6C
100
AcDbEntity
  8
Visible (ANSI)
100
AcDbLine
 10
135.2611040939435
 20
242.0152645469563
 30
0.0
 11
137.5736040939435
 21
242.0152645469556
 31
0.0
  0
LINE
  5
38A
330
6C
100
AcDbEntity
  8
Visible (ANSI)
100
AcDbLine
 10
141.073604093945
 20
247.3277645469545
 30
0.0
 11
143.573604093945
 21
247.3277645469538
 31
0.0
  0
LINE
  5
38B
330
6C
100
AcDbEntity
  8
Visible (ANSI)
100
AcDbLine
 10
141.0736040939435
 20
242.2027645469545
 30
0.0
 11
143.5736040939435
 21
242.2027645469538
 31
0.0
  0
LINE
  5
38C
330
6C
100
AcDbEntity
  8
Visible (ANSI)
100
AcDbLine
 10
143.573604093945
 20
247.3277645469538
 30
0.0
 11
144.0307108751317
 21
247.7848713281402
 31
0.0
  0
LINE
  5
38D
330
6C
100
AcDbEntity
  8
Visible (ANSI)
100
AcDbLine
 10
143.5736040939435
 20
242.2027645469538
 30
0.0
 11
144.0307108751299
 21
241.7456577657671
 31
0.0
  0
ARC
  5
38E
330
6C
100
AcDbEntity
  8
Visible (ANSI)
100
AcDbCircle
 10
144.7378176563167
 20
242.4527645469535
 30
0.0
 40
1.00000000000004
100
AcDbArc
 50
224.999999999983
 51
269.999999999983
  0
ARC
  5
38F
330
6C
100
AcDbEntity
  8
Visible (ANSI)
100
AcDbCircle
 10
144.7378176563181
 20
247.0777645469534
 30
0.0
 40
1.000000000000038
100
AcDbArc
 50
89.99999999998298
 51
134.999999999983
  0
LINE
  5
390
330
6C
100
AcDbEntity
  8
Visible (ANSI)
100
AcDbLine
 10
144.7378176563183
 20
248.0777645469534
 30
0.0
 11
152.1986040939452
 21
248.0777645469512
 31
0.0
  0
LINE
  5
391
330
6C
100
AcDbEntity
  8
Visible (ANSI)
100
AcDbLine
 10
144.7378176563164
 20
241.4527645469535
 30
0.0
 11
152.1986040939432
 21
241.4527645469512
 31
0.0
  0
ARC
  5
392
330
6C
100
AcDbEntity
  8
Visible (ANSI)
100
AcDbCircle
 10
152.1986040939438
 20
243.4527645469512
 30
0.0
 40
1.999999999999998
100
AcDbArc
 50
269.999999999983
 51
0.0
  0
ARC
  5
393
330
6C
100
AcDbEntity
  8
Visible (ANSI)
100
AcDbCircle
 10
152.1986040939446
 20
246.0777645469512
 30
0.0
 40
1.999999999999998
100
AcDbArc
 50
0.0
 51
89.99999999998298
  0
LINE
  5
394
330
6C
100
AcDbEntity
  8
Visible (ANSI)
100
AcDbLine
 10
141.5111040939444
 20
249.0152645469544
 30
0.0
 11
137.1361040939444
 21
249.0152645469557
 31
0.0
  0
LINE
  5
395
330
6C
100
AcDbEntity
  8
Visible (ANSI)
100
AcDbLine
 10
137.1361040939447
 20
250.0152645469557
 30
0.0
 11
141.5111040939446
 21
250.0152645469544
 31
0.0
  0
LINE
  5
396
330
6C
100
AcDbEntity
  8
Visible (ANSI)
100
AcDbLine
 10
141.5111040939446
 20
250.0152645469544
 30
0.0
 11
141.5111040939444
 21
249.0152645469544
 31
0.0
  0
LINE
  5
397
330
6C
100
AcDbEntity
  8
Visible (ANSI)
100
AcDbLine
 10
137.1361040939447
 20
250.0152645469557
 30
0.0
 11
137.1361040939444
 21
249.0152645469557
 31
0.0
  0
ARC
  5
398
330
6C
100
AcDbEntity
  8
Visible (ANSI)
100
AcDbCircle
 10
116.3236040939459
 20
244.7652645469619
 30
0.0
 40
2.249999999999997
100
AcDbArc
 50
89.99999999998307
 51
269.9999999999831
  0
LINE
  5
399
330
6C
100
AcDbEntity
  8
Visible (ANSI)
100
AcDbLine
 10
121.323604093945
 20
247.0152645469604
 30
0.0
 11
135.261104093945
 21
247.0152645469562
 31
0.0
  0
LINE
  5
39A
330
6C
100
AcDbEntity
  8
Visible (ANSI)
100
AcDbLine
 10
121.3236040939437
 20
242.5152645469604
 30
0.0
 11
135.2611040939437
 21
242.5152645469562
 31
0.0
  0
LINE
  5
39B
330
6C
100
AcDbEntity
  8
Visible (ANSI)
100
AcDbLine
 10
121.323604093945
 20
247.0152645469604
 30
0.0
 11
116.3236040939466
 21
247.0152645469618
 31
0.0
  0
LINE
  5
39C
330
6C
100
AcDbEntity
  8
Visible (ANSI)
100
AcDbLine
 10
116.3236040939452
 20
242.5152645469619
 30
0.0
 11
121.3236040939437
 21
242.5152645469604
 31
0.0
  0
LINE
  5
39D
330
6C
100
AcDbEntity
  8
Visible (ANSI)
100
AcDbLine
 10
185.9486040939509
 20
257.7652645469413
 30
0.0
 11
186.5736040939509
 21
257.7652645469411
 31
0.0
  0
LINE
  5
39E
330
6C
100
AcDbEntity
  8
Visible (ANSI)
100
AcDbLine
 10
186.5736040939509
 20
257.7652645469411
 30
0.0
 11
186.5736040939653
 21
306.2652645469408
 31
0.0
  0
LINE
  5
39F
330
6C
100
AcDbEntity
  8
Visible (ANSI)
100
AcDbLine
 10
185.9486040939654
 20
306.2652645469411
 30
0.0
 11
186.5736040939653
 21
306.2652645469408
 31
0.0
  0
LINE
  5
3A0
330
6C
100
AcDbEntity
  8
Visible (ANSI)
100
AcDbLine
 10
85.44860409396799
 20
314.890264546971
 30
0.0
 11
136.6986040939677
 21
314.8902645469557
 31
0.0
  0
LINE
  5
3A1
330
6C
100
AcDbEntity
  8
Visible (ANSI)
100
AcDbLine
 10
141.9486040939677
 20
314.8902645469542
 30
0.0
 11
185.9486040939674
 21
314.8902645469411
 31
0.0
  0
LINE
  5
3A2
330
6C
100
AcDbEntity
  8
Visible (ANSI)
100
AcDbLine
 10
185.9486040939674
 20
314.8902645469411
 30
0.0
 11
185.948604093945
 21
239.5152645469412
 31
0.0
  0
LINE
  5
3A3
330
6C
100
AcDbEntity
  8
Visible (ANSI)
100
AcDbLine
 10
85.4486040939456
 20
239.515264546971
 30
0.0
 11
85.44860409396799
 21
314.890264546971
 31
0.0
  0
LINE
  5
3A4
330
6C
100
AcDbEntity
  8
Visible (ANSI)
100
AcDbLine
 10
86.19860409395109
 20
258.0152645469708
 30
0.0
 11
137.5736040939508
 21
258.0152645469556
 31
0.0
  0
LINE
  5
3A5
330
6C
100
AcDbEntity
  8
Visible (ANSI)
100
AcDbLine
 10
141.0736040939508
 20
258.0152645469545
 30
0.0
 11
185.1986040939506
 21
258.0152645469414
 31
0.0
  0
LINE
  5
3A6
330
6C
100
AcDbEntity
  8
Visible (ANSI)
100
AcDbLine
 10
86.1986040939456
 20
239.5152645469708
 30
0.0
 11
86.19860409395109
 21
258.0152645469708
 31
0.0
  0
LINE
  5
3A7
330
6C
100
AcDbEntity
  8
Visible (ANSI)
100
AcDbLine
 10
185.1986040939506
 20
258.0152645469414
 30
0.0
 11
185.198604093945
 21
239.5152645469415
 31
0.0
  0
LINE
  5
3A8
330
6C
100
AcDbEntity
  8
Visible (ANSI)
100
AcDbLine
 10
174.823604093951
 20
259.5152645469446
 30
0.0
 11
141.0736040939512
 21
259.5152645469545
 31
0.0
  0
LINE
  5
3A9
330
6C
100
AcDbEntity
  8
Visible (ANSI)
100
AcDbLine
 10
174.8236040939643
 20
304.1402645469445
 30
0.0
 11
174.823604093951
 21
259.5152645469446
 31
0.0
  0
LINE
  5
3AA
330
6C
100
AcDbEntity
  8
Visible (ANSI)
100
AcDbLine
 10
141.5736040939645
 20
304.1402645469543
 30
0.0
 11
174.8236040939643
 21
304.1402645469445
 31
0.0
  0
LINE
  5
3AB
330
6C
100
AcDbEntity
  8
Visible (ANSI)
100
AcDbLine
 10
185.1986040939647
 20
305.6402645469414
 30
0.0
 11
141.5736040939649
 21
305.6402645469544
 31
0.0
  0
LINE
  5
3AC
330
6C
100
AcDbEntity
  8
Visible (ANSI)
100
AcDbLine
 10
137.073604093965
 20
305.6402645469557
 30
0.0
 11
86.19860409396521
 21
305.6402645469708
 31
0.0
  0
LINE
  5
3AD
330
6C
100
AcDbEntity
  8
Visible (ANSI)
100
AcDbLine
 10
185.1986040939672
 20
314.1402645469414
 30
0.0
 11
185.1986040939647
 21
305.6402645469414
 31
0.0
  0
LINE
  5
3AE
330
6C
100
AcDbEntity
  8
Visible (ANSI)
100
AcDbLine
 10
86.19860409396775
 20
314.1402645469707
 30
0.0
 11
136.6986040939675
 21
314.1402645469558
 31
0.0
  0
LINE
  5
3AF
330
6C
100
AcDbEntity
  8
Visible (ANSI)
100
AcDbLine
 10
141.9486040939674
 20
314.1402645469542
 30
0.0
 11
185.1986040939672
 21
314.1402645469414
 31
0.0
  0
LINE
  5
3B0
330
6C
100
AcDbEntity
  8
Visible (ANSI)
100
AcDbLine
 10
86.19860409396521
 20
305.6402645469708
 30
0.0
 11
86.19860409396775
 21
314.1402645469707
 31
0.0
  0
LINE
  5
3B1
330
6C
100
AcDbEntity
  8
Visible (ANSI)
100
AcDbLine
 10
137.4486040939512
 20
259.5152645469556
 30
0.0
 11
124.9486040939513
 21
259.5152645469593
 31
0.0
  0
LINE
  5
3B2
330
6C
100
AcDbEntity
  8
Visible (ANSI)
100
AcDbLine
 10
137.4486040939584
 20
283.5152645469556
 30
0.0
 11
137.4486040939512
 21
259.5152645469556
 31
0.0
  0
LINE
  5
3B3
330
6C
100
AcDbEntity
  8
Visible (ANSI)
100
AcDbLine
 10
124.9486040939646
 20
304.1402645469593
 30
0.0
 11
137.0736040939645
 21
304.1402645469557
 31
0.0
  0
LINE
  5
3B4
330
6C
100
AcDbEntity
  8
Visible (ANSI)
100
AcDbLine
 10
124.9486040939513
 20
259.5152645469593
 30
0.0
 11
124.9486040939646
 21
304.1402645469593
 31
0.0
  0
LINE
  5
3B5
330
6C
100
AcDbEntity
  8
Visible (ANSI)
100
AcDbLine
 10
176.3236040939643
 20
304.140264546944
 30
0.0
 11
185.1986040939643
 21
304.1402645469414
 31
0.0
  0
LINE
  5
3B6
330
6C
100
AcDbEntity
  8
Visible (ANSI)
100
AcDbLine
 10
176.323604093951
 20
259.5152645469441
 30
0.0
 11
176.3236040939643
 21
304.140264546944
 31
0.0
  0
LINE
  5
3B7
330
6C
100
AcDbEntity
  8
Visible (ANSI)
100
AcDbLine
 10
185.198604093951
 20
259.5152645469414
 30
0.0
 11
176.323604093951
 21
259.5152645469441
 31
0.0
  0
LINE
  5
3B8
330
6C
100
AcDbEntity
  8
Visible (ANSI)
100
AcDbLine
 10
185.1986040939643
 20
304.1402645469414
 30
0.0
 11
185.198604093951
 21
259.5152645469415
 31
0.0
  0
LINE
  5
3B9
330
6C
100
AcDbEntity
  8
Visible (ANSI)
100
AcDbLine
 10
86.19860409396476
 20
304.0152645469707
 30
0.0
 11
98.9486040939647
 21
304.015264546967
 31
0.0
  0
LINE
  5
3BA
330
6C
100
AcDbEntity
  8
Visible (ANSI)
100
AcDbLine
 10
86.19860409395155
 20
259.5152645469708
 30
0.0
 11
86.19860409396476
 21
304.0152645469707
 31
0.0
  0
LINE
  5
3BB
330
6C
100
AcDbEntity
  8
Visible (ANSI)
100
AcDbLine
 10
98.94860409395148
 20
259.5152645469671
 30
0.0
 11
86.19860409395155
 21
259.5152645469708
 31
0.0
  0
LINE
  5
3BC
330
6C
100
AcDbEntity
  8
Visible (ANSI)
100
AcDbLine
 10
98.9486040939647
 20
304.015264546967
 30
0.0
 11
98.94860409395148
 21
259.5152645469671
 31
0.0
  0
LINE
  5
3BD
330
6C
100
AcDbEntity
  8
Visible (ANSI)
100
AcDbLine
 10
124.1986040939511
 20
258.7652645469595
 30
0.0
 11
99.69860409395124
 21
258.7652645469668
 31
0.0
  0
LINE
  5
3BE
330
6C
100
AcDbEntity
  8
Visible (ANSI)
100
AcDbLine
 10
124.1986040939647
 20
304.7652645469595
 30
0.0
 11
124.1986040939511
 21
258.7652645469595
 31
0.0
  0
LINE
  5
3BF
330
6C
100
AcDbEntity
  8
Visible (ANSI)
100
AcDbLine
 10
99.69860409396488
 20
304.7652645469668
 30
0.0
 11
124.1986040939647
 21
304.7652645469595
 31
0.0
  0
LINE
  5
3C0
330
6C
100
AcDbEntity
  8
Visible (ANSI)
100
AcDbLine
 10
99.69860409395124
 20
258.7652645469668
 30
0.0
 11
99.69860409396488
 21
304.7652645469668
 31
0.0
  0
LINE
  5
3C1
330
6C
100
AcDbEntity
  8
Visible (ANSI)
100
AcDbLine
 10
186.5736040939449
 20
239.515264546941
 30
0.0
 11
140.5483489653367
 21
239.5152645469547
 31
0.0
  0
LINE
  5
3C2
330
6C
100
AcDbEntity
  8
Visible (ANSI)
100
AcDbLine
 10
138.0988592225535
 20
239.5152645469554
 30
0.0
 11
84.82360409394543
 21
239.5152645469712
 31
0.0
  0
LINE
  5
3C3
330
6C
100
AcDbEntity
  8
Visible (ANSI)
100
AcDbLine
 10
84.82360409394521
 20
238.7652645469712
 30
0.0
 11
84.82360409394543
 21
239.5152645469712
 31
0.0
  0
LINE
  5
3C4
330
6C
100
AcDbEntity
  8
Visible (ANSI)
100
AcDbLine
 10
84.82360409394521
 20
238.7652645469712
 30
0.0
 11
186.5736040939446
 21
238.765264546941
 31
0.0
  0
LINE
  5
3C5
330
6C
100
AcDbEntity
  8
Visible (ANSI)
100
AcDbLine
 10
186.5736040939446
 20
238.765264546941
 30
0.0
 11
186.5736040939449
 21
239.515264546941
 31
0.0
  0
LINE
  5
3C6
330
6C
100
AcDbEntity
  8
Visible (ANSI)
100
AcDbLine
 10
137.5736040939522
 20
266.9380459211941
 30
0.0
 11
137.5736040939567
 21
282.0152645469555
 31
0.0
  0
LINE
  5
3C7
330
6C
100
AcDbEntity
  8
Visible (ANSI)
100
AcDbLine
 10
141.0736040939522
 20
266.9380459211931
 30
0.0
 11
141.0736040939567
 21
282.0152645469545
 31
0.0
  0
LINE
  5
3C8
330
6C
100
AcDbEntity
  8
Visible (ANSI)
100
AcDbLine
 10
141.0736040939504
 20
262.6954052340738
 30
0.0
 11
141.0736040939522
 21
266.9380459211931
 31
0.0
  0
LINE
  5
3C9
330
6C
100
AcDbEntity
  8
Visible (ANSI)
100
AcDbLine
 10
137.5736040939522
 20
266.9380459211941
 30
0.0
 11
137.5736040939504
 21
262.6954052340748
 31
0.0
  0
LINE
  5
3CA
330
6C
100
AcDbEntity
  8
Visible (ANSI)
100
AcDbLine
 10
137.5736040939475
 20
257.7726238598363
 30
0.0
 11
137.5736040939504
 21
262.6954052340748
 31
0.0
  0
LINE
  5
3CB
330
6C
100
AcDbEntity
  8
Visible (ANSI)
100
AcDbLine
 10
141.0736040939475
 20
257.7726238598352
 30
0.0
 11
141.0736040939504
 21
262.6954052340738
 31
0.0
  0
LINE
  5
3CC
330
6C
100
AcDbEntity
  8
Visible (ANSI)
100
AcDbLine
 10
137.5736040939475
 20
257.7726238598363
 30
0.0
 11
137.5736040939457
 21
253.529983172717
 31
0.0
  0
LINE
  5
3CD
330
6C
100
AcDbEntity
  8
Visible (ANSI)
100
AcDbLine
 10
141.0736040939457
 20
253.529983172716
 30
0.0
 11
141.0736040939475
 21
257.7726238598353
 31
0.0
  0
LINE
  5
3CE
330
6C
100
AcDbEntity
  8
Visible (ANSI)
100
AcDbLine
 10
137.5736040939447
 20
250.0152645469555
 30
0.0
 11
137.5736040939457
 21
253.529983172717
 31
0.0
  0
LINE
  5
3CF
330
6C
100
AcDbEntity
  8
Visible (ANSI)
100
AcDbLine
 10
141.0736040939447
 20
250.0152645469545
 30
0.0
 11
141.0736040939457
 21
253.529983172716
 31
0.0
  0
LINE
  5
3D0
330
6C
100
AcDbEntity
  8
Visible (ANSI)
100
AcDbLine
 10
141.0736040939444
 20
249.0152645469545
 30
0.0
 11
141.0736040939431
 21
244.7652645469545
 31
0.0
  0
LINE
  5
3D1
330
6C
100
AcDbEntity
  8
Visible (ANSI)
100
AcDbLine
 10
137.5736040939444
 20
249.0152645469556
 30
0.0
 11
137.5736040939431
 21
244.7652645469556
 31
0.0
  0
LINE
  5
3D2
330
6C
100
AcDbEntity
  8
Visible (ANSI)
100
AcDbLine
 10
144.8236040939676
 20
315.6402645469533
 30
0.0
 11
141.9486040939679
 21
315.6402645469542
 31
0.0
  0
LINE
  5
3D3
330
6C
100
AcDbEntity
  8
Visible (ANSI)
100
AcDbLine
 10
144.8236040939953
 20
408.8902645469533
 30
0.0
 11
144.8236040939676
 21
315.6402645469533
 31
0.0
  0
LINE
  5
3D4
330
6C
100
AcDbEntity
  8
Visible (ANSI)
100
AcDbLine
 10
142.6361040939954
 20
408.890264546954
 30
0.0
 11
144.8236040939953
 21
408.8902645469533
 31
0.0
  0
LINE
  5
3D5
330
6C
100
AcDbEntity
  8
Visible (ANSI)
100
AcDbLine
 10
185.1986040939676
 20
315.6402645469413
 30
0.0
 11
145.5736040939676
 21
315.6402645469531
 31
0.0
  0
LINE
  5
3D6
330
6C
100
AcDbEntity
  8
Visible (ANSI)
100
AcDbLine
 10
185.1986040939689
 20
319.8902645469413
 30
0.0
 11
185.1986040939676
 21
315.6402645469413
 31
0.0
  0
LINE
  5
3D7
330
6C
100
AcDbEntity
  8
Visible (ANSI)
100
AcDbLine
 10
145.5736040939688
 20
319.8902645469531
 30
0.0
 11
185.1986040939689
 21
319.8902645469413
 31
0.0
  0
LINE
  5
3D8
330
6C
100
AcDbEntity
  8
Visible (ANSI)
100
AcDbLine
 10
145.5736040939676
 20
315.6402645469531
 30
0.0
 11
145.5736040939688
 21
319.8902645469531
 31
0.0
  0
LINE
  5
3D9
330
6C
100
AcDbEntity
  8
Visible (ANSI)
100
AcDbLine
 10
142.6361040939932
 20
405.6402645469539
 30
0.0
 11
136.0111040939931
 21
405.6402645469559
 31
0.0
  0
LINE
  5
3DA
330
6C
100
AcDbEntity
  8
Visible (ANSI)
100
AcDbLine
 10
137.0736040939914
 20
399.6402645469557
 30
0.0
 11
141.5736040939914
 21
399.6402645469542
 31
0.0
  0
LINE
  5
3DB
330
6C
100
AcDbEntity
  8
Visible (ANSI)
100
AcDbLine
 10
137.0736040939914
 20
399.6402645469557
 30
0.0
 11
136.0111040939932
 21
405.6402645469559
 31
0.0
  0
LINE
  5
3DC
330
6C
100
AcDbEntity
  8
Visible (ANSI)
100
AcDbLine
 10
141.5736040939914
 20
399.6402645469542
 30
0.0
 11
142.6361040939932
 21
405.6402645469539
 31
0.0
  0
LINE
  5
3DD
330
6C
100
AcDbEntity
  8
Visible (ANSI)
100
AcDbLine
 10
184.073604093993
 20
409.6402645469416
 30
0.0
 11
184.073604093993
 21
411.6402645469417
 31
0.0
  0
LINE
  5
3DE
330
6C
100
AcDbEntity
  8
Visible (ANSI)
100
AcDbLine
 10
184.073604093993
 20
411.6402645469417
 30
0.0
 11
135.0736040939931
 21
411.6402645469562
 31
0.0
  0
LINE
  5
3DF
330
6C
100
AcDbEntity
  8
Visible (ANSI)
100
AcDbLine
 10
135.0736040939931
 20
411.6402645469562
 30
0.0
 11
135.0736040939931
 21
409.6402645469561
 31
0.0
  0
LINE
  5
3E0
330
6C
100
AcDbEntity
  8
Visible (ANSI)
100
AcDbLine
 10
135.0736040939931
 20
409.6402645469561
 30
0.0
 11
184.073604093993
 21
409.6402645469416
 31
0.0
  0
LINE
  5
3E1
330
6C
100
AcDbEntity
  8
Visible (ANSI)
100
AcDbLine
 10
135.0736040939949
 20
417.6402645469562
 30
0.0
 11
135.0736040939931
 21
411.6402645469562
 31
0.0
  0
LINE
  5
3E2
330
6C
100
AcDbEntity
  8
Visible (ANSI)
100
AcDbLine
 10
184.0736040939948
 20
417.6402645469416
 30
0.0
 11
184.073604093993
 21
411.6402645469417
 31
0.0
  0
LINE
  5
3E3
330
6C
100
AcDbEntity
  8
Visible (ANSI)
100
AcDbLine
 10
135.0736040939949
 20
417.6402645469562
 30
0.0
 11
184.0736040939948
 21
417.6402645469416
 31
0.0
  0
LINE
  5
3E4
330
6C
100
AcDbEntity
  8
Visible (ANSI)
100
AcDbLine
 10
141.9486040939677
 20
314.8902645469542
 30
0.0
 11
185.9486040939674
 21
314.8902645469411
 31
0.0
  0
LINE
  5
3E5
330
6C
100
AcDbEntity
  8
Visible (ANSI)
100
AcDbLine
 10
185.9486040939674
 20
314.8902645469411
 30
0.0
 11
185.9486040939979
 21
417.6402645469411
 31
0.0
  0
LINE
  5
3E6
330
6C
100
AcDbEntity
  8
Visible (ANSI)
100
AcDbLine
 10
185.9486040939979
 20
417.6402645469411
 30
0.0
 11
184.0736040939979
 21
417.6402645469416
 31
0.0
  0
CIRCLE
  5
3E7
330
6C
100
AcDbEntity
  8
Visible (ANSI)
100
AcDbCircle
 10
165.4486040939668
 20
327.0152645469473
 30
0.0
 40
2.250000000000002
  0
CIRCLE
  5
3E8
330
6C
100
AcDbEntity
  8
Visible (ANSI)
100
AcDbCircle
 10
165.4486040939898
 20
404.2652645469472
 30
0.0
 40
2.250000000000002
  0
LINE
  5
3E9
330
6C
100
AcDbEntity
  8
Visible (ANSI)
100
AcDbLine
 10
137.0736040939674
 20
318.8902645469557
 30
0.0
 11
137.0736040939914
 21
399.6402645469557
 31
0.0
  0
LINE
  5
3EA
330
6C
100
AcDbEntity
  8
Visible (ANSI)
100
AcDbLine
 10
141.5736040939674
 20
318.8902645469544
 30
0.0
 11
141.5736040939914
 21
399.6402645469543
 31
0.0
  0
LINE
  5
3EB
330
6C
100
AcDbEntity
  8
Visible (ANSI)
100
AcDbLine
 10
142.6361040939943
 20
409.640264546954
 30
0.0
 11
142.6361040939932
 21
405.6402645469539
 31
0.0
  0
LINE
  5
3EC
330
6C
100
AcDbEntity
  8
Visible (ANSI)
100
AcDbLine
 10
136.0111040939944
 20
409.6402645469559
 30
0.0
 11
136.0111040939932
 21
405.6402645469559
 31
0.0
  0
LINE
  5
3ED
330
6C
100
AcDbEntity
  8
Visible (ANSI)
100
AcDbLine
 10
137.0736040939698
 20
322.6402645469557
 30
0.0
 11
84.94860409396968
 21
322.6402645469712
 31
0.0
  0
LINE
  5
3EE
330
6C
100
AcDbEntity
  8
Visible (ANSI)
100
AcDbLine
 10
84.94860409396968
 20
322.6402645469712
 30
0.0
 11
84.94860409397951
 21
355.7652645469711
 31
0.0
  0
LINE
  5
3EF
330
6C
100
AcDbEntity
  8
Visible (ANSI)
100
AcDbLine
 10
84.94860409397951
 20
355.7652645469711
 30
0.0
 11
137.0736040939796
 21
355.7652645469556
 31
0.0
  0
LINE
  5
3F0
330
6C
100
AcDbEntity
  8
Visible (ANSI)
100
AcDbLine
 10
137.0736040939801
 20
357.2652645469556
 30
0.0
 11
84.94860409397995
 21
357.2652645469711
 31
0.0
  0
LINE
  5
3F1
330
6C
100
AcDbEntity
  8
Visible (ANSI)
100
AcDbLine
 10
84.94860409397995
 20
357.2652645469711
 30
0.0
 11
84.94860409399262
 21
399.8902645469711
 31
0.0
  0
LINE
  5
3F2
330
6C
100
AcDbEntity
  8
Visible (ANSI)
100
AcDbLine
 10
84.94860409399262
 20
399.8902645469711
 30
0.0
 11
137.0293332606594
 21
399.8902645469556
 31
0.0
  0
LINE
  5
3F3
330
6C
100
AcDbEntity
  8
Visible (ANSI)
100
AcDbLine
 10
136.6986040939679
 20
315.6402645469557
 30
0.0
 11
84.94860409396761
 21
315.6402645469711
 31
0.0
  0
LINE
  5
3F4
330
6C
100
AcDbEntity
  8
Visible (ANSI)
100
AcDbLine
 10
84.94860409396761
 20
315.6402645469711
 30
0.0
 11
84.94860409396924
 21
321.1402645469711
 31
0.0
  0
LINE
  5
3F5
330
6C
100
AcDbEntity
  8
Visible (ANSI)
100
AcDbLine
 10
84.94860409396924
 20
321.1402645469711
 30
0.0
 11
137.0736040939694
 21
321.1402645469557
 31
0.0
  0
LINE
  5
3F6
330
6C
100
AcDbEntity
  8
Visible (ANSI)
100
AcDbLine
 10
118.5080420088077
 20
423.5600283131917
 30
0.0
 11
118.5323702039267
 21
423.7009422745299
 31
0.0
  0
SPLINE
  5
3F7
330
6C
100
AcDbEntity
  8
Visible (ANSI)
100
AcDbSpline
210
0.0
220
0.0
230
1.0
 70
     8
 71
     3
 72
    10
 73
     6
 74
     0
 42
0.0000000001
 43
0.0000000001
 40
-0.1250028004332115
 40
-0.1250028004332115
 40
-0.1250028004332115
 40
-0.1250028004332115
 40
-0.1218855853352834
 40
-0.1218855853352834
 40
-0.0455840251922283
 40
-0.0455840251922283
 40
-0.0455840251922283
 40
-0.0455840251922283
 10
118.508461668103
 20
423.5283010973721
 30
0.0
 10
118.5084539167244
 20
423.5287017243885
 30
0.0
 10
118.5084462416952
 20
423.5291032120701
 30
0.0
 10
118.5082527012061
 20
423.5393531731551
 30
0.0
 10
118.5081151369377
 20
423.5497205822898
 30
0.0
 10
118.5080420088077
 20
423.5600283131917
 30
0.0
  0
LINE
  5
3F8
330
6C
100
AcDbEntity
  8
Visible (ANSI)
100
AcDbLine
 10
146.3861040940086
 20
418.7652645469529
 30
0.0
 11
146.3968152233498
 21
418.8902645469529
 31
0.0
  0
LINE
  5
3F9
330
6C
100
AcDbEntity
  8
Visible (ANSI)
100
AcDbLine
 10
146.3861040940086
 20
418.7652645469529
 30
0.0
 11
146.3753929646675
 21
418.6402645469528
 31
0.0
  0
LINE
  5
3FA
330
6C
100
AcDbEntity
  8
Visible (ANSI)
100
AcDbLine
 10
147.8861040940086
 20
418.6402645469524
 30
0.0
 11
147.8861040940087
 21
418.8902645469524
 31
0.0
  0
ELLIPSE
  5
3FB
330
6C
100
AcDbEntity
  8
Visible (ANSI)
100
AcDbEllipse
 10
117.778871046976
 20
423.5777645469614
 30
0.0
 11
-0.0296488066056947
 21
-0.1214328961479611
 31
0.0
210
0.0
220
0.0
230
1.0
 40
0.6967984516407134
 41
5.413065670360293
 42
6.28318530717934
  0
ELLIPSE
  5
3FC
330
6C
100
AcDbEntity
  8
Visible (ANSI)
100
AcDbEllipse
 10
117.7788710469759
 20
423.5777645469613
 30
0.0
 11
0.0296488066056341
 21
0.1214328961478889
 31
0.0
210
0.0
220
0.0
230
1.0
 40
0.696798451640622
 41
0.0
 42
1.883802957520664
  0
SPLINE
  5
3FD
330
6C
100
AcDbEntity
  8
Visible (ANSI)
100
AcDbSpline
210
0.0
220
0.0
230
1.0
 70
     8
 71
     3
 72
    10
 73
     6
 74
     0
 42
0.0000000001
 43
0.0000000001
 40
-0.1597689612254139
 40
-0.1597689612254139
 40
-0.1597689612254139
 40
-0.1597689612254139
 40
-0.1218855853352847
 40
-0.1218855853352847
 40
-0.0455840251922834
 40
-0.0455840251922834
 40
-0.0455840251922834
 40
-0.0455840251922834
 10
117.7004503492639
 20
423.5152645469614
 30
0.0
 10
117.6985547304575
 20
423.5198490361261
 30
0.0
 10
117.6968548722806
 20
423.5246162152095
 30
0.0
 10
117.6924005103
 20
423.5393531731554
 30
0.0
 10
117.6903340549168
 20
423.54972058229
 30
0.0
 10
117.6892385471804
 20
423.560028313192
 30
0.0
  0
ELLIPSE
  5
3FE
330
6C
100
AcDbEntity
  8
Visible (ANSI)
100
AcDbEllipse
 10
137.4894725725436
 20
418.7652645469555
 30
0.0
 11
-0.0149856337786189
 21
-0.1245565523693711
 31
0.0
210
0.0
220
0.0
230
0.9999999999999998
 40
0.701989381573394
 41
3.225850360498814
 42
4.796646687293857
  0
ELLIPSE
  5
3FF
330
6C
100
AcDbEntity
  8
Visible (ANSI)
100
AcDbEllipse
 10
137.4894725725436
 20
418.7652645469555
 30
0.0
 11
-0.0149856337785901
 21
-0.1245565523693763
 31
0.0
210
0.0
220
0.0
230
1.0
 40
0.7019893815733943
 41
4.796646687293133
 42
6.367443014088324
  0
ELLIPSE
  5
400
330
6C
100
AcDbEntity
  8
Visible (ANSI)
100
AcDbEllipse
 10
138.5501327443231
 20
418.7652645469551
 30
0.0
 11
0.0000000000000371
 21
0.125
 31
0.0
210
0.0
220
0.0
230
1.0
 40
0.7071067811867576
 41
0.0
 42
6.283185307179586
  0
ELLIPSE
  5
401
330
6C
100
AcDbEntity
  8
Visible (ANSI)
100
AcDbEllipse
 10
116.0111040940093
 20
423.5777645469618
 30
0.0
 11
0.1250000000000002
 21
-0.0000000000000818
 31
0.0
210
0.0
220
0.0
230
1.0
 40
0.9854218205504682
 41
0.000000000000056
 42
3.141592653589849
  0
CIRCLE
  5
402
330
6C
100
AcDbEntity
  8
Visible (ANSI)
100
AcDbCircle
 10
116.0111040939992
 20
418.7652645469619
 30
0.0
 40
0.125
  0
ELLIPSE
  5
403
330
6C
100
AcDbEntity
  8
Visible (ANSI)
100
AcDbEllipse
 10
114.2433371410431
 20
423.5777645469624
 30
0.0
 11
0.0296488066056225
 21
-0.1214328961479736
 31
0.0
210
0.0
220
0.0
230
1.0
 40
0.6967984516402814
 41
0.0
 42
0.8701196368183898
  0
ELLIPSE
  5
404
330
6C
100
AcDbEntity
  8
Visible (ANSI)
100
AcDbEllipse
 10
114.2433371410432
 20
423.5777645469624
 30
0.0
 11
-0.0296488066055545
 21
0.121432896147905
 31
0.0
210
0.0
220
0.0
230
0.9999999999999998
 40
0.6967984516402236
 41
4.399382349658311
 42
6.283185307179484
  0
SPLINE
  5
405
330
6C
100
AcDbEntity
  8
Visible (ANSI)
100
AcDbSpline
210
0.0
220
0.0
230
1.0
 70
     8
 71
     3
 72
    10
 73
     6
 74
     0
 42
0.0000000001
 43
0.0000000001
 40
1.007858426954678
 40
1.007858426954678
 40
1.007858426954678
 40
1.007858426954678
 40
1.084159987097789
 40
1.084159987097789
 40
1.122043362987913
 40
1.122043362987913
 40
1.122043362987913
 40
1.122043362987913
 10
114.3329696408386
 20
423.5600283131931
 30
0.0
 10
114.3318741331022
 20
423.549720582291
 30
0.0
 10
114.329807677719
 20
423.5393531731564
 30
0.0
 10
114.3253533157384
 20
423.5246162152105
 30
0.0
 10
114.3236534575615
 20
423.5198490361271
 30
0.0
 10
114.3217578387551
 20
423.5152645469623
 30
0.0
  0
ELLIPSE
  5
406
330
6C
100
AcDbEntity
  8
Visible (ANSI)
100
AcDbEllipse
 10
94.53273561546092
 20
418.7652645469682
 30
0.0
 11
0.0149856337785364
 21
-0.1245565523693809
 31
0.0
210
0.0
220
0.0
230
1.0
 40
0.7019893815729774
 41
1.486538619886246
 42
3.057334946680822
  0
ELLIPSE
  5
407
330
6C
100
AcDbEntity
  8
Visible (ANSI)
100
AcDbEllipse
 10
94.53273561546092
 20
418.7652645469682
 30
0.0
 11
0.0149856337785077
 21
-0.1245565523693862
 31
0.0
210
0.0
220
0.0
230
1.0
 40
0.7019893815729774
 41
6.198927600270945
 42
7.769723927065997
  0
ELLIPSE
  5
408
330
6C
100
AcDbEntity
  8
Visible (ANSI)
100
AcDbEllipse
 10
93.47207544368078
 20
418.7652645469685
 30
0.0
 11
0.0000000000000371
 21
0.125
 31
0.0
210
0.0
220
0.0
230
1.0
 40
0.7071067811863375
 41
0.0
 42
6.283185307179586
  0
LINE
  5
409
330
6C
100
AcDbEntity
  8
Visible (ANSI)
100
AcDbLine
 10
146.3753929646675
 20
418.6402645469528
 30
0.0
 11
142.9166298872747
 21
419.2374052576248
 31
0.0
  0
LINE
  5
40A
330
6C
100
AcDbEntity
  8
Visible (ANSI)
100
AcDbLine
 10
141.4685779392229
 20
419.4874052576253
 30
0.0
 11
138.6230062405908
 21
419.9786810890044
 31
0.0
  0
LINE
  5
40B
330
6C
100
AcDbEntity
  8
Visible (ANSI)
100
AcDbLine
 10
137.1749542925389
 20
420.2286810890048
 30
0.0
 11
134.3293825939068
 21
420.7199569203837
 31
0.0
  0
LINE
  5
40C
330
6C
100
AcDbEntity
  8
Visible (ANSI)
100
AcDbLine
 10
132.8813306458549
 20
420.9699569203842
 30
0.0
 11
130.0357589472228
 21
421.4612327517633
 31
0.0
  0
LINE
  5
40D
330
6C
100
AcDbEntity
  8
Visible (ANSI)
100
AcDbLine
 10
128.587706999171
 20
421.7112327517637
 30
0.0
 11
125.7421353005389
 21
422.2025085831427
 31
0.0
  0
LINE
  5
40E
330
6C
100
AcDbEntity
  8
Visible (ANSI)
100
AcDbLine
 10
124.294083352487
 20
422.4525085831432
 30
0.0
 11
121.4485116538549
 21
422.9437844145222
 31
0.0
  0
LINE
  5
40F
330
6C
100
AcDbEntity
  8
Visible (ANSI)
100
AcDbLine
 10
120.000459705803
 20
423.1937844145226
 30
0.0
 11
119.5842160090226
 21
423.2656471155364
 31
0.0
  0
LINE
  5
410
330
6C
100
AcDbEntity
  8
Visible (ANSI)
100
AcDbLine
 10
146.3968152233498
 20
418.8902645469528
 30
0.0
 11
144.386104094009
 21
419.2374052576244
 31
0.0
  0
LINE
  5
411
330
6C
100
AcDbEntity
  8
Visible (ANSI)
100
AcDbLine
 10
142.9380521459571
 20
419.4874052576248
 30
0.0
 11
140.092480447325
 21
419.9786810890039
 31
0.0
  0
LINE
  5
412
330
6C
100
AcDbEntity
  8
Visible (ANSI)
100
AcDbLine
 10
138.6444284992731
 20
420.2286810890043
 30
0.0
 11
135.798856800641
 21
420.7199569203833
 31
0.0
  0
LINE
  5
413
330
6C
100
AcDbEntity
  8
Visible (ANSI)
100
AcDbLine
 10
134.3508048525891
 20
420.9699569203837
 30
0.0
 11
131.505233153957
 21
421.4612327517628
 31
0.0
  0
LINE
  5
414
330
6C
100
AcDbEntity
  8
Visible (ANSI)
100
AcDbLine
 10
130.0571812059052
 20
421.7112327517632
 30
0.0
 11
127.2116095072731
 21
422.2025085831423
 31
0.0
  0
LINE
  5
415
330
6C
100
AcDbEntity
  8
Visible (ANSI)
100
AcDbLine
 10
125.7635575592212
 20
422.4525085831428
 30
0.0
 11
122.9179858605891
 21
422.9437844145218
 31
0.0
  0
LINE
  5
416
330
6C
100
AcDbEntity
  8
Visible (ANSI)
100
AcDbLine
 10
121.4699339125372
 20
423.1937844145222
 30
0.0
 11
118.5323702039267
 21
423.7009422745299
 31
0.0
  0
LINE
  5
417
330
6C
100
AcDbEntity
  8
Visible (ANSI)
100
AcDbLine
 10
147.8861040940087
 20
418.8902645469523
 30
0.0
 11
146.3968152233498
 21
418.8902645469528
 31
0.0
  0
LINE
  5
418
330
6C
100
AcDbEntity
  8
Visible (ANSI)
100
AcDbLine
 10
137.4671815426784
 20
418.6420351911452
 30
0.0
 11
135.0287187602028
 21
419.2374052576272
 31
0.0
  0
LINE
  5
419
330
6C
100
AcDbEntity
  8
Visible (ANSI)
100
AcDbLine
 10
134.0047914082253
 20
419.4874052576274
 30
0.0
 11
131.9926683637706
 21
419.9786810890063
 31
0.0
  0
LINE
  5
41A
330
6C
100
AcDbEntity
  8
Visible (ANSI)
100
AcDbLine
 10
130.9687410117931
 20
420.2286810890066
 30
0.0
 11
128.9566179673384
 21
420.7199569203853
 31
0.0
  0
LINE
  5
41B
330
6C
100
AcDbEntity
  8
Visible (ANSI)
100
AcDbLine
 10
127.9326906153609
 20
420.9699569203857
 30
0.0
 11
125.9205675709062
 21
421.4612327517644
 31
0.0
  0
LINE
  5
41C
330
6C
100
AcDbEntity
  8
Visible (ANSI)
100
AcDbLine
 10
124.8966402189287
 20
421.7112327517648
 30
0.0
 11
122.8845171744741
 21
422.2025085831437
 31
0.0
  0
LINE
  5
41D
330
6C
100
AcDbEntity
  8
Visible (ANSI)
100
AcDbLine
 10
121.8605898224965
 20
422.4525085831439
 30
0.0
 11
119.8484667780419
 21
422.9437844145228
 31
0.0
  0
LINE
  5
41E
330
6C
100
AcDbEntity
  8
Visible (ANSI)
100
AcDbLine
 10
118.8245394260643
 20
423.1937844145231
 30
0.0
 11
117.7492222403703
 21
423.4563316508134
 31
0.0
  0
LINE
  5
41F
330
6C
100
AcDbEntity
  8
Visible (ANSI)
100
AcDbLine
 10
137.5045115583432
 20
418.8902645469554
 30
0.0
 11
136.0827240837795
 21
419.2374052576268
 31
0.0
  0
LINE
  5
420
330
6C
100
AcDbEntity
  8
Visible (ANSI)
100
AcDbLine
 10
135.058796731802
 20
419.4874052576271
 30
0.0
 11
133.0466736873473
 21
419.9786810890059
 31
0.0
  0
LINE
  5
421
330
6C
100
AcDbEntity
  8
Visible (ANSI)
100
AcDbLine
 10
132.0227463353698
 20
420.2286810890063
 30
0.0
 11
130.0106232909151
 21
420.7199569203851
 31
0.0
  0
LINE
  5
422
330
6C
100
AcDbEntity
  8
Visible (ANSI)
100
AcDbLine
 10
128.9866959389376
 20
420.9699569203854
 30
0.0
 11
126.9745728944829
 21
421.4612327517642
 31
0.0
  0
LINE
  5
423
330
6C
100
AcDbEntity
  8
Visible (ANSI)
100
AcDbLine
 10
125.9506455425054
 20
421.7112327517645
 30
0.0
 11
123.9385224980508
 21
422.2025085831433
 31
0.0
  0
LINE
  5
424
330
6C
100
AcDbEntity
  8
Visible (ANSI)
100
AcDbLine
 10
122.9145951460733
 20
422.4525085831436
 30
0.0
 11
120.9024721016186
 21
422.9437844145224
 31
0.0
  0
LINE
  5
425
330
6C
100
AcDbEntity
  8
Visible (ANSI)
100
AcDbLine
 10
119.878544749641
 20
423.1937844145226
 30
0.0
 11
117.8085198535815
 21
423.6991974431092
 31
0.0
  0
LINE
  5
426
330
6C
100
AcDbEntity
  8
Visible (ANSI)
100
AcDbLine
 10
138.5501327443232
 20
418.8902645469552
 30
0.0
 11
137.497046484735
 21
418.8902645469554
 31
0.0
  0
LINE
  5
427
330
6C
100
AcDbEntity
  8
Visible (ANSI)
100
AcDbLine
 10
115.8861040939996
 20
418.7652645469619
 30
0.0
 11
115.8861040940006
 21
419.2374052576328
 31
0.0
  0
LINE
  5
428
330
6C
100
AcDbEntity
  8
Visible (ANSI)
100
AcDbLine
 10
115.8861040940011
 20
419.4874052576328
 30
0.0
 11
115.8861040940021
 21
419.9786810890111
 31
0.0
  0
LINE
  5
429
330
6C
100
AcDbEntity
  8
Visible (ANSI)
100
AcDbLine
 10
115.8861040940026
 20
420.228681089011
 30
0.0
 11
115.8861040940036
 21
420.7199569203893
 31
0.0
  0
LINE
  5
42A
330
6C
100
AcDbEntity
  8
Visible (ANSI)
100
AcDbLine
 10
115.8861040940041
 20
420.9699569203893
 30
0.0
 11
115.8861040940051
 21
421.4612327517675
 31
0.0
  0
LINE
  5
42B
330
6C
100
AcDbEntity
  8
Visible (ANSI)
100
AcDbLine
 10
115.8861040940055
 20
421.7112327517675
 30
0.0
 11
115.8861040940066
 21
422.2025085831456
 31
0.0
  0
LINE
  5
42C
330
6C
100
AcDbEntity
  8
Visible (ANSI)
100
AcDbLine
 10
115.8861040940071
 20
422.4525085831457
 30
0.0
 11
115.886104094008
 21
422.9437844145238
 31
0.0
  0
LINE
  5
42D
330
6C
100
AcDbEntity
  8
Visible (ANSI)
100
AcDbLine
 10
115.8861040940085
 20
423.1937844145239
 30
0.0
 11
115.8861040940093
 21
423.5777645469619
 31
0.0
  0
LINE
  5
42E
330
6C
100
AcDbEntity
  8
Visible (ANSI)
100
AcDbLine
 10
116.1361040939996
 20
418.7652645469618
 30
0.0
 11
116.1361040940006
 21
419.2374052576328
 31
0.0
  0
LINE
  5
42F
330
6C
100
AcDbEntity
  8
Visible (ANSI)
100
AcDbLine
 10
116.1361040940011
 20
419.4874052576328
 30
0.0
 11
116.1361040940021
 21
419.978681089011
 31
0.0
  0
LINE
  5
430
330
6C
100
AcDbEntity
  8
Visible (ANSI)
100
AcDbLine
 10
116.1361040940026
 20
420.2286810890109
 30
0.0
 11
116.1361040940036
 21
420.7199569203892
 31
0.0
  0
LINE
  5
431
330
6C
100
AcDbEntity
  8
Visible (ANSI)
100
AcDbLine
 10
116.1361040940041
 20
420.9699569203892
 30
0.0
 11
116.1361040940051
 21
421.4612327517675
 31
0.0
  0
LINE
  5
432
330
6C
100
AcDbEntity
  8
Visible (ANSI)
100
AcDbLine
 10
116.1361040940056
 20
421.7112327517674
 30
0.0
 11
116.1361040940065
 21
422.2025085831456
 31
0.0
  0
LINE
  5
433
330
6C
100
AcDbEntity
  8
Visible (ANSI)
100
AcDbLine
 10
116.136104094007
 20
422.4525085831456
 30
0.0
 11
116.136104094008
 21
422.9437844145238
 31
0.0
  0
LINE
  5
434
330
6C
100
AcDbEntity
  8
Visible (ANSI)
100
AcDbLine
 10
116.1361040940086
 20
423.1937844145238
 30
0.0
 11
116.1361040940093
 21
423.5777645469618
 31
0.0
  0
LINE
  5
435
330
6C
100
AcDbEntity
  8
Visible (ANSI)
100
AcDbLine
 10
94.51769662966141
 20
418.8902645469681
 30
0.0
 11
95.93948410422619
 21
419.2374052576387
 31
0.0
  0
LINE
  5
436
330
6C
100
AcDbEntity
  8
Visible (ANSI)
100
AcDbLine
 10
96.96341145620449
 20
419.4874052576385
 30
0.0
 11
98.97553450066062
 21
419.978681089016
 31
0.0
  0
LINE
  5
437
330
6C
100
AcDbEntity
  8
Visible (ANSI)
100
AcDbLine
 10
99.99946185263892
 20
420.2286810890158
 30
0.0
 11
102.011584897095
 21
420.7199569203933
 31
0.0
  0
LINE
  5
438
330
6C
100
AcDbEntity
  8
Visible (ANSI)
100
AcDbLine
 10
103.0355122490733
 20
420.969956920393
 30
0.0
 11
105.0476352935294
 21
421.4612327517707
 31
0.0
  0
LINE
  5
439
330
6C
100
AcDbEntity
  8
Visible (ANSI)
100
AcDbLine
 10
106.0715626455077
 20
421.7112327517703
 30
0.0
 11
108.0836856899639
 21
422.202508583148
 31
0.0
  0
LINE
  5
43A
330
6C
100
AcDbEntity
  8
Visible (ANSI)
100
AcDbLine
 10
109.1076130419422
 20
422.4525085831477
 30
0.0
 11
111.1197360863983
 21
422.9437844145253
 31
0.0
  0
LINE
  5
43B
330
6C
100
AcDbEntity
  8
Visible (ANSI)
100
AcDbLine
 10
112.1436634383766
 20
423.193784414525
 30
0.0
 11
114.2136883344376
 21
423.6991974431102
 31
0.0
  0
LINE
  5
43C
330
6C
100
AcDbEntity
  8
Visible (ANSI)
100
AcDbLine
 10
94.55502664532602
 20
418.6420351911579
 30
0.0
 11
96.99348942780348
 21
419.2374052576385
 31
0.0
  0
LINE
  5
43D
330
6C
100
AcDbEntity
  8
Visible (ANSI)
100
AcDbLine
 10
98.01741677978178
 20
419.4874052576381
 30
0.0
 11
100.0295398242379
 21
419.9786810890158
 31
0.0
  0
LINE
  5
43E
330
6C
100
AcDbEntity
  8
Visible (ANSI)
100
AcDbLine
 10
101.0534671762162
 20
420.2286810890154
 30
0.0
 11
103.0655902206723
 21
420.7199569203931
 31
0.0
  0
LINE
  5
43F
330
6C
100
AcDbEntity
  8
Visible (ANSI)
100
AcDbLine
 10
104.0895175726506
 20
420.9699569203928
 30
0.0
 11
106.1016406171067
 21
421.4612327517704
 31
0.0
  0
LINE
  5
440
330
6C
100
AcDbEntity
  8
Visible (ANSI)
100
AcDbLine
 10
107.125567969085
 20
421.7112327517701
 30
0.0
 11
109.1376910135412
 21
422.2025085831477
 31
0.0
  0
LINE
  5
441
330
6C
100
AcDbEntity
  8
Visible (ANSI)
100
AcDbLine
 10
110.1616183655195
 20
422.4525085831474
 30
0.0
 11
112.1737414099756
 21
422.943784414525
 31
0.0
  0
LINE
  5
442
330
6C
100
AcDbEntity
  8
Visible (ANSI)
100
AcDbLine
 10
113.1976687619539
 20
423.1937844145248
 30
0.0
 11
114.2729859476487
 21
423.4563316508144
 31
0.0
  0
LINE
  5
443
330
6C
100
AcDbEntity
  8
Visible (ANSI)
100
AcDbLine
 10
93.47207544368082
 20
418.8902645469686
 30
0.0
 11
94.52516170326966
 21
418.8902645469681
 31
0.0
  0
LINE
  5
444
330
6C
100
AcDbEntity
  8
Visible (ANSI)
100
AcDbLine
 10
117.7004503492639
 20
423.5152645469614
 30
0.0
 11
116.1361040940093
 21
423.5152645469618
 31
0.0
  0
LINE
  5
445
330
6C
100
AcDbEntity
  8
Visible (ANSI)
100
AcDbLine
 10
115.8861040940093
 20
423.5152645469619
 30
0.0
 11
114.3217578387551
 21
423.5152645469623
 31
0.0
  0
LINE
  5
446
330
6C
100
AcDbEntity
  8
Visible (ANSI)
100
AcDbLine
 10
93.47207544368073
 20
418.6402645469685
 30
0.0
 11
84.13610409400861
 21
418.6402645469713
 31
0.0
  0
LINE
  5
447
330
6C
100
AcDbEntity
  8
Visible (ANSI)
100
AcDbLine
 10
116.0111040939991
 20
418.6402645469618
 30
0.0
 11
93.47207544368075
 21
418.6402645469685
 31
0.0
  0
LINE
  5
448
330
6C
100
AcDbEntity
  8
Visible (ANSI)
100
AcDbLine
 10
138.5501327443231
 20
418.6402645469551
 30
0.0
 11
116.0111040939991
 21
418.6402645469618
 31
0.0
  0
LINE
  5
449
330
6C
100
AcDbEntity
  8
Visible (ANSI)
100
AcDbLine
 10
147.8861040940086
 20
418.6402645469524
 30
0.0
 11
138.5501327443231
 21
418.6402645469551
 31
0.0
  0
LINE
  5
44A
330
6C
100
AcDbEntity
  8
Visible (ANSI)
100
AcDbLine
 10
147.8861040940086
 20
418.5152645469525
 30
0.0
 11
84.1361040940086
 21
418.5152645469713
 31
0.0
  0
LINE
  5
44B
330
6C
100
AcDbEntity
  8
Visible (ANSI)
100
AcDbLine
 10
113.9723163172494
 20
423.6402645469625
 30
0.0
 11
113.5111040940101
 21
423.6402645469627
 31
0.0
  0
LINE
  5
44C
330
6C
100
AcDbEntity
  8
Visible (ANSI)
100
AcDbLine
 10
115.9033900366251
 20
423.6402645469619
 30
0.0
 11
114.3118725456091
 21
423.6402645469623
 31
0.0
  0
LINE
  5
44D
330
6C
100
AcDbEntity
  8
Visible (ANSI)
100
AcDbLine
 10
117.71033564241
 20
423.6402645469614
 30
0.0
 11
116.1188181513935
 21
423.6402645469619
 31
0.0
  0
LINE
  5
44E
330
6C
100
AcDbEntity
  8
Visible (ANSI)
100
AcDbLine
 10
118.5111040940101
 20
423.6402645469611
 30
0.0
 11
118.0498918707699
 21
423.6402645469612
 31
0.0
  0
LINE
  5
44F
330
6C
100
AcDbEntity
  8
Visible (ANSI)
100
AcDbLine
 10
85.51110409400552
 20
408.1402645469709
 30
0.0
 11
85.51110409400859
 21
418.5152645469709
 31
0.0
  0
LINE
  5
450
330
6C
100
AcDbEntity
  8
Visible (ANSI)
100
AcDbLine
 10
146.5111040940083
 20
417.6402645469528
 30
0.0
 11
146.5111040940086
 21
418.5152645469528
 31
0.0
  0
LINE
  5
451
330
6C
100
AcDbEntity
  8
Visible (ANSI)
100
AcDbLine
 10
84.1361040940086
 20
418.5152645469713
 30
0.0
 11
84.13610409400863
 21
418.6402645469713
 31
0.0
  0
LINE
  5
452
330
6C
100
AcDbEntity
  8
Visible (ANSI)
100
AcDbLine
 10
147.8861040940086
 20
418.5152645469523
 30
0.0
 11
147.8861040940086
 21
418.6402645469524
 31
0.0
  0
LINE
  5
453
330
6C
100
AcDbEntity
  8
Visible (ANSI)
100
AcDbLine
 10
113.5111040940101
 20
423.5777645469625
 30
0.0
 11
113.5111040940101
 21
423.6402645469627
 31
0.0
  0
LINE
  5
454
330
6C
100
AcDbEntity
  8
Visible (ANSI)
100
AcDbLine
 10
118.5111040940101
 20
423.5777645469611
 30
0.0
 11
118.5111040940101
 21
423.6402645469611
 31
0.0
  0
LINE
  5
455
330
6C
100
AcDbEntity
  8
Visible (ANSI)
100
AcDbLine
 10
113.4898379840935
 20
423.7009422745314
 30
0.0
 11
113.5141661792124
 21
423.5600283131932
 31
0.0
  0
SPLINE
  5
456
330
6C
100
AcDbEntity
  8
Visible (ANSI)
100
AcDbSpline
210
0.0
220
0.0
230
1.0
 70
     8
 71
     3
 72
    10
 73
     6
 74
     0
 42
0.0000000001
 43
0.0000000001
 40
1.007858426954669
 40
1.007858426954669
 40
1.007858426954669
 40
1.007858426954669
 40
1.084159987097779
 40
1.084159987097779
 40
1.087277202195636
 40
1.087277202195636
 40
1.087277202195636
 40
1.087277202195636
 10
113.5141661792124
 20
423.5600283131932
 30
0.0
 10
113.5140930510824
 20
423.5497205822913
 30
0.0
 10
113.5139554868139
 20
423.5393531731566
 30
0.0
 10
113.5137619463248
 20
423.5291032120716
 30
0.0
 10
113.5137542712957
 20
423.5287017243901
 30
0.0
 10
113.5137465199171
 20
423.5283010973736
 30
0.0
  0
LINE
  5
457
330
6C
100
AcDbEntity
  8
Visible (ANSI)
100
AcDbLine
 10
85.62539296466757
 20
418.8902645469709
 30
0.0
 11
85.63610409400864
 21
418.7652645469709
 31
0.0
  0
LINE
  5
458
330
6C
100
AcDbEntity
  8
Visible (ANSI)
100
AcDbLine
 10
85.64681522334975
 20
418.6402645469708
 30
0.0
 11
85.63610409400864
 21
418.7652645469709
 31
0.0
  0
LINE
  5
459
330
6C
100
AcDbEntity
  8
Visible (ANSI)
100
AcDbLine
 10
84.1361040940087
 20
418.8902645469713
 30
0.0
 11
84.13610409400863
 21
418.6402645469713
 31
0.0
  0
LINE
  5
45A
330
6C
100
AcDbEntity
  8
Visible (ANSI)
100
AcDbLine
 10
85.62539296466756
 20
418.8902645469708
 30
0.0
 11
87.63610409400865
 21
419.2374052576412
 31
0.0
  0
LINE
  5
45B
330
6C
100
AcDbEntity
  8
Visible (ANSI)
100
AcDbLine
 10
89.08415604206062
 20
419.4874052576408
 30
0.0
 11
91.92972774069303
 21
419.9786810890182
 31
0.0
  0
LINE
  5
45C
330
6C
100
AcDbEntity
  8
Visible (ANSI)
100
AcDbLine
 10
93.37777968874505
 20
420.2286810890177
 30
0.0
 11
96.22335138737746
 21
420.7199569203951
 31
0.0
  0
LINE
  5
45D
330
6C
100
AcDbEntity
  8
Visible (ANSI)
100
AcDbLine
 10
97.67140333542947
 20
420.9699569203946
 30
0.0
 11
100.5169750340618
 21
421.461232751772
 31
0.0
  0
LINE
  5
45E
330
6C
100
AcDbEntity
  8
Visible (ANSI)
100
AcDbLine
 10
101.9650269821138
 20
421.7112327517716
 30
0.0
 11
104.8105986807462
 21
422.2025085831489
 31
0.0
  0
LINE
  5
45F
330
6C
100
AcDbEntity
  8
Visible (ANSI)
100
AcDbLine
 10
106.2586506287983
 20
422.4525085831485
 30
0.0
 11
109.1042223274306
 21
422.9437844145259
 31
0.0
  0
LINE
  5
460
330
6C
100
AcDbEntity
  8
Visible (ANSI)
100
AcDbLine
 10
110.5522742754827
 20
423.1937844145255
 30
0.0
 11
113.4898379840935
 21
423.7009422745314
 31
0.0
  0
LINE
  5
461
330
6C
100
AcDbEntity
  8
Visible (ANSI)
100
AcDbLine
 10
85.64681522334973
 20
418.6402645469708
 30
0.0
 11
89.10557830074283
 21
419.2374052576408
 31
0.0
  0
LINE
  5
462
330
6C
100
AcDbEntity
  8
Visible (ANSI)
100
AcDbLine
 10
90.55363024879484
 20
419.4874052576404
 30
0.0
 11
93.39920194742724
 21
419.9786810890177
 31
0.0
  0
LINE
  5
463
330
6C
100
AcDbEntity
  8
Visible (ANSI)
100
AcDbLine
 10
94.84725389547923
 20
420.2286810890173
 30
0.0
 11
97.69282559411164
 21
420.7199569203947
 31
0.0
  0
LINE
  5
464
330
6C
100
AcDbEntity
  8
Visible (ANSI)
100
AcDbLine
 10
99.14087754216366
 20
420.9699569203943
 30
0.0
 11
101.986449240796
 21
421.4612327517716
 31
0.0
  0
LINE
  5
465
330
6C
100
AcDbEntity
  8
Visible (ANSI)
100
AcDbLine
 10
103.434501188848
 20
421.7112327517711
 30
0.0
 11
106.2800728874804
 21
422.2025085831486
 31
0.0
  0
LINE
  5
466
330
6C
100
AcDbEntity
  8
Visible (ANSI)
100
AcDbLine
 10
107.7281248355324
 20
422.4525085831481
 30
0.0
 11
110.5736965341648
 21
422.9437844145254
 31
0.0
  0
LINE
  5
467
330
6C
100
AcDbEntity
  8
Visible (ANSI)
100
AcDbLine
 10
112.0217484822168
 20
423.193784414525
 30
0.0
 11
112.4379921789974
 21
423.2656471155387
 31
0.0
  0
LINE
  5
468
330
6C
100
AcDbEntity
  8
Visible (ANSI)
100
AcDbLine
 10
84.1361040940087
 20
418.8902645469712
 30
0.0
 11
85.62539296466757
 21
418.8902645469708
 31
0.0
  0
LINE
  5
469
330
6C
100
AcDbEntity
  8
Visible (ANSI)
100
AcDbLine
 10
136.0111040939952
 20
408.1402645469559
 30
0.0
 11
84.19860409399504
 21
408.1402645469713
 31
0.0
  0
LINE
  5
46A
330
6C
100
AcDbEntity
  8
Visible (ANSI)
100
AcDbLine
 10
84.19860409396738
 20
314.8902645469714
 30
0.0
 11
84.19860409399506
 21
408.1402645469713
 31
0.0
  0
LINE
  5
46B
330
6C
100
AcDbEntity
  8
Visible (ANSI)
100
AcDbLine
 10
84.19860409396738
 20
314.8902645469714
 30
0.0
 11
136.6986040939677
 21
314.8902645469557
 31
0.0
  0
ARC
  5
46C
330
6C
100
AcDbEntity
  8
Visible (ANSI)
100
AcDbCircle
 10
122.9286969899302
 20
423.0687844145219
 30
0.0
 40
0.125
100
AcDbArc
 50
269.999999999984
 51
89.99999999998392
  0
ARC
  5
46D
330
6C
100
AcDbEntity
  8
Visible (ANSI)
100
AcDbCircle
 10
109.0935111980897
 20
423.068784414526
 30
0.0
 40
0.125
100
AcDbArc
 50
89.99999999998397
 51
269.999999999984
  0
LINE
  5
46E
330
6C
100
AcDbEntity
  8
Visible (ANSI)
100
AcDbLine
 10
122.9286969899302
 20
423.1937844145219
 30
0.0
 11
109.0935111980897
 21
423.1937844145259
 31
0.0
  0
LINE
  5
46F
330
6C
100
AcDbEntity
  8
Visible (ANSI)
100
AcDbLine
 10
109.0935111980896
 20
422.9437844145259
 30
0.0
 11
122.9286969899301
 21
422.9437844145218
 31
0.0
  0
ARC
  5
470
330
6C
100
AcDbEntity
  8
Visible (ANSI)
100
AcDbCircle
 10
127.2223206366141
 20
422.3275085831423
 30
0.0
 40
0.125
100
AcDbArc
 50
269.999999999984
 51
89.99999999998392
  0
ARC
  5
471
330
6C
100
AcDbEntity
  8
Visible (ANSI)
100
AcDbCircle
 10
104.7998875514053
 20
422.327508583149
 30
0.0
 40
0.125
100
AcDbArc
 50
89.99999999998397
 51
269.999999999984
  0
LINE
  5
472
330
6C
100
AcDbEntity
  8
Visible (ANSI)
100
AcDbLine
 10
127.2223206366142
 20
422.4525085831423
 30
0.0
 11
104.7998875514053
 21
422.452508583149
 31
0.0
  0
LINE
  5
473
330
6C
100
AcDbEntity
  8
Visible (ANSI)
100
AcDbLine
 10
104.7998875514052
 20
422.202508583149
 30
0.0
 11
127.2223206366141
 21
422.2025085831423
 31
0.0
  0
ARC
  5
474
330
6C
100
AcDbEntity
  8
Visible (ANSI)
100
AcDbCircle
 10
131.5159442832981
 20
421.5862327517628
 30
0.0
 40
0.125
100
AcDbArc
 50
269.999999999984
 51
89.99999999998392
  0
ARC
  5
475
330
6C
100
AcDbEntity
  8
Visible (ANSI)
100
AcDbCircle
 10
100.5062639047209
 20
421.586232751772
 30
0.0
 40
0.125
100
AcDbArc
 50
89.99999999998397
 51
269.999999999984
  0
LINE
  5
476
330
6C
100
AcDbEntity
  8
Visible (ANSI)
100
AcDbLine
 10
131.5159442832981
 20
421.7112327517628
 30
0.0
 11
100.5062639047209
 21
421.711232751772
 31
0.0
  0
LINE
  5
477
330
6C
100
AcDbEntity
  8
Visible (ANSI)
100
AcDbLine
 10
100.5062639047208
 20
421.461232751772
 30
0.0
 11
131.515944283298
 21
421.4612327517628
 31
0.0
  0
ARC
  5
478
330
6C
100
AcDbEntity
  8
Visible (ANSI)
100
AcDbCircle
 10
135.809567929982
 20
420.8449569203834
 30
0.0
 40
0.125
100
AcDbArc
 50
269.999999999984
 51
89.99999999998392
  0
ARC
  5
479
330
6C
100
AcDbEntity
  8
Visible (ANSI)
100
AcDbCircle
 10
96.21264025803652
 20
420.8449569203952
 30
0.0
 40
0.125
100
AcDbArc
 50
89.99999999998397
 51
269.999999999984
  0
LINE
  5
47A
330
6C
100
AcDbEntity
  8
Visible (ANSI)
100
AcDbLine
 10
135.8095679299821
 20
420.9699569203833
 30
0.0
 11
96.21264025803654
 21
420.9699569203951
 31
0.0
  0
LINE
  5
47B
330
6C
100
AcDbEntity
  8
Visible (ANSI)
100
AcDbLine
 10
96.21264025803647
 20
420.7199569203951
 30
0.0
 11
135.809567929982
 21
420.7199569203833
 31
0.0
  0
ARC
  5
47C
330
6C
100
AcDbEntity
  8
Visible (ANSI)
100
AcDbCircle
 10
140.103191576666
 20
420.1036810890038
 30
0.0
 40
0.125
100
AcDbArc
 50
269.999999999984
 51
89.99999999998392
  0
ARC
  5
47D
330
6C
100
AcDbEntity
  8
Visible (ANSI)
100
AcDbCircle
 10
91.91901661135212
 20
420.1036810890182
 30
0.0
 40
0.125
100
AcDbArc
 50
89.99999999998397
 51
269.999999999984
  0
LINE
  5
47E
330
6C
100
AcDbEntity
  8
Visible (ANSI)
100
AcDbLine
 10
140.103191576666
 20
420.2286810890039
 30
0.0
 11
91.91901661135215
 21
420.2286810890182
 31
0.0
  0
LINE
  5
47F
330
6C
100
AcDbEntity
  8
Visible (ANSI)
100
AcDbLine
 10
91.91901661135208
 20
419.9786810890181
 30
0.0
 11
140.1031915766659
 21
419.9786810890039
 31
0.0
  0
ARC
  5
480
330
6C
100
AcDbEntity
  8
Visible (ANSI)
100
AcDbCircle
 10
144.3968152233499
 20
419.3624052576244
 30
0.0
 40
0.125
100
AcDbArc
 50
269.999999999984
 51
89.99999999998392
  0
ARC
  5
481
330
6C
100
AcDbEntity
  8
Visible (ANSI)
100
AcDbCircle
 10
87.62539296466769
 20
419.3624052576412
 30
0.0
 40
0.125
100
AcDbArc
 50
89.99999999998397
 51
269.999999999984
  0
LINE
  5
482
330
6C
100
AcDbEntity
  8
Visible (ANSI)
100
AcDbLine
 10
144.39681522335
 20
419.4874052576244
 30
0.0
 11
87.62539296466774
 21
419.4874052576412
 31
0.0
  0
LINE
  5
483
330
6C
100
AcDbEntity
  8
Visible (ANSI)
100
AcDbLine
 10
87.62539296466767
 20
419.2374052576412
 30
0.0
 11
144.3968152233499
 21
419.2374052576244
 31
0.0
  0
MTEXT
  5
484
330
6C
100
AcDbEntity
  8
Symbol (ANSI)
100
AcDbMText
 10
78.83331708234874
 20
213.3055247465247
 30
0.0
 40
12.49999981226883
 41
0.0
 71
     7
 72
     1
  1
Right Hand End
  7
Label Text (ANSI)
 73
     1
 44
1.0
  0
ARC
  5
485
330
6C
100
AcDbEntity
  8
Visible (ANSI)
100
AcDbCircle
 10
697.5823136808203
 20
281.765264546965
 30
0.0
 40
0.2500000000000008
100
AcDbArc
 50
94.78019184719714
 51
265.2198081528029
  0
LINE
  5
486
330
6C
100
AcDbEntity
  8
Visible (ANSI)
100
AcDbLine
 10
700.5406470141537
 20
281.26700368267
 30
0.0
 11
697.561480347487
 21
281.5161341148171
 31
0.0
  0
LINE
  5
487
330
6C
100
AcDbEntity
  8
Visible (ANSI)
100
AcDbLine
 10
697.5614803474869
 20
282.014394979113
 30
0.0
 11
700.5406470141535
 21
282.2635254112618
 31
0.0
  0
ARC
  5
488
330
6C
100
AcDbEntity
  8
Visible (ANSI)
100
AcDbCircle
 10
700.5823136808203
 20
281.7652645469659
 30
0.0
 40
0.5000000000000017
100
AcDbArc
 50
265.2198081528029
 51
94.78019184721345
  0
LINE
  5
489
330
6C
100
AcDbEntity
  8
Visible (ANSI)
100
AcDbLine
 10
615.8323136808274
 20
257.7652645469409
 30
0.0
 11
615.2073136808273
 21
257.7652645469406
 31
0.0
  0
LINE
  5
48A
330
6C
100
AcDbEntity
  8
Visible (ANSI)
100
AcDbLine
 10
615.8323136808129
 20
306.2652645469408
 30
0.0
 11
615.2073136808129
 21
306.2652645469406
 31
0.0
  0
LINE
  5
48B
330
6C
100
AcDbEntity
  8
Visible (ANSI)
100
AcDbLine
 10
615.2073136808129
 20
306.2652645469406
 30
0.0
 11
615.2073136808273
 21
257.7652645469406
 31
0.0
  0
LINE
  5
48C
330
6C
100
AcDbEntity
  8
Visible (ANSI)
100
AcDbLine
 10
615.8323136808109
 20
314.8902645469408
 30
0.0
 11
716.3323136808103
 21
314.8902645469706
 31
0.0
  0
LINE
  5
48D
330
6C
100
AcDbEntity
  8
Visible (ANSI)
100
AcDbLine
 10
615.8323136808332
 20
239.5152645469408
 30
0.0
 11
615.8323136808109
 21
314.8902645469408
 31
0.0
  0
LINE
  5
48E
330
6C
100
AcDbEntity
  8
Visible (ANSI)
100
AcDbLine
 10
716.3323136808103
 20
314.8902645469706
 30
0.0
 11
716.3323136808327
 21
239.5152645469706
 31
0.0
  0
LINE
  5
48F
330
6C
100
AcDbEntity
  8
Visible (ANSI)
100
AcDbLine
 10
616.5823136808278
 20
258.015264546941
 30
0.0
 11
715.5823136808272
 21
258.0152645469704
 31
0.0
  0
LINE
  5
490
330
6C
100
AcDbEntity
  8
Visible (ANSI)
100
AcDbLine
 10
715.5823136808272
 20
258.0152645469704
 30
0.0
 11
715.5823136808327
 21
239.5152645469705
 31
0.0
  0
LINE
  5
491
330
6C
100
AcDbEntity
  8
Visible (ANSI)
100
AcDbLine
 10
616.5823136808333
 20
239.5152645469411
 30
0.0
 11
616.5823136808278
 21
258.015264546941
 31
0.0
  0
LINE
  5
492
330
6C
100
AcDbEntity
  8
Visible (ANSI)
100
AcDbLine
 10
662.832313680827
 20
259.5152645469548
 30
0.0
 11
626.9573136808272
 21
259.5152645469442
 31
0.0
  0
LINE
  5
493
330
6C
100
AcDbEntity
  8
Visible (ANSI)
100
AcDbLine
 10
626.9573136808272
 20
259.5152645469442
 30
0.0
 11
626.957313680814
 21
304.1402645469441
 31
0.0
  0
LINE
  5
494
330
6C
100
AcDbEntity
  8
Visible (ANSI)
100
AcDbLine
 10
626.957313680814
 20
304.1402645469441
 30
0.0
 11
662.8323136808137
 21
304.1402645469547
 31
0.0
  0
LINE
  5
495
330
6C
100
AcDbEntity
  8
Visible (ANSI)
100
AcDbLine
 10
662.8323136808137
 20
304.1402645469547
 30
0.0
 11
662.832313680827
 21
259.5152645469548
 31
0.0
  0
LINE
  5
496
330
6C
100
AcDbEntity
  8
Visible (ANSI)
100
AcDbLine
 10
715.5823136808131
 20
305.6402645469704
 30
0.0
 11
616.5823136808135
 21
305.640264546941
 31
0.0
  0
LINE
  5
497
330
6C
100
AcDbEntity
  8
Visible (ANSI)
100
AcDbLine
 10
616.5823136808135
 20
305.640264546941
 30
0.0
 11
616.5823136808111
 21
314.140264546941
 31
0.0
  0
LINE
  5
498
330
6C
100
AcDbEntity
  8
Visible (ANSI)
100
AcDbLine
 10
616.5823136808111
 20
314.140264546941
 30
0.0
 11
715.5823136808106
 21
314.1402645469704
 31
0.0
  0
LINE
  5
499
330
6C
100
AcDbEntity
  8
Visible (ANSI)
100
AcDbLine
 10
715.5823136808106
 20
314.1402645469704
 30
0.0
 11
715.5823136808131
 21
305.6402645469704
 31
0.0
  0
LINE
  5
49A
330
6C
100
AcDbEntity
  8
Visible (ANSI)
100
AcDbLine
 10
676.832313680827
 20
259.5152645469589
 30
0.0
 11
664.332313680827
 21
259.5152645469552
 31
0.0
  0
LINE
  5
49B
330
6C
100
AcDbEntity
  8
Visible (ANSI)
100
AcDbLine
 10
664.332313680827
 20
259.5152645469552
 30
0.0
 11
664.3323136808137
 21
304.1402645469552
 31
0.0
  0
LINE
  5
49C
330
6C
100
AcDbEntity
  8
Visible (ANSI)
100
AcDbLine
 10
664.3323136808137
 20
304.1402645469552
 30
0.0
 11
676.8323136808137
 21
304.1402645469589
 31
0.0
  0
LINE
  5
49D
330
6C
100
AcDbEntity
  8
Visible (ANSI)
100
AcDbLine
 10
676.8323136808137
 20
304.1402645469589
 30
0.0
 11
676.832313680827
 21
259.5152645469589
 31
0.0
  0
LINE
  5
49E
330
6C
100
AcDbEntity
  8
Visible (ANSI)
100
AcDbLine
 10
616.5823136808141
 20
304.140264546941
 30
0.0
 11
625.4573136808139
 21
304.1402645469436
 31
0.0
  0
LINE
  5
49F
330
6C
100
AcDbEntity
  8
Visible (ANSI)
100
AcDbLine
 10
625.4573136808139
 20
304.1402645469436
 30
0.0
 11
625.4573136808272
 21
259.5152645469437
 31
0.0
  0
LINE
  5
4A0
330
6C
100
AcDbEntity
  8
Visible (ANSI)
100
AcDbLine
 10
625.4573136808272
 20
259.5152645469437
 30
0.0
 11
616.5823136808272
 21
259.515264546941
 31
0.0
  0
LINE
  5
4A1
330
6C
100
AcDbEntity
  8
Visible (ANSI)
100
AcDbLine
 10
616.5823136808272
 20
259.515264546941
 30
0.0
 11
616.5823136808141
 21
304.140264546941
 31
0.0
  0
LINE
  5
4A2
330
6C
100
AcDbEntity
  8
Visible (ANSI)
100
AcDbLine
 10
702.8323136808137
 20
304.0152645469666
 30
0.0
 11
715.5823136808136
 21
304.0152645469704
 31
0.0
  0
LINE
  5
4A3
330
6C
100
AcDbEntity
  8
Visible (ANSI)
100
AcDbLine
 10
715.5823136808136
 20
304.0152645469704
 30
0.0
 11
715.5823136808268
 21
259.5152645469704
 31
0.0
  0
LINE
  5
4A4
330
6C
100
AcDbEntity
  8
Visible (ANSI)
100
AcDbLine
 10
715.5823136808268
 20
259.5152645469704
 30
0.0
 11
702.8323136808268
 21
259.5152645469667
 31
0.0
  0
LINE
  5
4A5
330
6C
100
AcDbEntity
  8
Visible (ANSI)
100
AcDbLine
 10
702.8323136808268
 20
259.5152645469667
 30
0.0
 11
702.8323136808137
 21
304.0152645469666
 31
0.0
  0
LINE
  5
4A6
330
6C
100
AcDbEntity
  8
Visible (ANSI)
100
AcDbLine
 10
702.0823136808271
 20
258.7652645469664
 30
0.0
 11
677.5823136808271
 21
258.7652645469591
 31
0.0
  0
LINE
  5
4A7
330
6C
100
AcDbEntity
  8
Visible (ANSI)
100
AcDbLine
 10
677.5823136808271
 20
258.7652645469591
 30
0.0
 11
677.5823136808136
 21
304.7652645469591
 31
0.0
  0
LINE
  5
4A8
330
6C
100
AcDbEntity
  8
Visible (ANSI)
100
AcDbLine
 10
677.5823136808136
 20
304.7652645469591
 30
0.0
 11
702.0823136808133
 21
304.7652645469664
 31
0.0
  0
LINE
  5
4A9
330
6C
100
AcDbEntity
  8
Visible (ANSI)
100
AcDbLine
 10
702.0823136808133
 20
304.7652645469664
 30
0.0
 11
702.0823136808271
 21
258.7652645469664
 31
0.0
  0
LINE
  5
4AA
330
6C
100
AcDbEntity
  8
Visible (ANSI)
100
AcDbLine
 10
716.9573136808329
 20
239.5152645469708
 30
0.0
 11
615.2073136808335
 21
239.5152645469406
 31
0.0
  0
LINE
  5
4AB
330
6C
100
AcDbEntity
  8
Visible (ANSI)
100
AcDbLine
 10
615.2073136808337
 20
238.7652645469406
 30
0.0
 11
615.2073136808335
 21
239.5152645469406
 31
0.0
  0
LINE
  5
4AC
330
6C
100
AcDbEntity
  8
Visible (ANSI)
100
AcDbLine
 10
615.2073136808337
 20
238.7652645469406
 30
0.0
 11
716.9573136808331
 21
238.7652645469708
 31
0.0
  0
LINE
  5
4AD
330
6C
100
AcDbEntity
  8
Visible (ANSI)
100
AcDbLine
 10
716.9573136808331
 20
238.7652645469708
 30
0.0
 11
716.9573136808329
 21
239.5152645469708
 31
0.0
  0
LINE
  5
4AE
330
6C
100
AcDbEntity
  8
Visible (ANSI)
100
AcDbLine
 10
616.5823136807808
 20
416.8902645469409
 30
0.0
 11
660.7073136807807
 21
416.8902645469541
 31
0.0
  0
LINE
  5
4AF
330
6C
100
AcDbEntity
  8
Visible (ANSI)
100
AcDbLine
 10
616.5823136807829
 20
409.6402645469409
 30
0.0
 11
616.5823136807808
 21
416.8902645469409
 31
0.0
  0
LINE
  5
4B0
330
6C
100
AcDbEntity
  8
Visible (ANSI)
100
AcDbLine
 10
660.7073136807829
 20
409.6402645469541
 30
0.0
 11
616.5823136807829
 21
409.6402645469409
 31
0.0
  0
LINE
  5
4B1
330
6C
100
AcDbEntity
  8
Visible (ANSI)
100
AcDbLine
 10
660.7073136807807
 20
416.8902645469541
 30
0.0
 11
660.7073136807829
 21
409.6402645469541
 31
0.0
  0
LINE
  5
4B2
330
6C
100
AcDbEntity
  8
Visible (ANSI)
100
AcDbLine
 10
660.7073136808107
 20
315.6402645469541
 30
0.0
 11
656.9573136808108
 21
315.640264546953
 31
0.0
  0
LINE
  5
4B3
330
6C
100
AcDbEntity
  8
Visible (ANSI)
100
AcDbLine
 10
656.9573136808108
 20
315.640264546953
 30
0.0
 11
656.9573136807831
 21
408.890264546953
 31
0.0
  0
LINE
  5
4B4
330
6C
100
AcDbEntity
  8
Visible (ANSI)
100
AcDbLine
 10
656.9573136807831
 20
408.890264546953
 30
0.0
 11
660.7073136807831
 21
408.8902645469541
 31
0.0
  0
LINE
  5
4B5
330
6C
100
AcDbEntity
  8
Visible (ANSI)
100
AcDbLine
 10
660.7073136807831
 20
408.8902645469541
 30
0.0
 11
660.7073136808107
 21
315.6402645469541
 31
0.0
  0
LINE
  5
4B6
330
6C
100
AcDbEntity
  8
Visible (ANSI)
100
AcDbLine
 10
656.2073136808107
 20
315.6402645469528
 30
0.0
 11
616.5823136808107
 21
315.640264546941
 31
0.0
  0
LINE
  5
4B7
330
6C
100
AcDbEntity
  8
Visible (ANSI)
100
AcDbLine
 10
616.5823136808107
 20
315.640264546941
 30
0.0
 11
616.5823136808095
 21
319.890264546941
 31
0.0
  0
LINE
  5
4B8
330
6C
100
AcDbEntity
  8
Visible (ANSI)
100
AcDbLine
 10
616.5823136808095
 20
319.890264546941
 30
0.0
 11
656.2073136808095
 21
319.8902645469527
 31
0.0
  0
LINE
  5
4B9
330
6C
100
AcDbEntity
  8
Visible (ANSI)
100
AcDbLine
 10
656.2073136808095
 20
319.8902645469527
 30
0.0
 11
656.2073136808107
 21
315.6402645469528
 31
0.0
  0
LINE
  5
4BA
330
6C
100
AcDbEntity
  8
Visible (ANSI)
100
AcDbLine
 10
661.4573136808111
 20
314.8902645469543
 30
0.0
 11
661.4573136807806
 21
417.6402645469542
 31
0.0
  0
LINE
  5
4BB
330
6C
100
AcDbEntity
  8
Visible (ANSI)
100
AcDbLine
 10
661.4573136807806
 20
417.6402645469542
 30
0.0
 11
615.8323136807805
 21
417.6402645469407
 31
0.0
  0
LINE
  5
4BC
330
6C
100
AcDbEntity
  8
Visible (ANSI)
100
AcDbLine
 10
615.8323136808109
 20
314.8902645469408
 30
0.0
 11
615.8323136807805
 21
417.6402645469407
 31
0.0
  0
LINE
  5
4BD
330
6C
100
AcDbEntity
  8
Visible (ANSI)
100
AcDbLine
 10
615.8323136808109
 20
314.8902645469408
 30
0.0
 11
661.4573136808111
 21
314.8902645469543
 31
0.0
  0
LINE
  5
4BE
330
6C
100
AcDbEntity
  8
Visible (ANSI)
100
AcDbLine
 10
716.8323136808086
 20
322.6402645469707
 30
0.0
 11
662.2073136808087
 21
322.6402645469545
 31
0.0
  0
LINE
  5
4BF
330
6C
100
AcDbEntity
  8
Visible (ANSI)
100
AcDbLine
 10
716.8323136807988
 20
355.7652645469707
 30
0.0
 11
716.8323136808086
 21
322.6402645469707
 31
0.0
  0
LINE
  5
4C0
330
6C
100
AcDbEntity
  8
Visible (ANSI)
100
AcDbLine
 10
662.2073136807987
 20
355.7652645469544
 30
0.0
 11
716.8323136807988
 21
355.7652645469707
 31
0.0
  0
LINE
  5
4C1
330
6C
100
AcDbEntity
  8
Visible (ANSI)
100
AcDbLine
 10
662.2073136808087
 20
322.6402645469545
 30
0.0
 11
662.2073136807987
 21
355.7652645469544
 31
0.0
  0
LINE
  5
4C2
330
6C
100
AcDbEntity
  8
Visible (ANSI)
100
AcDbLine
 10
716.8323136807984
 20
357.2652645469707
 30
0.0
 11
662.2073136807983
 21
357.2652645469545
 31
0.0
  0
LINE
  5
4C3
330
6C
100
AcDbEntity
  8
Visible (ANSI)
100
AcDbLine
 10
716.8323136807856
 20
399.8902645469707
 30
0.0
 11
716.8323136807984
 21
357.2652645469707
 31
0.0
  0
LINE
  5
4C4
330
6C
100
AcDbEntity
  8
Visible (ANSI)
100
AcDbLine
 10
662.2073136807857
 20
399.8902645469545
 30
0.0
 11
716.8323136807856
 21
399.8902645469707
 31
0.0
  0
LINE
  5
4C5
330
6C
100
AcDbEntity
  8
Visible (ANSI)
100
AcDbLine
 10
662.2073136807983
 20
357.2652645469545
 30
0.0
 11
662.2073136807857
 21
399.8902645469545
 31
0.0
  0
LINE
  5
4C6
330
6C
100
AcDbEntity
  8
Visible (ANSI)
100
AcDbLine
 10
662.2073136808106
 20
315.6402645469545
 30
0.0
 11
662.207313680809
 21
321.1402645469545
 31
0.0
  0
LINE
  5
4C7
330
6C
100
AcDbEntity
  8
Visible (ANSI)
100
AcDbLine
 10
716.8323136808107
 20
315.6402645469707
 30
0.0
 11
662.2073136808106
 21
315.6402645469545
 31
0.0
  0
LINE
  5
4C8
330
6C
100
AcDbEntity
  8
Visible (ANSI)
100
AcDbLine
 10
716.8323136808091
 20
321.1402645469707
 30
0.0
 11
716.8323136808107
 21
315.6402645469707
 31
0.0
  0
LINE
  5
4C9
330
6C
100
AcDbEntity
  8
Visible (ANSI)
100
AcDbLine
 10
662.207313680809
 20
321.1402645469545
 30
0.0
 11
716.8323136808091
 21
321.1402645469707
 31
0.0
  0
ELLIPSE
  5
4CA
330
6C
100
AcDbEntity
  8
Visible (ANSI)
100
AcDbEllipse
 10
687.5375806337351
 20
423.577764546962
 30
0.0
 11
-0.0296488066056019
 21
-0.1214328961479852
 31
0.0
210
0.0
220
0.0
230
1.0
 40
0.6967984516402903
 41
5.413065670360766
 42
6.283185307179214
  0
ELLIPSE
  5
4CB
330
6C
100
AcDbEntity
  8
Visible (ANSI)
100
AcDbEllipse
 10
687.5375806337351
 20
423.5777645469619
 30
0.0
 11
0.029648806605554
 21
0.1214328961479288
 31
0.0
210
0.0
220
0.0
230
1.0
 40
0.6967984516401894
 41
0.0000000000005596
 42
1.883802957521188
  0
SPLINE
  5
4CC
330
6C
100
AcDbEntity
  8
Visible (ANSI)
100
AcDbSpline
210
0.0
220
0.0
230
1.0
 70
     8
 71
     3
 72
    10
 73
     6
 74
     0
 42
0.0000000001
 43
0.0000000001
 40
-0.1597689612254135
 40
-0.1597689612254135
 40
-0.1597689612254135
 40
-0.1597689612254135
 40
-0.1218855853352829
 40
-0.1218855853352829
 40
-0.0455840251922315
 40
-0.0455840251922315
 40
-0.0455840251922315
 40
-0.0455840251922315
 10
687.4591599360232
 20
423.5152645469619
 30
0.0
 10
687.4572643172168
 20
423.5198490361267
 30
0.0
 10
687.4555644590399
 20
423.5246162152101
 30
0.0
 10
687.4511100970593
 20
423.539353173156
 30
0.0
 10
687.4490436416761
 20
423.5497205822907
 30
0.0
 10
687.4479481339398
 20
423.5600283131926
 30
0.0
  0
ELLIPSE
  5
4CD
330
6C
100
AcDbEntity
  8
Visible (ANSI)
100
AcDbEllipse
 10
707.2481821593173
 20
418.7652645469678
 30
0.0
 11
-0.0149856337785364
 21
-0.1245565523693809
 31
0.0
210
0.0
220
0.0
230
1.0
 40
0.7019893815729777
 41
3.225850360498763
 42
4.796646687293339
  0
ELLIPSE
  5
4CE
330
6C
100
AcDbEntity
  8
Visible (ANSI)
100
AcDbEllipse
 10
707.2481821593173
 20
418.7652645469678
 30
0.0
 11
-0.0149856337785076
 21
-0.1245565523693862
 31
0.0
210
0.0
220
0.0
230
1.0
 40
0.7019893815729778
 41
4.796646687293175
 42
6.367443014088226
  0
ELLIPSE
  5
4CF
330
6C
100
AcDbEntity
  8
Visible (ANSI)
100
AcDbEllipse
 10
708.3088423310975
 20
418.7652645469681
 30
0.0
 11
-0.0000000000000371
 21
0.125
 31
0.0
210
0.0
220
0.0
230
1.0
 40
0.7071067811863382
 41
0.0
 42
6.283185307179586
  0
ELLIPSE
  5
4D0
330
6C
100
AcDbEntity
  8
Visible (ANSI)
100
AcDbEllipse
 10
685.769813680769
 20
423.5777645469614
 30
0.0
 11
0.1250000000000002
 21
-0.0000000000000077
 31
0.0
210
0.0
220
0.0
230
1.0
 40
0.9854218205504682
 41
0.0000000000001255
 42
3.141592653589918
  0
CIRCLE
  5
4D1
330
6C
100
AcDbEntity
  8
Visible (ANSI)
100
AcDbCircle
 10
685.769813680779
 20
418.7652645469614
 30
0.0
 40
0.125
  0
ELLIPSE
  5
4D2
330
6C
100
AcDbEntity
  8
Visible (ANSI)
100
AcDbEllipse
 10
684.0020467278023
 20
423.5777645469609
 30
0.0
 11
0.0296488066056963
 21
-0.121432896147956
 31
0.0
210
0.0
220
0.0
230
1.0
 40
0.6967984516407012
 41
0.0
 42
0.8701196368185168
  0
ELLIPSE
  5
4D3
330
6C
100
AcDbEntity
  8
Visible (ANSI)
100
AcDbEllipse
 10
684.0020467278024
 20
423.5777645469609
 30
0.0
 11
-0.0296488066056436
 21
0.1214328961478842
 31
0.0
210
0.0
220
0.0
230
1.0
 40
0.6967984516406338
 41
4.399382349658182
 42
6.283185307179408
  0
SPLINE
  5
4D4
330
6C
100
AcDbEntity
  8
Visible (ANSI)
100
AcDbSpline
210
0.0
220
0.0
230
1.0
 70
     8
 71
     3
 72
    10
 73
     6
 74
     0
 42
0.0000000001
 43
0.0000000001
 40
1.00785842695473
 40
1.00785842695473
 40
1.00785842695473
 40
1.00785842695473
 40
1.084159987097786
 40
1.084159987097786
 40
1.12204336298791
 40
1.12204336298791
 40
1.12204336298791
 40
1.12204336298791
 10
684.0916792275979
 20
423.5600283131916
 30
0.0
 10
684.0905837198615
 20
423.5497205822897
 30
0.0
 10
684.0885172644783
 20
423.539353173155
 30
0.0
 10
684.0840629024976
 20
423.5246162152091
 30
0.0
 10
684.0823630443208
 20
423.5198490361256
 30
0.0
 10
684.0804674255145
 20
423.5152645469609
 30
0.0
  0
ELLIPSE
  5
4D5
330
6C
100
AcDbEntity
  8
Visible (ANSI)
100
AcDbEllipse
 10
664.2914452022345
 20
418.7652645469551
 30
0.0
 11
0.0149856337786188
 21
-0.124556552369371
 31
0.0
210
0.0
220
0.0
230
1.0
 40
0.7019893815733935
 41
1.486538619886288
 42
3.057334946681515
  0
ELLIPSE
  5
4D6
330
6C
100
AcDbEntity
  8
Visible (ANSI)
100
AcDbEllipse
 10
664.2914452022345
 20
418.7652645469551
 30
0.0
 11
0.01498563377859
 21
-0.1245565523693763
 31
0.0
210
0.0
220
0.0
230
1.0
 40
0.7019893815733936
 41
6.198927600270104
 42
7.769723927064919
  0
ELLIPSE
  5
4D7
330
6C
100
AcDbEntity
  8
Visible (ANSI)
100
AcDbEllipse
 10
663.2307850304551
 20
418.7652645469547
 30
0.0
 11
-0.0000000000000371
 21
0.125
 31
0.0
210
0.0
220
0.0
230
1.0
 40
0.707106781186757
 41
0.0
 42
6.283185307179586
  0
LINE
  5
4D8
330
6C
100
AcDbEntity
  8
Visible (ANSI)
100
AcDbLine
 10
683.2485475708516
 20
423.7009422745295
 30
0.0
 11
683.2728757659706
 21
423.5600283131914
 31
0.0
  0
SPLINE
  5
4D9
330
6C
100
AcDbEntity
  8
Visible (ANSI)
100
AcDbSpline
210
0.0
220
0.0
230
1.0
 70
     8
 71
     3
 72
    10
 73
     6
 74
     0
 42
0.0000000001
 43
0.0000000001
 40
1.007858426954722
 40
1.007858426954722
 40
1.007858426954722
 40
1.007858426954722
 40
1.084159987097779
 40
1.084159987097779
 40
1.087277202195676
 40
1.087277202195676
 40
1.087277202195676
 40
1.087277202195676
 10
683.2728757659706
 20
423.5600283131914
 30
0.0
 10
683.2728026378406
 20
423.5497205822894
 30
0.0
 10
683.2726650735722
 20
423.5393531731547
 30
0.0
 10
683.272471533083
 20
423.5291032120697
 30
0.0
 10
683.2724638580539
 20
423.5287017243882
 30
0.0
 10
683.2724561066753
 20
423.5283010973716
 30
0.0
  0
LINE
  5
4DA
330
6C
100
AcDbEntity
  8
Visible (ANSI)
100
AcDbLine
 10
655.3841025514286
 20
418.8902645469524
 30
0.0
 11
655.3948136807697
 21
418.7652645469524
 31
0.0
  0
LINE
  5
4DB
330
6C
100
AcDbEntity
  8
Visible (ANSI)
100
AcDbLine
 10
655.4055248101108
 20
418.6402645469524
 30
0.0
 11
655.3948136807697
 21
418.7652645469524
 31
0.0
  0
LINE
  5
4DC
330
6C
100
AcDbEntity
  8
Visible (ANSI)
100
AcDbLine
 10
653.8948136807697
 20
418.890264546952
 30
0.0
 11
653.8948136807697
 21
418.6402645469519
 31
0.0
  0
LINE
  5
4DD
330
6C
100
AcDbEntity
  8
Visible (ANSI)
100
AcDbLine
 10
707.2258911294523
 20
418.6420351911574
 30
0.0
 11
704.7874283469748
 21
419.2374052576381
 31
0.0
  0
LINE
  5
4DE
330
6C
100
AcDbEntity
  8
Visible (ANSI)
100
AcDbLine
 10
703.7635009949966
 20
419.4874052576377
 30
0.0
 11
701.7513779505403
 21
419.9786810890153
 31
0.0
  0
LINE
  5
4DF
330
6C
100
AcDbEntity
  8
Visible (ANSI)
100
AcDbLine
 10
700.7274505985622
 20
420.228681089015
 30
0.0
 11
698.715327554106
 21
420.7199569203926
 31
0.0
  0
LINE
  5
4E0
330
6C
100
AcDbEntity
  8
Visible (ANSI)
100
AcDbLine
 10
697.6914002021277
 20
420.9699569203924
 30
0.0
 11
695.6792771576716
 21
421.46123275177
 31
0.0
  0
LINE
  5
4E1
330
6C
100
AcDbEntity
  8
Visible (ANSI)
100
AcDbLine
 10
694.6553498056933
 20
421.7112327517696
 30
0.0
 11
692.643226761237
 21
422.2025085831473
 31
0.0
  0
LINE
  5
4E2
330
6C
100
AcDbEntity
  8
Visible (ANSI)
100
AcDbLine
 10
691.6192994092588
 20
422.4525085831469
 30
0.0
 11
689.6071763648027
 21
422.9437844145246
 31
0.0
  0
LINE
  5
4E3
330
6C
100
AcDbEntity
  8
Visible (ANSI)
100
AcDbLine
 10
688.5832490128244
 20
423.1937844145243
 30
0.0
 11
687.5079318271295
 21
423.4563316508141
 31
0.0
  0
LINE
  5
4E4
330
6C
100
AcDbEntity
  8
Visible (ANSI)
100
AcDbLine
 10
707.2632211451169
 20
418.8902645469678
 30
0.0
 11
705.8414336705521
 21
419.2374052576384
 31
0.0
  0
LINE
  5
4E5
330
6C
100
AcDbEntity
  8
Visible (ANSI)
100
AcDbLine
 10
704.8175063185738
 20
419.487405257638
 30
0.0
 11
702.8053832741177
 21
419.9786810890157
 31
0.0
  0
LINE
  5
4E6
330
6C
100
AcDbEntity
  8
Visible (ANSI)
100
AcDbLine
 10
701.7814559221394
 20
420.2286810890154
 30
0.0
 11
699.7693328776833
 21
420.7199569203929
 31
0.0
  0
LINE
  5
4E7
330
6C
100
AcDbEntity
  8
Visible (ANSI)
100
AcDbLine
 10
698.7454055257049
 20
420.9699569203927
 30
0.0
 11
696.7332824812489
 21
421.4612327517703
 31
0.0
  0
LINE
  5
4E8
330
6C
100
AcDbEntity
  8
Visible (ANSI)
100
AcDbLine
 10
695.7093551292705
 20
421.71123275177
 30
0.0
 11
693.6972320848143
 21
422.2025085831476
 31
0.0
  0
LINE
  5
4E9
330
6C
100
AcDbEntity
  8
Visible (ANSI)
100
AcDbLine
 10
692.6733047328362
 20
422.4525085831472
 30
0.0
 11
690.66118168838
 21
422.9437844145249
 31
0.0
  0
LINE
  5
4EA
330
6C
100
AcDbEntity
  8
Visible (ANSI)
100
AcDbLine
 10
689.6372543364017
 20
423.1937844145246
 30
0.0
 11
687.5672294403407
 21
423.6991974431099
 31
0.0
  0
LINE
  5
4EB
330
6C
100
AcDbEntity
  8
Visible (ANSI)
100
AcDbLine
 10
708.3088423310974
 20
418.890264546968
 30
0.0
 11
707.2557560715085
 21
418.8902645469678
 31
0.0
  0
LINE
  5
4EC
330
6C
100
AcDbEntity
  8
Visible (ANSI)
100
AcDbLine
 10
685.6448136807787
 20
418.7652645469614
 30
0.0
 11
685.6448136807776
 21
419.2374052576324
 31
0.0
  0
LINE
  5
4ED
330
6C
100
AcDbEntity
  8
Visible (ANSI)
100
AcDbLine
 10
685.6448136807771
 20
419.4874052576324
 30
0.0
 11
685.6448136807762
 21
419.9786810890105
 31
0.0
  0
LINE
  5
4EE
330
6C
100
AcDbEntity
  8
Visible (ANSI)
100
AcDbLine
 10
685.6448136807757
 20
420.2286810890106
 30
0.0
 11
685.6448136807747
 21
420.7199569203888
 31
0.0
  0
LINE
  5
4EF
330
6C
100
AcDbEntity
  8
Visible (ANSI)
100
AcDbLine
 10
685.6448136807743
 20
420.9699569203888
 30
0.0
 11
685.6448136807732
 21
421.461232751767
 31
0.0
  0
LINE
  5
4F0
330
6C
100
AcDbEntity
  8
Visible (ANSI)
100
AcDbLine
 10
685.6448136807727
 20
421.711232751767
 30
0.0
 11
685.6448136807716
 21
422.2025085831452
 31
0.0
  0
LINE
  5
4F1
330
6C
100
AcDbEntity
  8
Visible (ANSI)
100
AcDbLine
 10
685.6448136807713
 20
422.4525085831452
 30
0.0
 11
685.6448136807703
 21
422.9437844145234
 31
0.0
  0
LINE
  5
4F2
330
6C
100
AcDbEntity
  8
Visible (ANSI)
100
AcDbLine
 10
685.6448136807697
 20
423.1937844145234
 30
0.0
 11
685.6448136807689
 21
423.5777645469614
 31
0.0
  0
LINE
  5
4F3
330
6C
100
AcDbEntity
  8
Visible (ANSI)
100
AcDbLine
 10
685.8948136807786
 20
418.7652645469615
 30
0.0
 11
685.8948136807778
 21
419.2374052576324
 31
0.0
  0
LINE
  5
4F4
330
6C
100
AcDbEntity
  8
Visible (ANSI)
100
AcDbLine
 10
685.8948136807772
 20
419.4874052576325
 30
0.0
 11
685.8948136807762
 21
419.9786810890106
 31
0.0
  0
LINE
  5
4F5
330
6C
100
AcDbEntity
  8
Visible (ANSI)
100
AcDbLine
 10
685.8948136807756
 20
420.2286810890106
 30
0.0
 11
685.8948136807747
 21
420.7199569203889
 31
0.0
  0
LINE
  5
4F6
330
6C
100
AcDbEntity
  8
Visible (ANSI)
100
AcDbLine
 10
685.8948136807742
 20
420.9699569203888
 30
0.0
 11
685.8948136807732
 21
421.4612327517671
 31
0.0
  0
LINE
  5
4F7
330
6C
100
AcDbEntity
  8
Visible (ANSI)
100
AcDbLine
 10
685.8948136807726
 20
421.711232751767
 30
0.0
 11
685.8948136807717
 21
422.2025085831452
 31
0.0
  0
LINE
  5
4F8
330
6C
100
AcDbEntity
  8
Visible (ANSI)
100
AcDbLine
 10
685.8948136807712
 20
422.4525085831453
 30
0.0
 11
685.8948136807701
 21
422.9437844145235
 31
0.0
  0
LINE
  5
4F9
330
6C
100
AcDbEntity
  8
Visible (ANSI)
100
AcDbLine
 10
685.8948136807698
 20
423.1937844145234
 30
0.0
 11
685.8948136807689
 21
423.5777645469615
 31
0.0
  0
LINE
  5
4FA
330
6C
100
AcDbEntity
  8
Visible (ANSI)
100
AcDbLine
 10
664.2764062164351
 20
418.890264546955
 30
0.0
 11
665.6981936909987
 21
419.2374052576264
 31
0.0
  0
LINE
  5
4FB
330
6C
100
AcDbEntity
  8
Visible (ANSI)
100
AcDbLine
 10
666.7221210429763
 20
419.4874052576268
 30
0.0
 11
668.7342440874309
 21
419.9786810890055
 31
0.0
  0
LINE
  5
4FC
330
6C
100
AcDbEntity
  8
Visible (ANSI)
100
AcDbLine
 10
669.7581714394085
 20
420.2286810890059
 30
0.0
 11
671.7702944838631
 21
420.7199569203847
 31
0.0
  0
LINE
  5
4FD
330
6C
100
AcDbEntity
  8
Visible (ANSI)
100
AcDbLine
 10
672.7942218358406
 20
420.9699569203849
 30
0.0
 11
674.8063448802953
 21
421.4612327517638
 31
0.0
  0
LINE
  5
4FE
330
6C
100
AcDbEntity
  8
Visible (ANSI)
100
AcDbLine
 10
675.8302722322729
 20
421.711232751764
 30
0.0
 11
677.8423952767275
 21
422.2025085831429
 31
0.0
  0
LINE
  5
4FF
330
6C
100
AcDbEntity
  8
Visible (ANSI)
100
AcDbLine
 10
678.866322628705
 20
422.4525085831432
 30
0.0
 11
680.8784456731597
 21
422.943784414522
 31
0.0
  0
LINE
  5
500
330
6C
100
AcDbEntity
  8
Visible (ANSI)
100
AcDbLine
 10
681.9023730251373
 20
423.1937844145223
 30
0.0
 11
683.9723979211968
 21
423.6991974431088
 31
0.0
  0
LINE
  5
501
330
6C
100
AcDbEntity
  8
Visible (ANSI)
100
AcDbLine
 10
664.3137362320999
 20
418.6420351911447
 30
0.0
 11
666.7521990145754
 21
419.2374052576268
 31
0.0
  0
LINE
  5
502
330
6C
100
AcDbEntity
  8
Visible (ANSI)
100
AcDbLine
 10
667.776126366553
 20
419.487405257627
 30
0.0
 11
669.7882494110078
 21
419.9786810890059
 31
0.0
  0
LINE
  5
503
330
6C
100
AcDbEntity
  8
Visible (ANSI)
100
AcDbLine
 10
670.8121767629852
 20
420.2286810890061
 30
0.0
 11
672.8242998074398
 21
420.719956920385
 31
0.0
  0
LINE
  5
504
330
6C
100
AcDbEntity
  8
Visible (ANSI)
100
AcDbLine
 10
673.8482271594173
 20
420.9699569203853
 30
0.0
 11
675.860350203872
 21
421.4612327517641
 31
0.0
  0
LINE
  5
505
330
6C
100
AcDbEntity
  8
Visible (ANSI)
100
AcDbLine
 10
676.8842775558496
 20
421.7112327517644
 30
0.0
 11
678.8964006003042
 21
422.2025085831432
 31
0.0
  0
LINE
  5
506
330
6C
100
AcDbEntity
  8
Visible (ANSI)
100
AcDbLine
 10
679.9203279522816
 20
422.4525085831435
 30
0.0
 11
681.9324509967364
 21
422.9437844145222
 31
0.0
  0
LINE
  5
507
330
6C
100
AcDbEntity
  8
Visible (ANSI)
100
AcDbLine
 10
682.956378348714
 20
423.1937844145226
 30
0.0
 11
684.031695534408
 21
423.456331650813
 31
0.0
  0
LINE
  5
508
330
6C
100
AcDbEntity
  8
Visible (ANSI)
100
AcDbLine
 10
663.2307850304551
 20
418.8902645469547
 30
0.0
 11
664.2838712900433
 21
418.890264546955
 31
0.0
  0
LINE
  5
509
330
6C
100
AcDbEntity
  8
Visible (ANSI)
100
AcDbLine
 10
655.3841025514286
 20
418.8902645469523
 30
0.0
 11
657.3948136807693
 21
419.237405257624
 31
0.0
  0
LINE
  5
50A
330
6C
100
AcDbEntity
  8
Visible (ANSI)
100
AcDbLine
 10
658.8428656288211
 20
419.4874052576244
 30
0.0
 11
661.6884373274533
 21
419.9786810890034
 31
0.0
  0
LINE
  5
50B
330
6C
100
AcDbEntity
  8
Visible (ANSI)
100
AcDbLine
 10
663.1364892755052
 20
420.2286810890039
 30
0.0
 11
665.9820609741373
 21
420.7199569203829
 31
0.0
  0
LINE
  5
50C
330
6C
100
AcDbEntity
  8
Visible (ANSI)
100
AcDbLine
 10
667.4301129221892
 20
420.9699569203833
 30
0.0
 11
670.2756846208212
 21
421.4612327517625
 31
0.0
  0
LINE
  5
50D
330
6C
100
AcDbEntity
  8
Visible (ANSI)
100
AcDbLine
 10
671.7237365688731
 20
421.7112327517629
 30
0.0
 11
674.5693082675053
 21
422.2025085831419
 31
0.0
  0
LINE
  5
50E
330
6C
100
AcDbEntity
  8
Visible (ANSI)
100
AcDbLine
 10
676.0173602155571
 20
422.4525085831423
 30
0.0
 11
678.8629319141892
 21
422.9437844145214
 31
0.0
  0
LINE
  5
50F
330
6C
100
AcDbEntity
  8
Visible (ANSI)
100
AcDbLine
 10
680.310983862241
 20
423.1937844145218
 30
0.0
 11
683.2485475708516
 21
423.7009422745295
 31
0.0
  0
LINE
  5
510
330
6C
100
AcDbEntity
  8
Visible (ANSI)
100
AcDbLine
 10
655.4055248101108
 20
418.6402645469524
 30
0.0
 11
658.8642878875035
 21
419.2374052576244
 31
0.0
  0
LINE
  5
511
330
6C
100
AcDbEntity
  8
Visible (ANSI)
100
AcDbLine
 10
660.3123398355554
 20
419.4874052576249
 30
0.0
 11
663.1579115341876
 21
419.9786810890039
 31
0.0
  0
LINE
  5
512
330
6C
100
AcDbEntity
  8
Visible (ANSI)
100
AcDbLine
 10
664.6059634822393
 20
420.2286810890043
 30
0.0
 11
667.4515351808715
 21
420.7199569203833
 31
0.0
  0
LINE
  5
513
330
6C
100
AcDbEntity
  8
Visible (ANSI)
100
AcDbLine
 10
668.8995871289233
 20
420.9699569203839
 30
0.0
 11
671.7451588275555
 21
421.4612327517628
 31
0.0
  0
LINE
  5
514
330
6C
100
AcDbEntity
  8
Visible (ANSI)
100
AcDbLine
 10
673.1932107756072
 20
421.7112327517632
 30
0.0
 11
676.0387824742394
 21
422.2025085831423
 31
0.0
  0
LINE
  5
515
330
6C
100
AcDbEntity
  8
Visible (ANSI)
100
AcDbLine
 10
677.4868344222912
 20
422.4525085831428
 30
0.0
 11
680.3324061209233
 21
422.9437844145218
 31
0.0
  0
LINE
  5
516
330
6C
100
AcDbEntity
  8
Visible (ANSI)
100
AcDbLine
 10
681.7804580689753
 20
423.1937844145223
 30
0.0
 11
682.1967017657558
 21
423.265647115536
 31
0.0
  0
LINE
  5
517
330
6C
100
AcDbEntity
  8
Visible (ANSI)
100
AcDbLine
 10
653.8948136807697
 20
418.890264546952
 30
0.0
 11
655.3841025514286
 21
418.8902645469523
 31
0.0
  0
LINE
  5
518
330
6C
100
AcDbEntity
  8
Visible (ANSI)
100
AcDbLine
 10
687.4591599360232
 20
423.5152645469619
 30
0.0
 11
685.894813680769
 21
423.5152645469615
 31
0.0
  0
LINE
  5
519
330
6C
100
AcDbEntity
  8
Visible (ANSI)
100
AcDbLine
 10
685.644813680769
 20
423.5152645469614
 30
0.0
 11
684.0804674255145
 21
423.5152645469609
 31
0.0
  0
LINE
  5
51A
330
6C
100
AcDbEntity
  8
Visible (ANSI)
100
AcDbLine
 10
663.2307850304552
 20
418.6402645469547
 30
0.0
 11
653.8948136807697
 21
418.6402645469519
 31
0.0
  0
LINE
  5
51B
330
6C
100
AcDbEntity
  8
Visible (ANSI)
100
AcDbLine
 10
685.769813680779
 20
418.6402645469614
 30
0.0
 11
663.2307850304551
 21
418.6402645469547
 31
0.0
  0
LINE
  5
51C
330
6C
100
AcDbEntity
  8
Visible (ANSI)
100
AcDbLine
 10
717.6448136807697
 20
418.6402645469708
 30
0.0
 11
708.3088423310975
 21
418.6402645469682
 31
0.0
  0
LINE
  5
51D
330
6C
100
AcDbEntity
  8
Visible (ANSI)
100
AcDbLine
 10
708.3088423310975
 20
418.6402645469682
 30
0.0
 11
685.7698136807791
 21
418.6402645469614
 31
0.0
  0
LINE
  5
51E
330
6C
100
AcDbEntity
  8
Visible (ANSI)
100
AcDbLine
 10
717.6448136807697
 20
418.5152645469709
 30
0.0
 11
653.8948136807697
 21
418.515264546952
 31
0.0
  0
LINE
  5
51F
330
6C
100
AcDbEntity
  8
Visible (ANSI)
100
AcDbLine
 10
683.7310259040083
 20
423.6402645469608
 30
0.0
 11
683.2698136807681
 21
423.6402645469606
 31
0.0
  0
LINE
  5
520
330
6C
100
AcDbEntity
  8
Visible (ANSI)
100
AcDbLine
 10
685.6620996233848
 20
423.6402645469614
 30
0.0
 11
684.0705821323682
 21
423.6402645469609
 31
0.0
  0
LINE
  5
521
330
6C
100
AcDbEntity
  8
Visible (ANSI)
100
AcDbLine
 10
687.4690452291693
 20
423.6402645469619
 30
0.0
 11
685.877527738153
 21
423.6402645469614
 31
0.0
  0
LINE
  5
522
330
6C
100
AcDbEntity
  8
Visible (ANSI)
100
AcDbLine
 10
688.2698136807682
 20
423.6402645469622
 30
0.0
 11
687.8086014575289
 21
423.640264546962
 31
0.0
  0
LINE
  5
523
330
6C
100
AcDbEntity
  8
Visible (ANSI)
100
AcDbLine
 10
655.26981368077
 20
417.6402645469524
 30
0.0
 11
655.2698136807697
 21
418.5152645469523
 31
0.0
  0
LINE
  5
524
330
6C
100
AcDbEntity
  8
Visible (ANSI)
100
AcDbLine
 10
716.2698136807728
 20
408.1402645469704
 30
0.0
 11
716.2698136807696
 21
418.5152645469704
 31
0.0
  0
LINE
  5
525
330
6C
100
AcDbEntity
  8
Visible (ANSI)
100
AcDbLine
 10
653.8948136807697
 20
418.515264546952
 30
0.0
 11
653.8948136807697
 21
418.6402645469519
 31
0.0
  0
LINE
  5
526
330
6C
100
AcDbEntity
  8
Visible (ANSI)
100
AcDbLine
 10
717.6448136807697
 20
418.5152645469709
 30
0.0
 11
717.6448136807697
 21
418.6402645469709
 31
0.0
  0
LINE
  5
527
330
6C
100
AcDbEntity
  8
Visible (ANSI)
100
AcDbLine
 10
683.2698136807683
 20
423.5777645469607
 30
0.0
 11
683.2698136807683
 21
423.6402645469608
 31
0.0
  0
LINE
  5
528
330
6C
100
AcDbEntity
  8
Visible (ANSI)
100
AcDbLine
 10
688.2698136807682
 20
423.5777645469622
 30
0.0
 11
688.2698136807682
 21
423.6402645469622
 31
0.0
  0
LINE
  5
529
330
6C
100
AcDbEntity
  8
Visible (ANSI)
100
AcDbLine
 10
688.2667515955659
 20
423.5600283131928
 30
0.0
 11
688.2910797906848
 21
423.7009422745309
 31
0.0
  0
SPLINE
  5
52A
330
6C
100
AcDbEntity
  8
Visible (ANSI)
100
AcDbSpline
210
0.0
220
0.0
230
1.0
 70
     8
 71
     3
 72
    10
 73
     6
 74
     0
 42
0.0000000001
 43
0.0000000001
 40
-0.1250028004332303
 40
-0.1250028004332303
 40
-0.1250028004332303
 40
-0.1250028004332303
 40
-0.1218855853352823
 40
-0.1218855853352823
 40
-0.0455840251922829
 40
-0.0455840251922829
 40
-0.0455840251922829
 40
-0.0455840251922829
 10
688.2671712548612
 20
423.5283010973732
 30
0.0
 10
688.2671635034827
 20
423.5287017243896
 30
0.0
 10
688.2671558284535
 20
423.5291032120711
 30
0.0
 10
688.2669622879643
 20
423.5393531731562
 30
0.0
 10
688.2668247236958
 20
423.5497205822909
 30
0.0
 10
688.266751595566
 20
423.5600283131928
 30
0.0
  0
LINE
  5
52B
330
6C
100
AcDbEntity
  8
Visible (ANSI)
100
AcDbLine
 10
716.1448136807696
 20
418.7652645469705
 30
0.0
 11
716.1555248101105
 21
418.8902645469704
 31
0.0
  0
LINE
  5
52C
330
6C
100
AcDbEntity
  8
Visible (ANSI)
100
AcDbLine
 10
716.1448136807696
 20
418.7652645469705
 30
0.0
 11
716.1341025514285
 21
418.6402645469704
 31
0.0
  0
LINE
  5
52D
330
6C
100
AcDbEntity
  8
Visible (ANSI)
100
AcDbLine
 10
717.6448136807696
 20
418.6402645469708
 30
0.0
 11
717.6448136807696
 21
418.8902645469709
 31
0.0
  0
LINE
  5
52E
330
6C
100
AcDbEntity
  8
Visible (ANSI)
100
AcDbLine
 10
716.1341025514285
 20
418.6402645469704
 30
0.0
 11
712.6753394740354
 21
419.2374052576403
 31
0.0
  0
LINE
  5
52F
330
6C
100
AcDbEntity
  8
Visible (ANSI)
100
AcDbLine
 10
711.2272875259836
 20
419.48740525764
 30
0.0
 11
708.3817158273511
 21
419.9786810890173
 31
0.0
  0
LINE
  5
530
330
6C
100
AcDbEntity
  8
Visible (ANSI)
100
AcDbLine
 10
706.933663879299
 20
420.228681089017
 30
0.0
 11
704.0880921806667
 21
420.7199569203942
 31
0.0
  0
LINE
  5
531
330
6C
100
AcDbEntity
  8
Visible (ANSI)
100
AcDbLine
 10
702.6400402326146
 20
420.9699569203938
 30
0.0
 11
699.7944685339822
 21
421.4612327517712
 31
0.0
  0
LINE
  5
532
330
6C
100
AcDbEntity
  8
Visible (ANSI)
100
AcDbLine
 10
698.3464165859303
 20
421.7112327517708
 30
0.0
 11
695.5008448872979
 21
422.202508583148
 31
0.0
  0
LINE
  5
533
330
6C
100
AcDbEntity
  8
Visible (ANSI)
100
AcDbLine
 10
694.0527929392458
 20
422.4525085831477
 30
0.0
 11
691.2072212406134
 21
422.943784414525
 31
0.0
  0
LINE
  5
534
330
6C
100
AcDbEntity
  8
Visible (ANSI)
100
AcDbLine
 10
689.7591692925614
 20
423.1937844145246
 30
0.0
 11
689.3429255957808
 21
423.2656471155382
 31
0.0
  0
LINE
  5
535
330
6C
100
AcDbEntity
  8
Visible (ANSI)
100
AcDbLine
 10
716.1555248101108
 20
418.8902645469704
 30
0.0
 11
714.1448136807696
 21
419.2374052576408
 31
0.0
  0
LINE
  5
536
330
6C
100
AcDbEntity
  8
Visible (ANSI)
100
AcDbLine
 10
712.6967617327177
 20
419.4874052576404
 30
0.0
 11
709.8511900340852
 21
419.9786810890178
 31
0.0
  0
LINE
  5
537
330
6C
100
AcDbEntity
  8
Visible (ANSI)
100
AcDbLine
 10
708.4031380860333
 20
420.2286810890173
 30
0.0
 11
705.5575663874009
 21
420.7199569203947
 31
0.0
  0
LINE
  5
538
330
6C
100
AcDbEntity
  8
Visible (ANSI)
100
AcDbLine
 10
704.1095144393487
 20
420.9699569203943
 30
0.0
 11
701.2639427407163
 21
421.4612327517716
 31
0.0
  0
LINE
  5
539
330
6C
100
AcDbEntity
  8
Visible (ANSI)
100
AcDbLine
 10
699.8158907926645
 20
421.7112327517711
 30
0.0
 11
696.970319094032
 21
422.2025085831486
 31
0.0
  0
LINE
  5
53A
330
6C
100
AcDbEntity
  8
Visible (ANSI)
100
AcDbLine
 10
695.52226714598
 20
422.4525085831481
 30
0.0
 11
692.6766954473476
 21
422.9437844145255
 31
0.0
  0
LINE
  5
53B
330
6C
100
AcDbEntity
  8
Visible (ANSI)
100
AcDbLine
 10
691.2286434992956
 20
423.193784414525
 30
0.0
 11
688.2910797906848
 21
423.7009422745309
 31
0.0
  0
LINE
  5
53C
330
6C
100
AcDbEntity
  8
Visible (ANSI)
100
AcDbLine
 10
717.6448136807696
 20
418.8902645469708
 30
0.0
 11
716.1555248101108
 21
418.8902645469704
 31
0.0
  0
LINE
  5
53D
330
6C
100
AcDbEntity
  8
Visible (ANSI)
100
AcDbLine
 10
717.5823136807832
 20
408.1402645469709
 30
0.0
 11
661.4573136807832
 21
408.1402645469543
 31
0.0
  0
LINE
  5
53E
330
6C
100
AcDbEntity
  8
Visible (ANSI)
100
AcDbLine
 10
717.5823136808109
 20
314.8902645469709
 30
0.0
 11
717.5823136807832
 21
408.1402645469709
 31
0.0
  0
LINE
  5
53F
330
6C
100
AcDbEntity
  8
Visible (ANSI)
100
AcDbLine
 10
661.4573136808108
 20
314.8902645469543
 30
0.0
 11
661.4573136807832
 21
408.1402645469543
 31
0.0
  0
LINE
  5
540
330
6C
100
AcDbEntity
  8
Visible (ANSI)
100
AcDbLine
 10
661.4573136808108
 20
314.8902645469543
 30
0.0
 11
717.5823136808109
 21
314.8902645469709
 31
0.0
  0
ARC
  5
541
330
6C
100
AcDbEntity
  8
Visible (ANSI)
100
AcDbCircle
 10
692.6874065766885
 20
423.0687844145255
 30
0.0
 40
0.125
100
AcDbArc
 50
270.0
 51
90.0
  0
ARC
  5
542
330
6C
100
AcDbEntity
  8
Visible (ANSI)
100
AcDbCircle
 10
678.8522207848481
 20
423.0687844145214
 30
0.0
 40
0.125
100
AcDbArc
 50
90.0
 51
270.0
  0
LINE
  5
543
330
6C
100
AcDbEntity
  8
Visible (ANSI)
100
AcDbLine
 10
692.6874065766885
 20
423.1937844145255
 30
0.0
 11
678.8522207848481
 21
423.1937844145214
 31
0.0
  0
LINE
  5
544
330
6C
100
AcDbEntity
  8
Visible (ANSI)
100
AcDbLine
 10
678.8522207848481
 20
422.9437844145214
 30
0.0
 11
692.6874065766886
 21
422.9437844145254
 31
0.0
  0
ARC
  5
545
330
6C
100
AcDbEntity
  8
Visible (ANSI)
100
AcDbCircle
 10
696.9810302233731
 20
422.3275085831486
 30
0.0
 40
0.125
100
AcDbArc
 50
270.0
 51
90.0
  0
ARC
  5
546
330
6C
100
AcDbEntity
  8
Visible (ANSI)
100
AcDbCircle
 10
674.5585971381641
 20
422.3275085831419
 30
0.0
 40
0.125
100
AcDbArc
 50
90.0
 51
270.0
  0
LINE
  5
547
330
6C
100
AcDbEntity
  8
Visible (ANSI)
100
AcDbLine
 10
696.9810302233731
 20
422.4525085831486
 30
0.0
 11
674.5585971381641
 21
422.4525085831419
 31
0.0
  0
LINE
  5
548
330
6C
100
AcDbEntity
  8
Visible (ANSI)
100
AcDbLine
 10
674.5585971381641
 20
422.2025085831419
 30
0.0
 11
696.9810302233731
 21
422.2025085831486
 31
0.0
  0
ARC
  5
549
330
6C
100
AcDbEntity
  8
Visible (ANSI)
100
AcDbCircle
 10
701.2746538700574
 20
421.5862327517716
 30
0.0
 40
0.125
100
AcDbArc
 50
270.0
 51
90.0
  0
ARC
  5
54A
330
6C
100
AcDbEntity
  8
Visible (ANSI)
100
AcDbCircle
 10
670.2649734914801
 20
421.5862327517625
 30
0.0
 40
0.125
100
AcDbArc
 50
90.0
 51
270.0
  0
LINE
  5
54B
330
6C
100
AcDbEntity
  8
Visible (ANSI)
100
AcDbLine
 10
701.2746538700572
 20
421.7112327517716
 30
0.0
 11
670.2649734914801
 21
421.7112327517623
 31
0.0
  0
LINE
  5
54C
330
6C
100
AcDbEntity
  8
Visible (ANSI)
100
AcDbLine
 10
670.2649734914802
 20
421.4612327517624
 30
0.0
 11
701.2746538700574
 21
421.4612327517716
 31
0.0
  0
ARC
  5
54D
330
6C
100
AcDbEntity
  8
Visible (ANSI)
100
AcDbCircle
 10
705.5682775167418
 20
420.8449569203947
 30
0.0
 40
0.125
100
AcDbArc
 50
270.0
 51
90.0
  0
ARC
  5
54E
330
6C
100
AcDbEntity
  8
Visible (ANSI)
100
AcDbCircle
 10
665.9713498447962
 20
420.844956920383
 30
0.0
 40
0.125
100
AcDbArc
 50
90.0
 51
270.0
  0
LINE
  5
54F
330
6C
100
AcDbEntity
  8
Visible (ANSI)
100
AcDbLine
 10
705.5682775167418
 20
420.9699569203946
 30
0.0
 11
665.9713498447962
 21
420.9699569203829
 31
0.0
  0
LINE
  5
550
330
6C
100
AcDbEntity
  8
Visible (ANSI)
100
AcDbLine
 10
665.9713498447962
 20
420.7199569203829
 30
0.0
 11
705.5682775167418
 21
420.7199569203947
 31
0.0
  0
ARC
  5
551
330
6C
100
AcDbEntity
  8
Visible (ANSI)
100
AcDbCircle
 10
709.8619011634261
 20
420.1036810890178
 30
0.0
 40
0.125
100
AcDbArc
 50
270.0
 51
90.0
  0
ARC
  5
552
330
6C
100
AcDbEntity
  8
Visible (ANSI)
100
AcDbCircle
 10
661.6777261981122
 20
420.1036810890035
 30
0.0
 40
0.125
100
AcDbArc
 50
90.0
 51
270.0
  0
LINE
  5
553
330
6C
100
AcDbEntity
  8
Visible (ANSI)
100
AcDbLine
 10
709.8619011634262
 20
420.2286810890177
 30
0.0
 11
661.6777261981122
 21
420.2286810890035
 31
0.0
  0
LINE
  5
554
330
6C
100
AcDbEntity
  8
Visible (ANSI)
100
AcDbLine
 10
661.6777261981122
 20
419.9786810890034
 30
0.0
 11
709.8619011634262
 21
419.9786810890177
 31
0.0
  0
ARC
  5
555
330
6C
100
AcDbEntity
  8
Visible (ANSI)
100
AcDbCircle
 10
714.1555248101107
 20
419.3624052576408
 30
0.0
 40
0.125
100
AcDbArc
 50
270.0
 51
90.0
  0
ARC
  5
556
330
6C
100
AcDbEntity
  8
Visible (ANSI)
100
AcDbCircle
 10
657.3841025514283
 20
419.3624052576239
 30
0.0
 40
0.125
100
AcDbArc
 50
90.0
 51
270.0
  0
LINE
  5
557
330
6C
100
AcDbEntity
  8
Visible (ANSI)
100
AcDbLine
 10
714.1555248101105
 20
419.4874052576408
 30
0.0
 11
657.3841025514283
 21
419.487405257624
 31
0.0
  0
LINE
  5
558
330
6C
100
AcDbEntity
  8
Visible (ANSI)
100
AcDbLine
 10
657.3841025514284
 20
419.237405257624
 30
0.0
 11
714.1555248101107
 21
419.2374052576408
 31
0.0
  0
MTEXT
  5
559
330
6C
100
AcDbEntity
  8
Symbol (ANSI)
100
AcDbMText
 10
614.334975253922
 20
215.1715070592729
 30
0.0
 40
12.49999981226883
 41
0.0
 71
     7
 72
     1
  1
Left Hand End
  7
Label Text (ANSI)
 73
     1
 44
1.0
  0
LINE
  5
55A
330
6C
100
AcDbEntity
  8
Visible (ANSI)
100
AcDbLine
 10
961.7950293355454
 20
310.890264546955
 30
0.0
 11
956.5450293355453
 21
310.890264546955
 31
0.0
  0
LINE
  5
55B
330
6C
100
AcDbEntity
  8
Visible (ANSI)
100
AcDbLine
 10
956.5450293355453
 20
318.890264546955
 30
0.0
 11
961.7950293355454
 21
318.890264546955
 31
0.0
  0
LINE
  5
55C
330
6C
100
AcDbEntity
  8
Visible (ANSI)
100
AcDbLine
 10
956.5450293355453
 20
310.890264546955
 30
0.0
 11
956.5450293355453
 21
318.890264546955
 31
0.0
  0
LINE
  5
55D
330
6C
100
AcDbEntity
  8
Visible (ANSI)
100
AcDbLine
 10
961.7950293355454
 20
310.890264546955
 30
0.0
 11
961.7950293355454
 21
318.890264546955
 31
0.0
  0
LINE
  5
55E
330
6C
100
AcDbEntity
  8
Visible (ANSI)
100
AcDbLine
 10
961.4200293355454
 20
288.015264546955
 30
0.0
 11
956.9200293355454
 21
288.015264546955
 31
0.0
  0
LINE
  5
55F
330
6C
100
AcDbEntity
  8
Visible (ANSI)
100
AcDbLine
 10
957.4200293355454
 20
282.015264546955
 30
0.0
 11
960.9200293355455
 21
282.015264546955
 31
0.0
  0
LINE
  5
560
330
6C
100
AcDbEntity
  8
Visible (ANSI)
100
AcDbLine
 10
957.4200293355454
 20
282.015264546955
 30
0.0
 11
956.9200293355454
 21
288.015264546955
 31
0.0
  0
LINE
  5
561
330
6C
100
AcDbEntity
  8
Visible (ANSI)
100
AcDbLine
 10
960.9200293355453
 20
282.015264546955
 30
0.0
 11
961.4200293355454
 21
288.015264546955
 31
0.0
  0
LINE
  5
562
330
6C
100
AcDbEntity
  8
Visible (ANSI)
100
AcDbLine
 10
956.9200293355454
 20
288.015264546955
 30
0.0
 11
956.9200293355454
 21
310.890264546955
 31
0.0
  0
LINE
  5
563
330
6C
100
AcDbEntity
  8
Visible (ANSI)
100
AcDbLine
 10
961.4200293355454
 20
288.015264546955
 30
0.0
 11
961.4200293355454
 21
310.890264546955
 31
0.0
  0
SPLINE
  5
564
330
6C
100
AcDbEntity
  8
Visible (ANSI)
100
AcDbSpline
210
0.0
220
0.0
230
1.0
 70
     8
 71
     3
 72
    10
 73
     6
 74
     0
 42
0.0000000001
 43
0.0000000001
 40
-1.596556632163478
 40
-1.596556632163478
 40
-1.596556632163478
 40
-1.596556632163478
 40
-1.117460312771309
 40
-1.117460312771309
 40
-0.7986542096911342
 40
-0.7986542096911342
 40
-0.7986542096911342
 40
-0.7986542096911342
 10
965.8848730855455
 20
250.0152645469551
 30
0.0
 10
965.8741813791804
 20
250.0315566709398
 30
0.0
 10
965.8664456569512
 20
250.0432740582864
 30
0.0
 10
965.859020960646
 20
250.0545134695668
 30
0.0
 10
965.8575301507573
 20
250.0567677316777
 30
0.0
 10
965.8575298244988
 20
250.0567675102684
 30
0.0
  0
LINE
  5
565
330
6C
100
AcDbEntity
  8
Visible (ANSI)
100
AcDbLine
 10
957.4200293355454
 20
266.9380459211936
 30
0.0
 11
957.4200293355454
 21
282.015264546955
 31
0.0
  0
LINE
  5
566
330
6C
100
AcDbEntity
  8
Visible (ANSI)
100
AcDbLine
 10
960.9200293355453
 20
266.9380459211936
 30
0.0
 11
960.9200293355453
 21
282.015264546955
 31
0.0
  0
ARC
  5
567
330
6C
100
AcDbEntity
  8
Visible (ANSI)
100
AcDbCircle
 10
965.1700293355453
 20
266.9380459211936
 30
0.0
 40
7.749999999999978
100
AcDbArc
 50
180.0
 51
224.9999999999999
  0
ARC
  5
568
330
6C
100
AcDbEntity
  8
Visible (ANSI)
100
AcDbCircle
 10
965.1700293355453
 20
266.9380459211936
 30
0.0
 40
4.249999999999995
100
AcDbArc
 50
180.0
 51
225.0
  0
LINE
  5
569
330
6C
100
AcDbEntity
  8
Visible (ANSI)
100
AcDbLine
 10
964.6127331555883
 20
256.5351869927593
 30
0.0
 11
959.6899517813497
 21
261.4579683669978
 31
0.0
  0
LINE
  5
56A
330
6C
100
AcDbEntity
  8
Visible (ANSI)
100
AcDbLine
 10
967.087606889741
 20
259.0100607269122
 30
0.0
 11
962.1648255155024
 21
263.9328421011508
 31
0.0
  0
ARC
  5
56B
330
6C
100
AcDbEntity
  8
Visible (ANSI)
100
AcDbCircle
 10
961.6075293355454
 20
253.5299831727165
 30
0.0
 40
7.749999999999976
100
AcDbArc
 50
0.0
 51
44.99999999999982
  0
ARC
  5
56C
330
6C
100
AcDbEntity
  8
Visible (ANSI)
100
AcDbCircle
 10
961.6075293355454
 20
253.5299831727165
 30
0.0
 40
4.249999999999993
100
AcDbArc
 50
0.0
 51
45.0
  0
LINE
  5
56D
330
6C
100
AcDbEntity
  8
Visible (ANSI)
100
AcDbLine
 10
965.8575293355452
 20
250.0567671690842
 30
0.0
 11
965.8575293355452
 21
253.5299831727165
 31
0.0
  0
LINE
  5
56E
330
6C
100
AcDbEntity
  8
Visible (ANSI)
100
AcDbLine
 10
969.3575293355452
 20
250.015264546955
 30
0.0
 11
969.3575293355452
 21
253.5299831727165
 31
0.0
  0
SPLINE
  5
56F
330
6C
100
AcDbEntity
  8
Visible (ANSI)
100
AcDbSpline
210
0.0
220
0.0
230
1.0
 70
     8
 71
     3
 72
    16
 73
    12
 74
     0
 42
0.0000000001
 43
0.0000000001
 40
-13.72687629665747
 40
-13.72687629665747
 40
-13.72687629665747
 40
-13.72687629665747
 40
-13.68762511994174
 40
-13.68762511994174
 40
-10.83240767290653
 40
-10.83240767290653
 40
-7.697198976956468
 40
-7.697198976956468
 40
-4.530958710601757
 40
-4.530958710601757
 40
-4.045130731370959
 40
-4.045130731370959
 40
-4.045130731370959
 40
-4.045130731370959
 10
967.6075293355463
 20
244.7652645469556
 30
0.0
 10
967.6075293355463
 20
244.7716319719429
 30
0.0
 10
967.607521733457
 20
244.7779994172322
 30
0.0
 10
967.6064005578224
 20
245.2475460867055
 30
0.0
 10
967.5648102488862
 20
245.7084413926222
 30
0.0
 10
967.3984760398907
 20
246.6608722907956
 30
0.0
 10
967.2667216130237
 20
247.1468356523492
 30
0.0
 10
966.9317311733252
 20
248.0873247201537
 30
0.0
 10
966.7439428403966
 20
248.4992947545233
 30
0.0
 10
966.5350362438017
 20
248.90807114628
 30
0.0
 10
966.5069051434944
 20
248.9620277319936
 30
0.0
 10
966.4786230855561
 20
249.0152645469366
 30
0.0
  0
LINE
  5
570
330
6C
100
AcDbEntity
  8
Visible (ANSI)
100
AcDbLine
 10
969.3575293355452
 20
249.015264546955
 30
0.0
 11
969.3575293355452
 21
244.765264546955
 31
0.0
  0
SPLINE
  5
571
330
6C
100
AcDbEntity
  8
Visible (ANSI)
100
AcDbSpline
210
0.0
220
0.0
230
1.0
 70
     8
 71
     3
 72
    10
 73
     6
 74
     0
 42
0.0000000001
 43
0.0000000001
 40
-3.48972252087766
 40
-3.48972252087766
 40
-3.48972252087766
 40
-3.48972252087766
 40
-1.420578840001824
 40
-1.420578840001824
 40
0.0
 40
0.0
 40
0.0
 40
0.0
 10
966.0226846118758
 20
249.0152645469555
 30
0.0
 10
965.9313799566985
 20
249.2545156293726
 30
0.0
 10
965.8263275938365
 20
249.4799187304623
 30
0.0
 10
965.6602017972367
 20
249.8045026383105
 30
0.0
 10
965.5950945326512
 20
249.922271359525
 30
0.0
 10
965.5419129522735
 20
250.0152645469552
 30
0.0
  0
LINE
  5
572
330
6C
100
AcDbEntity
  8
Visible (ANSI)
100
AcDbLine
 10
969.7950293355452
 20
249.015264546955
 30
0.0
 11
966.0226846118758
 21
249.0152645469555
 31
0.0
  0
LINE
  5
573
330
6C
100
AcDbEntity
  8
Visible (ANSI)
100
AcDbLine
 10
965.5419129522735
 20
250.0152645469552
 30
0.0
 11
969.7950293355452
 21
250.015264546955
 31
0.0
  0
LINE
  5
574
330
6C
100
AcDbEntity
  8
Visible (ANSI)
100
AcDbLine
 10
969.7950293355452
 20
250.015264546955
 30
0.0
 11
969.7950293355452
 21
249.015264546955
 31
0.0
  0
ARC
  5
575
330
6C
100
AcDbEntity
  8
Visible (ANSI)
100
AcDbCircle
 10
963.6075293355558
 20
244.7652645469604
 30
0.0
 40
2.249999999999997
100
AcDbArc
 50
270.0
 51
90.0
  0
LINE
  5
576
330
6C
100
AcDbEntity
  8
Visible (ANSI)
100
AcDbLine
 10
963.6075293355558
 20
247.0152645469604
 30
0.0
 11
958.6075293355589
 21
247.0152645469618
 31
0.0
  0
LINE
  5
577
330
6C
100
AcDbEntity
  8
Visible (ANSI)
100
AcDbLine
 10
958.6075293355589
 20
242.5152645469619
 30
0.0
 11
963.6075293355558
 21
242.5152645469604
 31
0.0
  0
LINE
  5
578
330
6C
100
AcDbEntity
  8
Visible (ANSI)
100
AcDbLine
 10
954.982529335559
 20
247.0152645469619
 30
0.0
 11
958.6075293355591
 21
247.0152645469619
 31
0.0
  0
LINE
  5
579
330
6C
100
AcDbEntity
  8
Visible (ANSI)
100
AcDbLine
 10
954.982529335559
 20
242.5152645469619
 30
0.0
 11
958.6075293355589
 21
242.5152645469619
 31
0.0
  0
LINE
  5
57A
330
6C
100
AcDbEntity
  8
Visible (ANSI)
100
AcDbLine
 10
886.2325293355777
 20
314.140264546971
 30
0.0
 11
953.2325293355773
 21
314.140264546971
 31
0.0
  0
LINE
  5
57B
330
6C
100
AcDbEntity
  8
Visible (ANSI)
100
AcDbLine
 10
953.2325293355773
 20
301.140264546971
 30
0.0
 11
886.2325293355777
 21
301.140264546971
 31
0.0
  0
LINE
  5
57C
330
6C
100
AcDbEntity
  8
Visible (ANSI)
100
AcDbLine
 10
886.2325293355777
 20
299.515264546971
 30
0.0
 11
953.2325293355773
 21
299.515264546971
 31
0.0
  0
LINE
  5
57D
330
6C
100
AcDbEntity
  8
Visible (ANSI)
100
AcDbLine
 10
953.2325293355773
 20
259.515264546971
 30
0.0
 11
886.2325293355777
 21
259.515264546971
 31
0.0
  0
LINE
  5
57E
330
6C
100
AcDbEntity
  8
Visible (ANSI)
100
AcDbLine
 10
886.2325293355777
 20
258.015264546971
 30
0.0
 11
953.2325293355773
 21
258.015264546971
 31
0.0
  0
LINE
  5
57F
330
6C
100
AcDbEntity
  8
Visible (ANSI)
100
AcDbLine
 10
953.2325293355773
 20
314.140264546971
 30
0.0
 11
953.2325293355773
 21
301.140264546971
 31
0.0
  0
LINE
  5
580
330
6C
100
AcDbEntity
  8
Visible (ANSI)
100
AcDbLine
 10
886.2325293355777
 20
301.140264546971
 30
0.0
 11
886.2325293355777
 21
314.140264546971
 31
0.0
  0
LINE
  5
581
330
6C
100
AcDbEntity
  8
Visible (ANSI)
100
AcDbLine
 10
953.2325293355773
 20
299.515264546971
 30
0.0
 11
953.2325293355773
 21
259.515264546971
 31
0.0
  0
LINE
  5
582
330
6C
100
AcDbEntity
  8
Visible (ANSI)
100
AcDbLine
 10
886.2325293355777
 20
259.515264546971
 30
0.0
 11
886.2325293355777
 21
299.515264546971
 31
0.0
  0
LINE
  5
583
330
6C
100
AcDbEntity
  8
Visible (ANSI)
100
AcDbLine
 10
953.2325293355773
 20
258.015264546971
 30
0.0
 11
953.2325293355773
 21
239.515264546971
 31
0.0
  0
LINE
  5
584
330
6C
100
AcDbEntity
  8
Visible (ANSI)
100
AcDbLine
 10
886.2325293355777
 20
239.5152645469711
 30
0.0
 11
886.2325293355777
 21
258.015264546971
 31
0.0
  0
LINE
  5
585
330
6C
100
AcDbEntity
  8
Visible (ANSI)
100
AcDbLine
 10
954.9825293355773
 20
239.515264546971
 30
0.0
 11
954.9825293355773
 21
314.890264546971
 31
0.0
  0
LINE
  5
586
330
6C
100
AcDbEntity
  8
Visible (ANSI)
100
AcDbLine
 10
884.4825293355777
 20
314.890264546971
 30
0.0
 11
884.4825293355777
 21
239.5152645469711
 31
0.0
  0
LINE
  5
587
330
6C
100
AcDbEntity
  8
Visible (ANSI)
100
AcDbLine
 10
955.6075293355776
 20
239.5152645469712
 30
0.0
 11
883.8575293355779
 21
239.5152645469713
 31
0.0
  0
LINE
  5
588
330
6C
100
AcDbEntity
  8
Visible (ANSI)
100
AcDbLine
 10
955.6075293355776
 20
238.7652645469712
 30
0.0
 11
955.6075293355776
 21
239.5152645469712
 31
0.0
  0
LINE
  5
589
330
6C
100
AcDbEntity
  8
Visible (ANSI)
100
AcDbLine
 10
883.8575293355779
 20
238.7652645469712
 30
0.0
 11
883.8575293355779
 21
239.5152645469713
 31
0.0
  0
LINE
  5
58A
330
6C
100
AcDbEntity
  8
Visible (ANSI)
100
AcDbLine
 10
883.8575293355779
 20
238.7652645469712
 30
0.0
 11
955.6075293355776
 21
238.7652645469712
 31
0.0
  0
ARC
  5
58B
330
6C
100
AcDbEntity
  8
Visible (ANSI)
100
AcDbCircle
 10
963.6075293355476
 20
244.7652645469562
 30
0.0
 40
2.749999999999991
100
AcDbArc
 50
234.9031987724156
 51
125.0968012275839
  0
ARC
  5
58C
330
6C
100
AcDbEntity
  8
Visible (ANSI)
100
AcDbCircle
 10
963.6075293355453
 20
244.765264546955
 30
0.0
 40
5.749999999999992
100
AcDbArc
 50
203.0356841059413
 51
0.0
  0
ARC
  5
58D
330
6C
100
AcDbEntity
  8
Visible (ANSI)
100
AcDbCircle
 10
963.6075293355453
 20
244.765264546955
 30
0.0
 40
5.749999999999991
100
AcDbArc
 50
66.96431589405865
 51
156.9643158940587
  0
LINE
  5
58E
330
6C
100
AcDbEntity
  8
Visible (ANSI)
100
AcDbLine
 10
962.4825293355455
 20
405.6402645469549
 30
0.0
 11
955.8575293355456
 21
405.6402645469549
 31
0.0
  0
LINE
  5
58F
330
6C
100
AcDbEntity
  8
Visible (ANSI)
100
AcDbLine
 10
956.9200293355455
 20
399.6402645469549
 30
0.0
 11
961.4200293355455
 21
399.6402645469549
 31
0.0
  0
LINE
  5
590
330
6C
100
AcDbEntity
  8
Visible (ANSI)
100
AcDbLine
 10
956.9200293355455
 20
399.6402645469549
 30
0.0
 11
955.8575293355456
 21
405.6402645469549
 31
0.0
  0
LINE
  5
591
330
6C
100
AcDbEntity
  8
Visible (ANSI)
100
AcDbLine
 10
961.4200293355455
 20
399.6402645469549
 30
0.0
 11
962.4825293355455
 21
405.6402645469549
 31
0.0
  0
LINE
  5
592
330
6C
100
AcDbEntity
  8
Visible (ANSI)
100
AcDbLine
 10
951.482529335545
 20
417.6402645469547
 30
0.0
 11
951.482529335545
 21
408.1402645469546
 31
0.0
  0
LINE
  5
593
330
6C
100
AcDbEntity
  8
Visible (ANSI)
100
AcDbLine
 10
887.9825293355402
 20
417.6402645469523
 30
0.0
 11
889.23252933554
 21
417.6402645469523
 31
0.0
  0
LINE
  5
594
330
6C
100
AcDbEntity
  8
Visible (ANSI)
100
AcDbLine
 10
950.2325293355401
 20
417.6402645469523
 30
0.0
 11
951.4825293355402
 21
417.6402645469523
 31
0.0
  0
LINE
  5
595
330
6C
100
AcDbEntity
  8
Visible (ANSI)
100
AcDbLine
 10
887.9825293355448
 20
408.1402645469546
 30
0.0
 11
887.9825293355448
 21
417.6402645469547
 31
0.0
  0
LINE
  5
596
330
6C
100
AcDbEntity
  8
Visible (ANSI)
100
AcDbLine
 10
887.9825293355448
 20
417.6402645469547
 30
0.0
 11
884.4825293355448
 21
417.6402645469547
 31
0.0
  0
LINE
  5
597
330
6C
100
AcDbEntity
  8
Visible (ANSI)
100
AcDbLine
 10
884.4825293355448
 20
408.1402645469546
 30
0.0
 11
884.4825293355448
 21
417.6402645469547
 31
0.0
  0
LINE
  5
598
330
6C
100
AcDbEntity
  8
Visible (ANSI)
100
AcDbLine
 10
954.9825293355448
 20
408.1402645469546
 30
0.0
 11
954.9825293355448
 21
409.6402645469546
 31
0.0
  0
LINE
  5
599
330
6C
100
AcDbEntity
  8
Visible (ANSI)
100
AcDbLine
 10
954.9825293355448
 20
417.6402645469547
 30
0.0
 11
951.482529335545
 21
417.6402645469547
 31
0.0
  0
LINE
  5
59A
330
6C
100
AcDbEntity
  8
Visible (ANSI)
100
AcDbLine
 10
965.357529335548
 20
411.6402645469562
 30
0.0
 11
963.3575293355479
 21
409.6402645469561
 31
0.0
  0
LINE
  5
59B
330
6C
100
AcDbEntity
  8
Visible (ANSI)
100
AcDbLine
 10
954.982529335548
 20
409.6402645469562
 30
0.0
 11
963.3575293355479
 21
409.6402645469561
 31
0.0
  0
LINE
  5
59C
330
6C
100
AcDbEntity
  8
Visible (ANSI)
100
AcDbLine
 10
965.357529335548
 20
417.6402645469562
 30
0.0
 11
965.357529335548
 21
411.6402645469562
 31
0.0
  0
LINE
  5
59D
330
6C
100
AcDbEntity
  8
Visible (ANSI)
100
AcDbLine
 10
954.982529335548
 20
417.6402645469562
 30
0.0
 11
965.357529335548
 21
417.6402645469562
 31
0.0
  0
LINE
  5
59E
330
6C
100
AcDbEntity
  8
Visible (ANSI)
100
AcDbLine
 10
954.982529335548
 20
417.6402645469562
 30
0.0
 11
954.982529335548
 21
409.6402645469562
 31
0.0
  0
LINE
  5
59F
330
6C
100
AcDbEntity
  8
Visible (ANSI)
100
AcDbLine
 10
968.9825293355301
 20
329.2652645469472
 30
0.0
 11
968.9825293355301
 21
324.7652645469472
 31
0.0
  0
LINE
  5
5A0
330
6C
100
AcDbEntity
  8
Visible (ANSI)
100
AcDbLine
 10
968.9825293355301
 20
406.5152645469471
 30
0.0
 11
968.9825293355301
 21
402.0152645469472
 31
0.0
  0
LINE
  5
5A1
330
6C
100
AcDbEntity
  8
Visible (ANSI)
100
AcDbLine
 10
954.9825293355299
 20
329.2652645469473
 30
0.0
 11
956.9200293355301
 21
329.2652645469473
 31
0.0
  0
LINE
  5
5A2
330
6C
100
AcDbEntity
  8
Visible (ANSI)
100
AcDbLine
 10
961.4200293355301
 20
329.2652645469472
 30
0.0
 11
968.9825293355298
 21
329.2652645469473
 31
0.0
  0
LINE
  5
5A3
330
6C
100
AcDbEntity
  8
Visible (ANSI)
100
AcDbLine
 10
954.9825293355299
 20
324.7652645469472
 30
0.0
 11
956.9200293355301
 21
324.7652645469472
 31
0.0
  0
LINE
  5
5A4
330
6C
100
AcDbEntity
  8
Visible (ANSI)
100
AcDbLine
 10
961.4200293355301
 20
324.7652645469472
 30
0.0
 11
968.9825293355301
 21
324.7652645469472
 31
0.0
  0
LINE
  5
5A5
330
6C
100
AcDbEntity
  8
Visible (ANSI)
100
AcDbLine
 10
954.9825293355301
 20
406.5152645469471
 30
0.0
 11
955.85752933553
 21
406.5152645469471
 31
0.0
  0
LINE
  5
5A6
330
6C
100
AcDbEntity
  8
Visible (ANSI)
100
AcDbLine
 10
962.48252933553
 20
406.5152645469471
 30
0.0
 11
968.9825293355301
 21
406.5152645469471
 31
0.0
  0
LINE
  5
5A7
330
6C
100
AcDbEntity
  8
Visible (ANSI)
100
AcDbLine
 10
954.9825293355301
 20
402.0152645469472
 30
0.0
 11
956.4994564188634
 21
402.0152645469472
 31
0.0
  0
LINE
  5
5A8
330
6C
100
AcDbEntity
  8
Visible (ANSI)
100
AcDbLine
 10
961.8406022521966
 20
402.0152645469472
 30
0.0
 11
968.9825293355301
 21
402.0152645469472
 31
0.0
  0
LINE
  5
5A9
330
6C
100
AcDbEntity
  8
Visible (ANSI)
100
AcDbLine
 10
956.9200293355454
 20
318.890264546955
 30
0.0
 11
956.9200293355455
 21
399.6402645469549
 31
0.0
  0
LINE
  5
5AA
330
6C
100
AcDbEntity
  8
Visible (ANSI)
100
AcDbLine
 10
961.4200293355454
 20
318.890264546955
 30
0.0
 11
961.4200293355455
 21
399.6402645469549
 31
0.0
  0
LINE
  5
5AB
330
6C
100
AcDbEntity
  8
Visible (ANSI)
100
AcDbLine
 10
962.4825293355455
 20
409.640264546955
 30
0.0
 11
962.4825293355455
 21
405.6402645469549
 31
0.0
  0
LINE
  5
5AC
330
6C
100
AcDbEntity
  8
Visible (ANSI)
100
AcDbLine
 10
955.8575293355456
 20
409.640264546955
 30
0.0
 11
955.8575293355456
 21
405.6402645469549
 31
0.0
  0
LINE
  5
5AD
330
6C
100
AcDbEntity
  8
Visible (ANSI)
100
AcDbLine
 10
953.2325293355782
 20
355.7652645469712
 30
0.0
 11
953.2325293355782
 21
322.6402645469713
 31
0.0
  0
LINE
  5
5AE
330
6C
100
AcDbEntity
  8
Visible (ANSI)
100
AcDbLine
 10
886.2325293355782
 20
355.7652645469712
 30
0.0
 11
953.2325293355782
 21
355.7652645469712
 31
0.0
  0
LINE
  5
5AF
330
6C
100
AcDbEntity
  8
Visible (ANSI)
100
AcDbLine
 10
886.232529335578
 20
322.6402645469713
 30
0.0
 11
886.2325293355782
 21
355.7652645469712
 31
0.0
  0
LINE
  5
5B0
330
6C
100
AcDbEntity
  8
Visible (ANSI)
100
AcDbLine
 10
953.2325293355782
 20
322.6402645469713
 30
0.0
 11
886.232529335578
 21
322.6402645469713
 31
0.0
  0
LINE
  5
5B1
330
6C
100
AcDbEntity
  8
Visible (ANSI)
100
AcDbLine
 10
886.2325293355782
 20
357.2652645469713
 30
0.0
 11
886.2325293355782
 21
399.8902645469714
 31
0.0
  0
LINE
  5
5B2
330
6C
100
AcDbEntity
  8
Visible (ANSI)
100
AcDbLine
 10
953.2325293355782
 20
357.2652645469713
 30
0.0
 11
886.2325293355782
 21
357.2652645469713
 31
0.0
  0
LINE
  5
5B3
330
6C
100
AcDbEntity
  8
Visible (ANSI)
100
AcDbLine
 10
953.2325293355782
 20
399.8902645469714
 30
0.0
 11
953.2325293355782
 21
357.2652645469713
 31
0.0
  0
LINE
  5
5B4
330
6C
100
AcDbEntity
  8
Visible (ANSI)
100
AcDbLine
 10
886.2325293355782
 20
399.8902645469714
 30
0.0
 11
953.2325293355782
 21
399.8902645469714
 31
0.0
  0
LINE
  5
5B5
330
6C
100
AcDbEntity
  8
Visible (ANSI)
100
AcDbLine
 10
886.2325293355782
 20
401.3902645469712
 30
0.0
 11
886.2325293355782
 21
407.3902645469713
 31
0.0
  0
LINE
  5
5B6
330
6C
100
AcDbEntity
  8
Visible (ANSI)
100
AcDbLine
 10
953.2325293355782
 20
401.3902645469711
 30
0.0
 11
886.2325293355782
 21
401.3902645469712
 31
0.0
  0
LINE
  5
5B7
330
6C
100
AcDbEntity
  8
Visible (ANSI)
100
AcDbLine
 10
953.2325293355782
 20
407.3902645469712
 30
0.0
 11
953.2325293355782
 21
401.3902645469711
 31
0.0
  0
LINE
  5
5B8
330
6C
100
AcDbEntity
  8
Visible (ANSI)
100
AcDbLine
 10
886.2325293355782
 20
407.3902645469713
 30
0.0
 11
953.2325293355782
 21
407.3902645469712
 31
0.0
  0
LINE
  5
5B9
330
6C
100
AcDbEntity
  8
Visible (ANSI)
100
AcDbLine
 10
953.2325293355782
 20
321.1402645469713
 30
0.0
 11
953.2325293355782
 21
315.6402645469714
 31
0.0
  0
LINE
  5
5BA
330
6C
100
AcDbEntity
  8
Visible (ANSI)
100
AcDbLine
 10
886.2325293355782
 20
321.1402645469713
 30
0.0
 11
953.2325293355782
 21
321.1402645469713
 31
0.0
  0
LINE
  5
5BB
330
6C
100
AcDbEntity
  8
Visible (ANSI)
100
AcDbLine
 10
886.2325293355782
 20
315.6402645469714
 30
0.0
 11
886.2325293355782
 21
321.1402645469713
 31
0.0
  0
LINE
  5
5BC
330
6C
100
AcDbEntity
  8
Visible (ANSI)
100
AcDbLine
 10
953.2325293355782
 20
315.6402645469714
 30
0.0
 11
886.2325293355782
 21
315.6402645469714
 31
0.0
  0
ELLIPSE
  5
5BD
330
6C
100
AcDbEntity
  8
Visible (ANSI)
100
AcDbEllipse
 10
917.9647623825941
 20
423.5777645469624
 30
0.0
 11
0.0296488066056599
 21
-0.1214328961479648
 31
0.0
210
0.0
220
0.0
230
1.0
 40
0.6967984516409583
 41
0.0
 42
0.8701196368185071
  0
ELLIPSE
  5
5BE
330
6C
100
AcDbEntity
  8
Visible (ANSI)
100
AcDbEllipse
 10
917.9647623825941
 20
423.5777645469624
 30
0.0
 11
-0.0296488066055866
 21
0.1214328961479078
 31
0.0
210
0.0
220
0.0
230
1.0
 40
0.6967984516408792
 41
4.399382349659256
 42
6.283185307180108
  0
SPLINE
  5
5BF
330
6C
100
AcDbEntity
  8
Visible (ANSI)
100
AcDbSpline
210
0.0
220
0.0
230
1.0
 70
     8
 71
     3
 72
    10
 73
     6
 74
     0
 42
0.0000000001
 43
0.0000000001
 40
1.00785842695473
 40
1.00785842695473
 40
1.00785842695473
 40
1.00785842695473
 40
1.084159987097783
 40
1.084159987097783
 40
1.122043362987893
 40
1.122043362987893
 40
1.122043362987893
 40
1.122043362987893
 10
918.0543948823896
 20
423.5600283131931
 30
0.0
 10
918.0532993746531
 20
423.5497205822912
 30
0.0
 10
918.0512329192699
 20
423.5393531731564
 30
0.0
 10
918.0467785572894
 20
423.5246162152106
 30
0.0
 10
918.0450786991125
 20
423.5198490361272
 30
0.0
 10
918.043183080306
 20
423.5152645469624
 30
0.0
  0
ELLIPSE
  5
5C0
330
6C
100
AcDbEntity
  8
Visible (ANSI)
100
AcDbEllipse
 10
898.2541608570306
 20
418.7652645469682
 30
0.0
 11
0.0149856337785502
 21
-0.1245565523693793
 31
0.0
210
0.0
220
0.0
230
1.0
 40
0.701989381573627
 41
1.48653861988609
 42
3.057334946680743
  0
ELLIPSE
  5
5C1
330
6C
100
AcDbEntity
  8
Visible (ANSI)
100
AcDbEllipse
 10
898.2541608570306
 20
418.7652645469682
 30
0.0
 11
0.0149856337785214
 21
-0.1245565523693846
 31
0.0
210
0.0
220
0.0
230
0.9999999999999998
 40
0.7019893815736266
 41
6.198927600270867
 42
7.769723927066401
  0
ELLIPSE
  5
5C2
330
6C
100
AcDbEntity
  8
Visible (ANSI)
100
AcDbEllipse
 10
897.1935006852516
 20
418.7652645469685
 30
0.0
 11
0.0
 21
0.125
 31
0.0
210
0.0
220
0.0
230
1.0
 40
0.7071067811869666
 41
0.0
 42
6.283185307179586
  0
LINE
  5
5C3
330
6C
100
AcDbEntity
  8
Visible (ANSI)
100
AcDbLine
 10
917.2112632256428
 20
423.7009422745306
 30
0.0
 11
917.2355914207617
 21
423.5600283131924
 31
0.0
  0
SPLINE
  5
5C4
330
6C
100
AcDbEntity
  8
Visible (ANSI)
100
AcDbSpline
210
0.0
220
0.0
230
1.0
 70
     8
 71
     3
 72
    10
 73
     6
 74
     0
 42
0.0000000001
 43
0.0000000001
 40
1.007858426954725
 40
1.007858426954725
 40
1.007858426954725
 40
1.007858426954725
 40
1.08415998709778
 40
1.08415998709778
 40
1.087277202195697
 40
1.087277202195697
 40
1.087277202195697
 40
1.087277202195697
 10
917.2355914207617
 20
423.5600283131925
 30
0.0
 10
917.2355182926317
 20
423.5497205822905
 30
0.0
 10
917.2353807283633
 20
423.5393531731559
 30
0.0
 10
917.235187187874
 20
423.5291032120708
 30
0.0
 10
917.2351795128451
 20
423.5287017243893
 30
0.0
 10
917.2351717614665
 20
423.5283010973729
 30
0.0
  0
LINE
  5
5C5
330
6C
100
AcDbEntity
  8
Visible (ANSI)
100
AcDbLine
 10
889.346818206218
 20
418.8902645469619
 30
0.0
 11
889.3575293355594
 21
418.7652645469619
 31
0.0
  0
LINE
  5
5C6
330
6C
100
AcDbEntity
  8
Visible (ANSI)
100
AcDbLine
 10
889.3682404649005
 20
418.6402645469618
 30
0.0
 11
889.3575293355594
 21
418.7652645469619
 31
0.0
  0
LINE
  5
5C7
330
6C
100
AcDbEntity
  8
Visible (ANSI)
100
AcDbLine
 10
887.8575293355593
 20
418.8902645469619
 30
0.0
 11
887.8575293355593
 21
418.6402645469618
 31
0.0
  0
LINE
  5
5C8
330
6C
100
AcDbEntity
  8
Visible (ANSI)
100
AcDbLine
 10
922.2294672503572
 20
423.5600283131925
 30
0.0
 11
922.2537954454759
 21
423.7009422745306
 31
0.0
  0
SPLINE
  5
5C9
330
6C
100
AcDbEntity
  8
Visible (ANSI)
100
AcDbSpline
210
0.0
220
0.0
230
1.0
 70
     8
 71
     3
 72
    10
 73
     6
 74
     0
 42
0.0000000001
 43
0.0000000001
 40
-0.125002800433194
 40
-0.125002800433194
 40
-0.125002800433194
 40
-0.125002800433194
 40
-0.121885585335282
 40
-0.121885585335282
 40
-0.0455840251921717
 40
-0.0455840251921717
 40
-0.0455840251921717
 40
-0.0455840251921717
 10
922.2298869096523
 20
423.5283010973729
 30
0.0
 10
922.2298791582737
 20
423.5287017243893
 30
0.0
 10
922.2298714832446
 20
423.5291032120708
 30
0.0
 10
922.2296779427553
 20
423.5393531731559
 30
0.0
 10
922.2295403784871
 20
423.5497205822905
 30
0.0
 10
922.2294672503572
 20
423.5600283131925
 30
0.0
  0
LINE
  5
5CA
330
6C
100
AcDbEntity
  8
Visible (ANSI)
100
AcDbLine
 10
950.1075293355594
 20
418.7652645469619
 30
0.0
 11
950.1182404649005
 21
418.8902645469619
 31
0.0
  0
LINE
  5
5CB
330
6C
100
AcDbEntity
  8
Visible (ANSI)
100
AcDbLine
 10
950.1075293355594
 20
418.7652645469619
 30
0.0
 11
950.096818206218
 21
418.6402645469618
 31
0.0
  0
LINE
  5
5CC
330
6C
100
AcDbEntity
  8
Visible (ANSI)
100
AcDbLine
 10
951.6075293355592
 20
418.6402645469618
 30
0.0
 11
951.6075293355592
 21
418.8902645469619
 31
0.0
  0
ELLIPSE
  5
5CD
330
6C
100
AcDbEntity
  8
Visible (ANSI)
100
AcDbEllipse
 10
921.5002962885268
 20
423.5777645469624
 30
0.0
 11
-0.0296488066055949
 21
-0.1214328961479855
 31
0.0
210
0.0
220
0.0
230
1.0
 40
0.6967984516401316
 41
5.413065670359257
 42
6.283185307177576
  0
ELLIPSE
  5
5CE
330
6C
100
AcDbEntity
  8
Visible (ANSI)
100
AcDbEllipse
 10
921.5002962885268
 20
423.5777645469624
 30
0.0
 11
0.0296488066055974
 21
0.1214328961478977
 31
0.0
210
0.0
220
0.0
230
1.0
 40
0.6967984516400523
 41
0.0000000000002514
 42
1.883802957520924
  0
SPLINE
  5
5CF
330
6C
100
AcDbEntity
  8
Visible (ANSI)
100
AcDbSpline
210
0.0
220
0.0
230
1.0
 70
     8
 71
     3
 72
    10
 73
     6
 74
     0
 42
0.0000000001
 43
0.0000000001
 40
-0.1597689612254
 40
-0.1597689612254
 40
-0.1597689612254
 40
-0.1597689612254
 40
-0.1218855853352827
 40
-0.1218855853352827
 40
-0.045584025192283
 40
-0.045584025192283
 40
-0.045584025192283
 40
-0.045584025192283
 10
921.4218755908147
 20
423.5152645469624
 30
0.0
 10
921.4199799720084
 20
423.5198490361272
 30
0.0
 10
921.4182801138315
 20
423.5246162152106
 30
0.0
 10
921.4138257518509
 20
423.5393531731564
 30
0.0
 10
921.4117592964678
 20
423.5497205822912
 30
0.0
 10
921.4106637887313
 20
423.5600283131931
 30
0.0
  0
ELLIPSE
  5
5D0
330
6C
100
AcDbEntity
  8
Visible (ANSI)
100
AcDbEllipse
 10
941.2108978141136
 20
418.7652645469682
 30
0.0
 11
-0.0149856337785332
 21
-0.1245565523693814
 31
0.0
210
0.0
220
0.0
230
1.0
 40
0.701989381572794
 41
3.225850360498749
 42
4.796646687293859
  0
ELLIPSE
  5
5D1
330
6C
100
AcDbEntity
  8
Visible (ANSI)
100
AcDbEllipse
 10
941.2108978141136
 20
418.7652645469682
 30
0.0
 11
-0.0149856337785045
 21
-0.1245565523693866
 31
0.0
210
0.0
220
0.0
230
1.0
 40
0.701989381572794
 41
4.796646687293135
 42
6.367443014088212
  0
ELLIPSE
  5
5D2
330
6C
100
AcDbEntity
  8
Visible (ANSI)
100
AcDbEllipse
 10
942.2715579858939
 20
418.7652645469685
 30
0.0
 11
0.0
 21
0.125
 31
0.0
210
0.0
220
0.0
230
1.0
 40
0.707106781186128
 41
0.0
 42
6.283185307179586
  0
LINE
  5
5D3
330
6C
100
AcDbEntity
  8
Visible (ANSI)
100
AcDbLine
 10
898.2391218712312
 20
418.8902645469681
 30
0.0
 11
899.6609093457944
 21
419.2374052576387
 31
0.0
  0
LINE
  5
5D4
330
6C
100
AcDbEntity
  8
Visible (ANSI)
100
AcDbLine
 10
900.6848366977719
 20
419.4874052576385
 30
0.0
 11
902.6969597422262
 21
419.978681089016
 31
0.0
  0
LINE
  5
5D5
330
6C
100
AcDbEntity
  8
Visible (ANSI)
100
AcDbLine
 10
903.7208870942032
 20
420.2286810890158
 30
0.0
 11
905.7330101386575
 21
420.7199569203933
 31
0.0
  0
LINE
  5
5D6
330
6C
100
AcDbEntity
  8
Visible (ANSI)
100
AcDbLine
 10
906.7569374906348
 20
420.969956920393
 30
0.0
 11
908.7690605350891
 21
421.4612327517707
 31
0.0
  0
LINE
  5
5D7
330
6C
100
AcDbEntity
  8
Visible (ANSI)
100
AcDbLine
 10
909.7929878870663
 20
421.7112327517703
 30
0.0
 11
911.8051109315205
 21
422.202508583148
 31
0.0
  0
LINE
  5
5D8
330
6C
100
AcDbEntity
  8
Visible (ANSI)
100
AcDbLine
 10
912.8290382834979
 20
422.4525085831477
 30
0.0
 11
914.841161327952
 21
422.9437844145253
 31
0.0
  0
LINE
  5
5D9
330
6C
100
AcDbEntity
  8
Visible (ANSI)
100
AcDbLine
 10
915.8650886799293
 20
423.193784414525
 30
0.0
 11
917.9351135759885
 21
423.6991974431102
 31
0.0
  0
LINE
  5
5DA
330
6C
100
AcDbEntity
  8
Visible (ANSI)
100
AcDbLine
 10
898.2764518868959
 20
418.6420351911579
 30
0.0
 11
900.7149146693709
 21
419.2374052576385
 31
0.0
  0
LINE
  5
5DB
330
6C
100
AcDbEntity
  8
Visible (ANSI)
100
AcDbLine
 10
901.7388420213483
 20
419.4874052576381
 30
0.0
 11
903.7509650658025
 21
419.9786810890158
 31
0.0
  0
LINE
  5
5DC
330
6C
100
AcDbEntity
  8
Visible (ANSI)
100
AcDbLine
 10
904.7748924177797
 20
420.2286810890155
 30
0.0
 11
906.7870154622339
 21
420.7199569203931
 31
0.0
  0
LINE
  5
5DD
330
6C
100
AcDbEntity
  8
Visible (ANSI)
100
AcDbLine
 10
907.8109428142111
 20
420.9699569203928
 30
0.0
 11
909.8230658586654
 21
421.4612327517704
 31
0.0
  0
LINE
  5
5DE
330
6C
100
AcDbEntity
  8
Visible (ANSI)
100
AcDbLine
 10
910.8469932106428
 20
421.7112327517701
 30
0.0
 11
912.859116255097
 21
422.2025085831477
 31
0.0
  0
LINE
  5
5DF
330
6C
100
AcDbEntity
  8
Visible (ANSI)
100
AcDbLine
 10
913.8830436070742
 20
422.4525085831474
 30
0.0
 11
915.8951666515285
 21
422.943784414525
 31
0.0
  0
LINE
  5
5E0
330
6C
100
AcDbEntity
  8
Visible (ANSI)
100
AcDbLine
 10
916.9190940035058
 20
423.1937844145248
 30
0.0
 11
917.9944111891996
 21
423.4563316508144
 31
0.0
  0
LINE
  5
5E1
330
6C
100
AcDbEntity
  8
Visible (ANSI)
100
AcDbLine
 10
897.1935006852516
 20
418.8902645469686
 30
0.0
 11
898.2465869448395
 21
418.8902645469681
 31
0.0
  0
LINE
  5
5E2
330
6C
100
AcDbEntity
  8
Visible (ANSI)
100
AcDbLine
 10
889.3468182062182
 20
418.8902645469619
 30
0.0
 11
891.3575293355592
 21
419.2374052576328
 31
0.0
  0
LINE
  5
5E3
330
6C
100
AcDbEntity
  8
Visible (ANSI)
100
AcDbLine
 10
892.805581283611
 20
419.4874052576328
 30
0.0
 11
895.6511529822433
 21
419.9786810890111
 31
0.0
  0
LINE
  5
5E4
330
6C
100
AcDbEntity
  8
Visible (ANSI)
100
AcDbLine
 10
897.0992049302953
 20
420.228681089011
 30
0.0
 11
899.9447766289275
 21
420.7199569203893
 31
0.0
  0
LINE
  5
5E5
330
6C
100
AcDbEntity
  8
Visible (ANSI)
100
AcDbLine
 10
901.3928285769795
 20
420.9699569203892
 30
0.0
 11
904.2384002756117
 21
421.4612327517675
 31
0.0
  0
LINE
  5
5E6
330
6C
100
AcDbEntity
  8
Visible (ANSI)
100
AcDbLine
 10
905.6864522236637
 20
421.7112327517675
 30
0.0
 11
908.532023922296
 21
422.2025085831456
 31
0.0
  0
LINE
  5
5E7
330
6C
100
AcDbEntity
  8
Visible (ANSI)
100
AcDbLine
 10
909.9800758703478
 20
422.4525085831457
 30
0.0
 11
912.82564756898
 21
422.9437844145238
 31
0.0
  0
LINE
  5
5E8
330
6C
100
AcDbEntity
  8
Visible (ANSI)
100
AcDbLine
 10
914.273699517032
 20
423.1937844145239
 30
0.0
 11
917.2112632256428
 21
423.7009422745306
 31
0.0
  0
LINE
  5
5E9
330
6C
100
AcDbEntity
  8
Visible (ANSI)
100
AcDbLine
 10
889.3682404649005
 20
418.6402645469618
 30
0.0
 11
892.8270035422933
 21
419.2374052576328
 31
0.0
  0
LINE
  5
5EA
330
6C
100
AcDbEntity
  8
Visible (ANSI)
100
AcDbLine
 10
894.2750554903453
 20
419.4874052576328
 30
0.0
 11
897.1206271889775
 21
419.9786810890111
 31
0.0
  0
LINE
  5
5EB
330
6C
100
AcDbEntity
  8
Visible (ANSI)
100
AcDbLine
 10
898.5686791370296
 20
420.228681089011
 30
0.0
 11
901.4142508356616
 21
420.7199569203893
 31
0.0
  0
LINE
  5
5EC
330
6C
100
AcDbEntity
  8
Visible (ANSI)
100
AcDbLine
 10
902.8623027837136
 20
420.9699569203892
 30
0.0
 11
905.7078744823458
 21
421.4612327517675
 31
0.0
  0
LINE
  5
5ED
330
6C
100
AcDbEntity
  8
Visible (ANSI)
100
AcDbLine
 10
907.1559264303978
 20
421.7112327517675
 30
0.0
 11
910.00149812903
 21
422.2025085831456
 31
0.0
  0
LINE
  5
5EE
330
6C
100
AcDbEntity
  8
Visible (ANSI)
100
AcDbLine
 10
911.4495500770821
 20
422.4525085831457
 30
0.0
 11
914.2951217757143
 21
422.9437844145238
 31
0.0
  0
LINE
  5
5EF
330
6C
100
AcDbEntity
  8
Visible (ANSI)
100
AcDbLine
 10
915.7431737237663
 20
423.1937844145239
 30
0.0
 11
916.1594174205468
 21
423.2656471155375
 31
0.0
  0
LINE
  5
5F0
330
6C
100
AcDbEntity
  8
Visible (ANSI)
100
AcDbLine
 10
887.8575293355593
 20
418.8902645469619
 30
0.0
 11
889.3468182062182
 21
418.8902645469619
 31
0.0
  0
LINE
  5
5F1
330
6C
100
AcDbEntity
  8
Visible (ANSI)
100
AcDbLine
 10
950.0968182062182
 20
418.6402645469618
 30
0.0
 11
946.6380551288253
 21
419.2374052576328
 31
0.0
  0
LINE
  5
5F2
330
6C
100
AcDbEntity
  8
Visible (ANSI)
100
AcDbLine
 10
945.1900031807733
 20
419.4874052576328
 30
0.0
 11
942.3444314821411
 21
419.978681089011
 31
0.0
  0
LINE
  5
5F3
330
6C
100
AcDbEntity
  8
Visible (ANSI)
100
AcDbLine
 10
940.8963795340891
 20
420.228681089011
 30
0.0
 11
938.0508078354569
 21
420.7199569203893
 31
0.0
  0
LINE
  5
5F4
330
6C
100
AcDbEntity
  8
Visible (ANSI)
100
AcDbLine
 10
936.602755887405
 20
420.9699569203892
 30
0.0
 11
933.7571841887728
 21
421.4612327517675
 31
0.0
  0
LINE
  5
5F5
330
6C
100
AcDbEntity
  8
Visible (ANSI)
100
AcDbLine
 10
932.3091322407206
 20
421.7112327517674
 30
0.0
 11
929.4635605420886
 21
422.2025085831456
 31
0.0
  0
LINE
  5
5F6
330
6C
100
AcDbEntity
  8
Visible (ANSI)
100
AcDbLine
 10
928.0155085940366
 20
422.4525085831457
 30
0.0
 11
925.1699368954044
 21
422.9437844145238
 31
0.0
  0
LINE
  5
5F7
330
6C
100
AcDbEntity
  8
Visible (ANSI)
100
AcDbLine
 10
923.7218849473524
 20
423.1937844145239
 30
0.0
 11
923.3056412505719
 21
423.2656471155375
 31
0.0
  0
LINE
  5
5F8
330
6C
100
AcDbEntity
  8
Visible (ANSI)
100
AcDbLine
 10
950.1182404649005
 20
418.8902645469617
 30
0.0
 11
948.1075293355596
 21
419.2374052576328
 31
0.0
  0
LINE
  5
5F9
330
6C
100
AcDbEntity
  8
Visible (ANSI)
100
AcDbLine
 10
946.6594773875074
 20
419.4874052576328
 30
0.0
 11
943.8139056888752
 21
419.978681089011
 31
0.0
  0
LINE
  5
5FA
330
6C
100
AcDbEntity
  8
Visible (ANSI)
100
AcDbLine
 10
942.3658537408233
 20
420.228681089011
 30
0.0
 11
939.5202820421911
 21
420.7199569203893
 31
0.0
  0
LINE
  5
5FB
330
6C
100
AcDbEntity
  8
Visible (ANSI)
100
AcDbLine
 10
938.0722300941393
 20
420.9699569203892
 30
0.0
 11
935.2266583955069
 21
421.4612327517675
 31
0.0
  0
LINE
  5
5FC
330
6C
100
AcDbEntity
  8
Visible (ANSI)
100
AcDbLine
 10
933.7786064474549
 20
421.7112327517674
 30
0.0
 11
930.9330347488227
 21
422.2025085831456
 31
0.0
  0
LINE
  5
5FD
330
6C
100
AcDbEntity
  8
Visible (ANSI)
100
AcDbLine
 10
929.4849828007707
 20
422.4525085831457
 30
0.0
 11
926.6394111021385
 21
422.9437844145238
 31
0.0
  0
LINE
  5
5FE
330
6C
100
AcDbEntity
  8
Visible (ANSI)
100
AcDbLine
 10
925.1913591540866
 20
423.1937844145239
 30
0.0
 11
922.2537954454759
 21
423.7009422745306
 31
0.0
  0
LINE
  5
5FF
330
6C
100
AcDbEntity
  8
Visible (ANSI)
100
AcDbLine
 10
951.6075293355592
 20
418.8902645469617
 30
0.0
 11
950.1182404649005
 21
418.8902645469617
 31
0.0
  0
LINE
  5
600
330
6C
100
AcDbEntity
  8
Visible (ANSI)
100
AcDbLine
 10
941.1886067842484
 20
418.6420351911579
 30
0.0
 11
938.7501440017702
 21
419.2374052576385
 31
0.0
  0
LINE
  5
601
330
6C
100
AcDbEntity
  8
Visible (ANSI)
100
AcDbLine
 10
937.7262166497917
 20
419.4874052576381
 30
0.0
 11
935.7140936053353
 21
419.9786810890158
 31
0.0
  0
LINE
  5
602
330
6C
100
AcDbEntity
  8
Visible (ANSI)
100
AcDbLine
 10
934.6901662533566
 20
420.2286810890155
 30
0.0
 11
932.6780432089
 21
420.7199569203931
 31
0.0
  0
LINE
  5
603
330
6C
100
AcDbEntity
  8
Visible (ANSI)
100
AcDbLine
 10
931.6541158569217
 20
420.9699569203928
 30
0.0
 11
929.6419928124649
 21
421.4612327517704
 31
0.0
  0
LINE
  5
604
330
6C
100
AcDbEntity
  8
Visible (ANSI)
100
AcDbLine
 10
928.6180654604864
 20
421.7112327517701
 30
0.0
 11
926.60594241603
 21
422.2025085831477
 31
0.0
  0
LINE
  5
605
330
6C
100
AcDbEntity
  8
Visible (ANSI)
100
AcDbLine
 10
925.5820150640513
 20
422.4525085831474
 30
0.0
 11
923.5698920195947
 21
422.943784414525
 31
0.0
  0
LINE
  5
606
330
6C
100
AcDbEntity
  8
Visible (ANSI)
100
AcDbLine
 10
922.5459646676164
 20
423.1937844145248
 30
0.0
 11
921.4706474819211
 21
423.4563316508144
 31
0.0
  0
LINE
  5
607
330
6C
100
AcDbEntity
  8
Visible (ANSI)
100
AcDbLine
 10
941.225936799913
 20
418.8902645469681
 30
0.0
 11
939.8041493253478
 21
419.2374052576387
 31
0.0
  0
LINE
  5
608
330
6C
100
AcDbEntity
  8
Visible (ANSI)
100
AcDbLine
 10
938.7802219733694
 20
419.4874052576385
 30
0.0
 11
936.7680989289127
 21
419.978681089016
 31
0.0
  0
LINE
  5
609
330
6C
100
AcDbEntity
  8
Visible (ANSI)
100
AcDbLine
 10
935.7441715769343
 20
420.2286810890158
 30
0.0
 11
933.7320485324777
 21
420.7199569203933
 31
0.0
  0
LINE
  5
60A
330
6C
100
AcDbEntity
  8
Visible (ANSI)
100
AcDbLine
 10
932.7081211804991
 20
420.969956920393
 30
0.0
 11
930.6959981360426
 21
421.4612327517707
 31
0.0
  0
LINE
  5
60B
330
6C
100
AcDbEntity
  8
Visible (ANSI)
100
AcDbLine
 10
929.6720707840641
 20
421.7112327517703
 30
0.0
 11
927.6599477396073
 21
422.202508583148
 31
0.0
  0
LINE
  5
60C
330
6C
100
AcDbEntity
  8
Visible (ANSI)
100
AcDbLine
 10
926.636020387629
 20
422.4525085831477
 30
0.0
 11
924.6238973431724
 21
422.9437844145253
 31
0.0
  0
LINE
  5
60D
330
6C
100
AcDbEntity
  8
Visible (ANSI)
100
AcDbLine
 10
923.5999699911937
 20
423.193784414525
 30
0.0
 11
921.5299450951324
 21
423.6991974431102
 31
0.0
  0
LINE
  5
60E
330
6C
100
AcDbEntity
  8
Visible (ANSI)
100
AcDbLine
 10
942.2715579858939
 20
418.8902645469686
 30
0.0
 11
941.2184717263047
 21
418.8902645469681
 31
0.0
  0
LINE
  5
60F
330
6C
100
AcDbEntity
  8
Visible (ANSI)
100
AcDbLine
 10
921.4218755908147
 20
423.5152645469624
 30
0.0
 11
919.8575293355608
 21
423.5152645469626
 31
0.0
  0
LINE
  5
610
330
6C
100
AcDbEntity
  8
Visible (ANSI)
100
AcDbLine
 10
919.6075293355608
 20
423.5152645469626
 30
0.0
 11
918.043183080306
 21
423.5152645469624
 31
0.0
  0
LINE
  5
611
330
6C
100
AcDbEntity
  8
Visible (ANSI)
100
AcDbLine
 10
942.2715579858939
 20
418.6402645469685
 30
0.0
 11
919.7325293355781
 21
418.6402645469713
 31
0.0
  0
LINE
  5
612
330
6C
100
AcDbEntity
  8
Visible (ANSI)
100
AcDbLine
 10
951.6075293355594
 20
418.6402645469618
 30
0.0
 11
942.2715579858939
 21
418.6402645469685
 31
0.0
  0
LINE
  5
613
330
6C
100
AcDbEntity
  8
Visible (ANSI)
100
AcDbLine
 10
919.7325293355781
 20
418.6402645469713
 30
0.0
 11
897.1935006852513
 21
418.6402645469685
 31
0.0
  0
LINE
  5
614
330
6C
100
AcDbEntity
  8
Visible (ANSI)
100
AcDbLine
 10
897.1935006852516
 20
418.6402645469685
 30
0.0
 11
887.8575293355593
 21
418.6402645469618
 31
0.0
  0
LINE
  5
615
330
6C
100
AcDbEntity
  8
Visible (ANSI)
100
AcDbLine
 10
951.6075293355592
 20
418.5152645469619
 30
0.0
 11
887.8575293355593
 21
418.5152645469619
 31
0.0
  0
LINE
  5
616
330
6C
100
AcDbEntity
  8
Visible (ANSI)
100
AcDbLine
 10
921.4317608839609
 20
423.6402645469624
 30
0.0
 11
919.840243392945
 21
423.6402645469627
 31
0.0
  0
LINE
  5
617
330
6C
100
AcDbEntity
  8
Visible (ANSI)
100
AcDbLine
 10
922.2325293355593
 20
423.6402645469619
 30
0.0
 11
921.7713171123204
 21
423.6402645469623
 31
0.0
  0
LINE
  5
618
330
6C
100
AcDbEntity
  8
Visible (ANSI)
100
AcDbLine
 10
917.6937415587998
 20
423.6402645469623
 30
0.0
 11
917.2325293355592
 21
423.6402645469619
 31
0.0
  0
LINE
  5
619
330
6C
100
AcDbEntity
  8
Visible (ANSI)
100
AcDbLine
 10
919.6248152781766
 20
423.6402645469627
 30
0.0
 11
918.0332977871598
 21
423.6402645469624
 31
0.0
  0
LINE
  5
61A
330
6C
100
AcDbEntity
  8
Visible (ANSI)
100
AcDbLine
 10
889.2325293355593
 20
408.1402645469619
 30
0.0
 11
889.2325293355593
 21
418.5152645469619
 31
0.0
  0
LINE
  5
61B
330
6C
100
AcDbEntity
  8
Visible (ANSI)
100
AcDbLine
 10
950.2325293355593
 20
408.1402645469619
 30
0.0
 11
950.2325293355593
 21
418.5152645469619
 31
0.0
  0
LINE
  5
61C
330
6C
100
AcDbEntity
  8
Visible (ANSI)
100
AcDbLine
 10
887.8575293355593
 20
418.5152645469619
 30
0.0
 11
887.8575293355593
 21
418.6402645469618
 31
0.0
  0
LINE
  5
61D
330
6C
100
AcDbEntity
  8
Visible (ANSI)
100
AcDbLine
 10
951.6075293355592
 20
418.5152645469619
 30
0.0
 11
951.6075293355592
 21
418.6402645469618
 31
0.0
  0
LINE
  5
61E
330
6C
100
AcDbEntity
  8
Visible (ANSI)
100
AcDbLine
 10
917.2325293355594
 20
423.5777645469618
 30
0.0
 11
917.2325293355594
 21
423.6402645469619
 31
0.0
  0
LINE
  5
61F
330
6C
100
AcDbEntity
  8
Visible (ANSI)
100
AcDbLine
 10
922.2325293355593
 20
423.5777645469618
 30
0.0
 11
922.2325293355593
 21
423.6402645469619
 31
0.0
  0
ELLIPSE
  5
620
330
6C
100
AcDbEntity
  8
Visible (ANSI)
100
AcDbEllipse
 10
919.7325293355607
 20
423.5777645469626
 30
0.0
 11
0.125
 21
-0.0000000000000895
 31
0.0
210
0.0
220
0.0
230
1.0
 40
0.9854218205505183
 41
0.0000000000002795
 42
3.141592653590072
  0
CIRCLE
  5
621
330
6C
100
AcDbEntity
  8
Visible (ANSI)
100
AcDbCircle
 10
919.7325293355781
 20
418.7652645469713
 30
0.0
 40
0.125
  0
LINE
  5
622
330
6C
100
AcDbEntity
  8
Visible (ANSI)
100
AcDbLine
 10
919.6075293355773
 20
418.7652645469709
 30
0.0
 11
919.6075293355757
 21
419.237405257641
 31
0.0
  0
LINE
  5
623
330
6C
100
AcDbEntity
  8
Visible (ANSI)
100
AcDbLine
 10
919.6075293355749
 20
419.4874052576406
 30
0.0
 11
919.6075293355731
 21
419.9786810890179
 31
0.0
  0
LINE
  5
624
330
6C
100
AcDbEntity
  8
Visible (ANSI)
100
AcDbLine
 10
919.6075293355724
 20
420.2286810890176
 30
0.0
 11
919.6075293355706
 21
420.7199569203948
 31
0.0
  0
LINE
  5
625
330
6C
100
AcDbEntity
  8
Visible (ANSI)
100
AcDbLine
 10
919.6075293355699
 20
420.9699569203944
 30
0.0
 11
919.6075293355681
 21
421.4612327517718
 31
0.0
  0
LINE
  5
626
330
6C
100
AcDbEntity
  8
Visible (ANSI)
100
AcDbLine
 10
919.6075293355672
 20
421.7112327517714
 30
0.0
 11
919.6075293355654
 21
422.2025085831488
 31
0.0
  0
LINE
  5
627
330
6C
100
AcDbEntity
  8
Visible (ANSI)
100
AcDbLine
 10
919.6075293355645
 20
422.4525085831484
 30
0.0
 11
919.607529335563
 21
422.9437844145257
 31
0.0
  0
LINE
  5
628
330
6C
100
AcDbEntity
  8
Visible (ANSI)
100
AcDbLine
 10
919.6075293355621
 20
423.1937844145253
 30
0.0
 11
919.6075293355608
 21
423.5777645469625
 31
0.0
  0
LINE
  5
629
330
6C
100
AcDbEntity
  8
Visible (ANSI)
100
AcDbLine
 10
919.8575293355773
 20
418.7652645469709
 30
0.0
 11
919.8575293355757
 21
419.237405257641
 31
0.0
  0
LINE
  5
62A
330
6C
100
AcDbEntity
  8
Visible (ANSI)
100
AcDbLine
 10
919.8575293355748
 20
419.4874052576406
 30
0.0
 11
919.8575293355732
 21
419.9786810890179
 31
0.0
  0
LINE
  5
62B
330
6C
100
AcDbEntity
  8
Visible (ANSI)
100
AcDbLine
 10
919.8575293355723
 20
420.2286810890176
 30
0.0
 11
919.8575293355705
 21
420.7199569203948
 31
0.0
  0
LINE
  5
62C
330
6C
100
AcDbEntity
  8
Visible (ANSI)
100
AcDbLine
 10
919.8575293355698
 20
420.9699569203944
 30
0.0
 11
919.8575293355681
 21
421.4612327517718
 31
0.0
  0
LINE
  5
62D
330
6C
100
AcDbEntity
  8
Visible (ANSI)
100
AcDbLine
 10
919.8575293355672
 20
421.7112327517714
 30
0.0
 11
919.8575293355656
 21
422.2025085831488
 31
0.0
  0
LINE
  5
62E
330
6C
100
AcDbEntity
  8
Visible (ANSI)
100
AcDbLine
 10
919.8575293355647
 20
422.4525085831484
 30
0.0
 11
919.8575293355631
 21
422.9437844145257
 31
0.0
  0
LINE
  5
62F
330
6C
100
AcDbEntity
  8
Visible (ANSI)
100
AcDbLine
 10
919.8575293355622
 20
423.1937844145253
 30
0.0
 11
919.8575293355608
 21
423.5777645469625
 31
0.0
  0
LINE
  5
630
330
6C
100
AcDbEntity
  8
Visible (ANSI)
100
AcDbLine
 10
954.9825293355782
 20
408.1402645469713
 30
0.0
 11
884.4825293355782
 21
408.1402645469713
 31
0.0
  0
LINE
  5
631
330
6C
100
AcDbEntity
  8
Visible (ANSI)
100
AcDbLine
 10
954.9825293355782
 20
314.8902645469714
 30
0.0
 11
954.9825293355782
 21
408.1402645469713
 31
0.0
  0
LINE
  5
632
330
6C
100
AcDbEntity
  8
Visible (ANSI)
100
AcDbLine
 10
884.4825293355782
 20
314.8902645469714
 30
0.0
 11
884.4825293355782
 21
408.1402645469713
 31
0.0
  0
LINE
  5
633
330
6C
100
AcDbEntity
  8
Visible (ANSI)
100
AcDbLine
 10
884.4825293355782
 20
314.8902645469714
 30
0.0
 11
954.9825293355782
 21
314.8902645469714
 31
0.0
  0
ARC
  5
634
330
6C
100
AcDbEntity
  8
Visible (ANSI)
100
AcDbCircle
 10
926.6501222314795
 20
423.0687844145239
 30
0.0
 40
0.125
100
AcDbArc
 50
270.0
 51
90.0
  0
ARC
  5
635
330
6C
100
AcDbEntity
  8
Visible (ANSI)
100
AcDbCircle
 10
912.814936439639
 20
423.0687844145239
 30
0.0
 40
0.125
100
AcDbArc
 50
90.0
 51
270.0
  0
LINE
  5
636
330
6C
100
AcDbEntity
  8
Visible (ANSI)
100
AcDbLine
 10
926.6501222314795
 20
423.1937844145239
 30
0.0
 11
912.814936439639
 21
423.1937844145239
 31
0.0
  0
LINE
  5
637
330
6C
100
AcDbEntity
  8
Visible (ANSI)
100
AcDbLine
 10
912.814936439639
 20
422.9437844145238
 30
0.0
 11
926.6501222314795
 21
422.9437844145238
 31
0.0
  0
ARC
  5
638
330
6C
100
AcDbEntity
  8
Visible (ANSI)
100
AcDbCircle
 10
930.9437458781637
 20
422.3275085831456
 30
0.0
 40
0.125
100
AcDbArc
 50
270.0
 51
90.0
  0
ARC
  5
639
330
6C
100
AcDbEntity
  8
Visible (ANSI)
100
AcDbCircle
 10
908.5213127929549
 20
422.3275085831456
 30
0.0
 40
0.125
100
AcDbArc
 50
90.0
 51
270.0
  0
LINE
  5
63A
330
6C
100
AcDbEntity
  8
Visible (ANSI)
100
AcDbLine
 10
930.9437458781637
 20
422.4525085831457
 30
0.0
 11
908.5213127929549
 21
422.4525085831457
 31
0.0
  0
LINE
  5
63B
330
6C
100
AcDbEntity
  8
Visible (ANSI)
100
AcDbLine
 10
908.5213127929549
 20
422.2025085831456
 30
0.0
 11
930.9437458781637
 21
422.2025085831456
 31
0.0
  0
ARC
  5
63C
330
6C
100
AcDbEntity
  8
Visible (ANSI)
100
AcDbCircle
 10
935.2373695248479
 20
421.5862327517674
 30
0.0
 40
0.125
100
AcDbArc
 50
270.0
 51
90.0
  0
ARC
  5
63D
330
6C
100
AcDbEntity
  8
Visible (ANSI)
100
AcDbCircle
 10
904.2276891462707
 20
421.5862327517674
 30
0.0
 40
0.125
100
AcDbArc
 50
90.0
 51
270.0
  0
LINE
  5
63E
330
6C
100
AcDbEntity
  8
Visible (ANSI)
100
AcDbLine
 10
935.2373695248479
 20
421.7112327517674
 30
0.0
 11
904.2276891462707
 21
421.7112327517674
 31
0.0
  0
LINE
  5
63F
330
6C
100
AcDbEntity
  8
Visible (ANSI)
100
AcDbLine
 10
904.2276891462707
 20
421.4612327517675
 30
0.0
 11
935.2373695248479
 21
421.4612327517675
 31
0.0
  0
ARC
  5
640
330
6C
100
AcDbEntity
  8
Visible (ANSI)
100
AcDbCircle
 10
939.5309931715321
 20
420.8449569203892
 30
0.0
 40
0.125
100
AcDbArc
 50
270.0
 51
90.0
  0
ARC
  5
641
330
6C
100
AcDbEntity
  8
Visible (ANSI)
100
AcDbCircle
 10
899.9340654995865
 20
420.8449569203892
 30
0.0
 40
0.125
100
AcDbArc
 50
90.0
 51
270.0
  0
LINE
  5
642
330
6C
100
AcDbEntity
  8
Visible (ANSI)
100
AcDbLine
 10
939.5309931715321
 20
420.9699569203892
 30
0.0
 11
899.9340654995865
 21
420.9699569203892
 31
0.0
  0
LINE
  5
643
330
6C
100
AcDbEntity
  8
Visible (ANSI)
100
AcDbLine
 10
899.9340654995865
 20
420.7199569203893
 30
0.0
 11
939.5309931715321
 21
420.7199569203893
 31
0.0
  0
ARC
  5
644
330
6C
100
AcDbEntity
  8
Visible (ANSI)
100
AcDbCircle
 10
943.8246168182162
 20
420.103681089011
 30
0.0
 40
0.125
100
AcDbArc
 50
270.0
 51
90.0
  0
ARC
  5
645
330
6C
100
AcDbEntity
  8
Visible (ANSI)
100
AcDbCircle
 10
895.6404418529023
 20
420.103681089011
 30
0.0
 40
0.125
100
AcDbArc
 50
90.0
 51
270.0
  0
LINE
  5
646
330
6C
100
AcDbEntity
  8
Visible (ANSI)
100
AcDbLine
 10
943.8246168182162
 20
420.228681089011
 30
0.0
 11
895.6404418529023
 21
420.228681089011
 31
0.0
  0
LINE
  5
647
330
6C
100
AcDbEntity
  8
Visible (ANSI)
100
AcDbLine
 10
895.6404418529023
 20
419.978681089011
 30
0.0
 11
943.8246168182162
 21
419.978681089011
 31
0.0
  0
ARC
  5
648
330
6C
100
AcDbEntity
  8
Visible (ANSI)
100
AcDbCircle
 10
948.1182404649004
 20
419.3624052576328
 30
0.0
 40
0.125
100
AcDbArc
 50
270.0
 51
90.0
  0
ARC
  5
649
330
6C
100
AcDbEntity
  8
Visible (ANSI)
100
AcDbCircle
 10
891.3468182062182
 20
419.3624052576328
 30
0.0
 40
0.125
100
AcDbArc
 50
90.0
 51
270.0
  0
LINE
  5
64A
330
6C
100
AcDbEntity
  8
Visible (ANSI)
100
AcDbLine
 10
948.1182404649004
 20
419.4874052576328
 30
0.0
 11
891.3468182062182
 21
419.4874052576328
 31
0.0
  0
LINE
  5
64B
330
6C
100
AcDbEntity
  8
Visible (ANSI)
100
AcDbLine
 10
891.3468182062182
 20
419.2374052576328
 30
0.0
 11
948.1182404649004
 21
419.2374052576328
 31
0.0
  0
MTEXT
  5
64C
330
6C
100
AcDbEntity
  8
Symbol (ANSI)
100
AcDbMText
 10
866.3850368080291
 20
212.8972697107876
 30
0.0
 40
12.49999981226883
 41
0.0
 71
     7
 72
     1
  1
Blank Off Face
  7
Label Text (ANSI)
 73
     1
 44
1.0
  0
ENDSEC
  0
SECTION
  2
OBJECTS
  0
DICTIONARY
  5
C
330
0
100
AcDbDictionary
281
     1
  3
ACAD_COLOR
350
63
  3
ACAD_GROUP
350
D
  3
ACAD_LAYOUT
350
62
  3
ACAD_MATERIAL
350
10
  3
ACAD_MLEADERSTYLE
350
66
  3
ACAD_MLINESTYLE
350
5F
  3
ACAD_PLOTSETTINGS
350
61
  3
ACAD_PLOTSTYLENAME
350
E
  3
ACAD_SCALELIST
350
42
  3
ACAD_TABLESTYLE
350
64
  3
ACAD_VISUALSTYLE
350
29
  3
ACDB_RECOMPOSE_DATA
350
665
  3
AcDbVariableDictionary
350
64D
  0
DICTIONARY
  5
659
330
FC
100
AcDbDictionary
280
     1
281
     1
  3
ACAD_MLATT
360
65B
  3
ACAD_XREC_ROUNDTRIP
360
65A
  0
DICTIONARY
  5
65C
330
100
100
AcDbDictionary
280
     1
281
     1
  3
ACAD_MLATT
360
65E
  3
ACAD_XREC_ROUNDTRIP
360
65D
  0
DICTIONARY
  5
65F
330
106
100
AcDbDictionary
280
     1
281
     1
  3
ACAD_MLATT
360
661
  3
ACAD_XREC_ROUNDTRIP
360
660
  0
DICTIONARY
  5
662
330
107
100
AcDbDictionary
280
     1
281
     1
  3
ACAD_MLATT
360
664
  3
ACAD_XREC_ROUNDTRIP
360
663
  0
DICTIONARY
  5
63
102
{ACAD_REACTORS
330
C
102
}
330
C
100
AcDbDictionary
281
     1
  0
DICTIONARY
  5
D
102
{ACAD_REACTORS
330
C
102
}
330
C
100
AcDbDictionary
281
     1
  0
DICTIONARY
  5
62
102
{ACAD_REACTORS
330
C
102
}
330
C
100
AcDbDictionary
281
     1
  3
Layout1
350
6B
  3
Layout2
350
73
  3
Model
350
6F
  0
DICTIONARY
  5
10
102
{ACAD_REACTORS
330
C
102
}
330
C
100
AcDbDictionary
281
     1
  3
ByBlock
350
19
  3
ByLayer
350
11
  3
Global
350
21
  0
DICTIONARY
  5
66
102
{ACAD_REACTORS
330
C
102
}
330
C
100
AcDbDictionary
281
     1
  3
Standard
350
67
  0
DICTIONARY
  5
5F
102
{ACAD_REACTORS
330
C
102
}
330
C
100
AcDbDictionary
281
     1
  3
Standard
350
60
  0
DICTIONARY
  5
61
102
{ACAD_REACTORS
330
C
102
}
330
C
100
AcDbDictionary
281
     1
  0
ACDBDICTIONARYWDFLT
  5
E
102
{ACAD_REACTORS
330
C
102
}
330
C
100
AcDbDictionary
281
     1
  3
Normal
350
F
100
AcDbDictionaryWithDefault
340
F
  0
DICTIONARY
  5
42
102
{ACAD_REACTORS
330
C
102
}
330
C
100
AcDbDictionary
281
     1
  3
A0
350
43
  3
A1
350
44
  3
A2
350
45
  3
A3
350
46
  3
A4
350
47
  3
A5
350
48
  3
A6
350
49
  3
A7
350
4A
  3
A8
350
4B
  3
A9
350
4C
  3
B0
350
4D
  3
B1
350
4E
  3
B2
350
4F
  3
B3
350
50
  3
B4
350
51
  3
B5
350
52
  3
B6
350
53
  0
DICTIONARY
  5
64
102
{ACAD_REACTORS
330
C
102
}
330
C
100
AcDbDictionary
281
     1
  3
Standard
350
65
  0
DICTIONARY
  5
29
102
{ACAD_REACTORS
330
C
102
}
330
C
100
AcDbDictionary
281
     1
  3
2dWireframe
350
2F
  3
Basic
350
2E
  3
Brighten
350
35
  3
ColorChange
350
39
  3
Conceptual
350
32
  3
Dim
350
34
  3
EdgeColorOff
350
41
  3
Facepattern
350
38
  3
Flat
350
2A
  3
FlatWithEdges
350
2B
  3
Gouraud
350
2C
  3
GouraudWithEdges
350
2D
  3
Hidden
350
31
  3
JitterOff
350
3F
  3
Linepattern
350
37
  3
OverhangOff
350
40
  3
Realistic
350
33
  3
Shaded
350
3E
  3
Shaded with edges
350
3D
  3
Shades of Gray
350
3A
  3
Sketchy
350
3B
  3
Thicken
350
36
  3
Wireframe
350
30
  3
X-Ray
350
3C
  0
XRECORD
  5
665
102
{ACAD_REACTORS
330
C
102
}
330
C
100
AcDbXrecord
280
     1
 90
        1
330
65
330
FC
330
100
330
106
330
107
  0
DICTIONARY
  5
64D
102
{ACAD_REACTORS
330
C
102
}
330
C
100
AcDbDictionary
281
     1
  3
CANNOSCALE
350
651
  3
CMLEADERSTYLE
350
64F
  3
CTABLESTYLE
350
64E
  3
LAYEREVAL
350
653
  3
LAYERNOTIFY
350
654
  3
LIGHTINGUNITS
350
652
  3
MSLTSCALE
350
650
  3
XCLIPFRAME
350
655
  0
XRECORD
  5
65B
102
{ACAD_REACTORS
330
659
102
}
330
659
100
AcDbXrecord
280
     1
 70
     4
 70
     0
 70
     0
 40
1.0
  2
Enter_Prompt_for_Field
  1
Embedded Object
 10
-0.8051012470333162
 20
-0.3091459458557919
 30
0.0
 40
0.093999997837337
 41
0.0
 46
0.0
 71
     5
 72
     5
  1

  7
Current-ANSI-BAC Part-BAC Assy
 73
     1
 44
1.0
  0
XRECORD
  5
65A
102
{ACAD_REACTORS
330
659
102
}
330
659
100
AcDbXrecord
280
     1
102
ACAD_MATT_HEIGHT
140
0.093999997837337
  0
XRECORD
  5
65E
102
{ACAD_REACTORS
330
65C
102
}
330
65C
100
AcDbXrecord
280
     1
 70
     4
 70
     0
 70
     0
 40
1.0
  2
Enter_Prompt_for_Field
  1
Embedded Object
 10
1.424328237886467
 20
-0.249271855484472
 30
0.0
 40
0.093999997837337
 41
0.0
 46
0.0
 71
     3
 72
     5
  1

  7
Current-ANSI-BAC Part-BAC Assy
 73
     1
 44
1.0
  0
XRECORD
  5
65D
102
{ACAD_REACTORS
330
65C
102
}
330
65C
100
AcDbXrecord
280
     1
102
ACAD_MATT_HEIGHT
140
0.093999997837337
  0
XRECORD
  5
661
102
{ACAD_REACTORS
330
65F
102
}
330
65F
100
AcDbXrecord
280
     1
 70
     4
 70
     0
 70
     0
 40
1.0
  2
Rev_Level
  1
Embedded Object
 10
-0.0025474710775638
 20
-0.0006089735492667
 30
0.0
 40
0.093999997837337
 41
0.0
 46
0.0
 71
     6
 72
     5
  1
Rev Level
  7
Text Style74
 73
     1
 44
1.0
  0
XRECORD
  5
660
102
{ACAD_REACTORS
330
65F
102
}
330
65F
100
AcDbXrecord
280
     1
102
ACAD_MATT_HEIGHT
140
0.093999997837337
  0
XRECORD
  5
664
102
{ACAD_REACTORS
330
662
102
}
330
662
100
AcDbXrecord
280
     1
 70
     4
 70
     0
 70
     0
 40
1.0
  2
Line_Number
  1
Embedded Object
 10
0.0031568935880913
 20
-0.0006089735492667
 30
0.0
 40
0.093999997837337
 41
0.0
 46
0.0
 71
     4
 72
     5
  1
Line Number
  7
Text Style74
 73
     1
 44
1.0
  0
XRECORD
  5
663
102
{ACAD_REACTORS
330
662
102
}
330
662
100
AcDbXrecord
280
     1
102
ACAD_MATT_HEIGHT
140
0.093999997837337
  0
LAYOUT
  5
6B
102
{ACAD_REACTORS
330
62
102
}
330
62
100
AcDbPlotSettings
  1

  2

  4

  6

 40
0.0
 41
0.0
 42
0.0
 43
0.0
 44
0.0
 45
0.0
 46
0.0
 47
0.0
 48
0.0
 49
0.0
140
0.0
141
0.0
142
1.0
143
1.0
 70
   688
 72
     0
 73
     0
 74
     5
  7

 75
    16
147
1.0
 76
     0
 77
     2
 78
   300
148
0.0
149
0.0
100
AcDbLayout
  1
Layout1
 70
     1
 71
     1
 10
0.0
 20
0.0
 11
12.0
 21
9.0
 12
0.0
 22
0.0
 32
0.0
 14
0.0
 24
0.0
 34
0.0
 15
0.0
 25
0.0
 35
0.0
146
0.0
 13
0.0
 23
0.0
 33
0.0
 16
1.0
 26
0.0
 36
0.0
 17
0.0
 27
1.0
 37
0.0
 76
     0
330
68
  0
LAYOUT
  5
73
102
{ACAD_REACTORS
330
62
102
}
330
62
100
AcDbPlotSettings
  1

  2

  4

  6

 40
0.0
 41
0.0
 42
0.0
 43
0.0
 44
0.0
 45
0.0
 46
0.0
 47
0.0
 48
0.0
 49
0.0
140
0.0
141
0.0
142
1.0
143
1.0
 70
   688
 72
     0
 73
     0
 74
     5
  7

 75
    16
147
1.0
 76
     0
 77
     2
 78
   300
148
0.0
149
0.0
100
AcDbLayout
  1
Layout2
 70
     1
 71
     2
 10
0.0
 20
0.0
 11
12.0
 21
9.0
 12
0.0
 22
0.0
 32
0.0
 14
0.0
 24
0.0
 34
0.0
 15
0.0
 25
0.0
 35
0.0
146
0.0
 13
0.0
 23
0.0
 33
0.0
 16
1.0
 26
0.0
 36
0.0
 17
0.0
 27
1.0
 37
0.0
 76
     0
330
70
  0
LAYOUT
  5
6F
102
{ACAD_REACTORS
330
62
102
}
330
62
100
AcDbPlotSettings
  1

  2

  4

  6

 40
0.0
 41
0.0
 42
0.0
 43
0.0
 44
0.0
 45
0.0
 46
0.0
 47
0.0
 48
0.0
 49
0.0
140
0.0
141
0.0
142
1.0
143
1.0
 70
  1712
 72
     0
 73
     0
 74
     0
  7

 75
     0
147
1.0
 76
     0
 77
     2
 78
   300
148
0.0
149
0.0
100
AcDbLayout
  1
Model
 70
     1
 71
     0
 10
0.0
 20
0.0
 11
12.0
 21
9.0
 12
0.0
 22
0.0
 32
0.0
 14
0.0
 24
0.0
 34
0.0
 15
0.0
 25
0.0
 35
0.0
146
0.0
 13
0.0
 23
0.0
 33
0.0
 16
1.0
 26
0.0
 36
0.0
 17
0.0
 27
1.0
 37
0.0
 76
     0
330
6C
  0
MATERIAL
  5
19
102
{ACAD_XDICTIONARY
360
1A
102
}
102
{ACAD_REACTORS
330
10
102
}
330
10
100
AcDbMaterial
  1
ByBlock
 72
     0
 43
0.0208333333333333
 43
0.0
 43
0.0
 43
0.0
 43
0.0
 43
0.0208333333333333
 43
0.0
 43
0.0
 43
0.0
 43
0.0
 43
1.0
 43
0.0
 43
0.0
 43
0.0
 43
0.0
 43
1.0
 77
     0
 47
0.0208333333333333
 47
0.0
 47
0.0
 47
0.0
 47
0.0
 47
0.0208333333333333
 47
0.0
 47
0.0
 47
0.0
 47
0.0
 47
1.0
 47
0.0
 47
0.0
 47
0.0
 47
0.0
 47
1.0
171
     0
 49
0.0208333333333333
 49
0.0
 49
0.0
 49
0.0
 49
0.0
 49
0.0208333333333333
 49
0.0
 49
0.0
 49
0.0
 49
0.0
 49
1.0
 49
0.0
 49
0.0
 49
0.0
 49
0.0
 49
1.0
175
     0
142
0.0208333333333333
142
0.0
142
0.0
142
0.0
142
0.0
142
0.0208333333333333
142
0.0
142
0.0
142
0.0
142
0.0
142
1.0
142
0.0
142
0.0
142
0.0
142
0.0
142
1.0
179
     0
144
0.0208333333333333
144
0.0
144
0.0
144
0.0
144
0.0
144
0.0208333333333333
144
0.0
144
0.0
144
0.0
144
0.0
144
1.0
144
0.0
144
0.0
144
0.0
144
0.0
144
1.0
147
0.0208333333333333
147
0.0
147
0.0
147
0.0
147
0.0
147
0.0208333333333333
147
0.0
147
0.0
147
0.0
147
0.0
147
1.0
147
0.0
147
0.0
147
0.0
147
0.0
147
1.0
  0
MATERIAL
  5
11
102
{ACAD_XDICTIONARY
360
12
102
}
102
{ACAD_REACTORS
330
10
102
}
330
10
100
AcDbMaterial
  1
ByLayer
 72
     0
 43
0.0208333333333333
 43
0.0
 43
0.0
 43
0.0
 43
0.0
 43
0.0208333333333333
 43
0.0
 43
0.0
 43
0.0
 43
0.0
 43
1.0
 43
0.0
 43
0.0
 43
0.0
 43
0.0
 43
1.0
 77
     0
 47
0.0208333333333333
 47
0.0
 47
0.0
 47
0.0
 47
0.0
 47
0.0208333333333333
 47
0.0
 47
0.0
 47
0.0
 47
0.0
 47
1.0
 47
0.0
 47
0.0
 47
0.0
 47
0.0
 47
1.0
171
     0
 49
0.0208333333333333
 49
0.0
 49
0.0
 49
0.0
 49
0.0
 49
0.0208333333333333
 49
0.0
 49
0.0
 49
0.0
 49
0.0
 49
1.0
 49
0.0
 49
0.0
 49
0.0
 49
0.0
 49
1.0
175
     0
142
0.0208333333333333
142
0.0
142
0.0
142
0.0
142
0.0
142
0.0208333333333333
142
0.0
142
0.0
142
0.0
142
0.0
142
1.0
142
0.0
142
0.0
142
0.0
142
0.0
142
1.0
179
     0
144
0.0208333333333333
144
0.0
144
0.0
144
0.0
144
0.0
144
0.0208333333333333
144
0.0
144
0.0
144
0.0
144
0.0
144
1.0
144
0.0
144
0.0
144
0.0
144
0.0
144
1.0
147
0.0208333333333333
147
0.0
147
0.0
147
0.0
147
0.0
147
0.0208333333333333
147
0.0
147
0.0
147
0.0
147
0.0
147
1.0
147
0.0
147
0.0
147
0.0
147
0.0
147
1.0
  0
MATERIAL
  5
21
102
{ACAD_XDICTIONARY
360
22
102
}
102
{ACAD_REACTORS
330
10
102
}
330
10
100
AcDbMaterial
  1
Global
 72
     0
 43
0.0208333333333333
 43
0.0
 43
0.0
 43
0.0
 43
0.0
 43
0.0208333333333333
 43
0.0
 43
0.0
 43
0.0
 43
0.0
 43
1.0
 43
0.0
 43
0.0
 43
0.0
 43
0.0
 43
1.0
 77
     0
 47
0.0208333333333333
 47
0.0
 47
0.0
 47
0.0
 47
0.0
 47
0.0208333333333333
 47
0.0
 47
0.0
 47
0.0
 47
0.0
 47
1.0
 47
0.0
 47
0.0
 47
0.0
 47
0.0
 47
1.0
171
     0
 49
0.0208333333333333
 49
0.0
 49
0.0
 49
0.0
 49
0.0
 49
0.0208333333333333
 49
0.0
 49
0.0
 49
0.0
 49
0.0
 49
1.0
 49
0.0
 49
0.0
 49
0.0
 49
0.0
 49
1.0
175
     0
142
0.0208333333333333
142
0.0
142
0.0
142
0.0
142
0.0
142
0.0208333333333333
142
0.0
142
0.0
142
0.0
142
0.0
142
1.0
142
0.0
142
0.0
142
0.0
142
0.0
142
1.0
179
     0
144
0.0208333333333333
144
0.0
144
0.0
144
0.0
144
0.0
144
0.0208333333333333
144
0.0
144
0.0
144
0.0
144
0.0
144
1.0
144
0.0
144
0.0
144
0.0
144
0.0
144
1.0
147
0.0208333333333333
147
0.0
147
0.0
147
0.0
147
0.0
147
0.0208333333333333
147
0.0
147
0.0
147
0.0
147
0.0
147
1.0
147
0.0
147
0.0
147
0.0
147
0.0
147
1.0
  0
MLEADERSTYLE
  5
67
102
{ACAD_REACTORS
330
66
102
}
330
66
100
AcDbMLeaderStyle
170
     2
171
     1
172
     0
 90
        2
 40
0.0
 41
0.0
173
     1
 91
-1056964608
340
5B
 92
       -2
290
     1
 42
0.09
291
     1
 43
0.36
  3
Standard
 44
0.18
300

342
55
174
     1
178
     6
175
     1
176
     0
 93
-1056964608
 45
0.18
292
     0
297
     0
 46
0.18
 94
-1056964608
 47
1.0
 49
1.0
140
1.0
293
     1
141
0.0
294
     1
177
     0
142
1.0
295
     0
296
     0
143
0.125
1001
ACAD_MLEADERVER
1070
     2
  0
MLINESTYLE
  5
60
102
{ACAD_REACTORS
330
5F
102
}
330
5F
100
AcDbMlineStyle
  2
STANDARD
 70
     0
  3

 62
   256
 51
90.0
 52
90.0
 71
     2
 49
0.5
 62
   256
  6
BYLAYER
 49
-0.5
 62
   256
  6
BYLAYER
  0
ACDBPLACEHOLDER
  5
F
102
{ACAD_REACTORS
330
E
102
}
330
E
  0
SCALE
  5
43
102
{ACAD_REACTORS
330
42
102
}
330
42
100
AcDbScale
 70
     0
300
1:1
140
1.0
141
1.0
290
     1
  0
SCALE
  5
44
102
{ACAD_REACTORS
330
42
102
}
330
42
100
AcDbScale
 70
     0
300
1/128" = 1'-0"
140
0.0078125
141
12.0
290
     0
  0
SCALE
  5
45
102
{ACAD_REACTORS
330
42
102
}
330
42
100
AcDbScale
 70
     0
300
1/64" = 1'-0"
140
0.015625
141
12.0
290
     0
  0
SCALE
  5
46
102
{ACAD_REACTORS
330
42
102
}
330
42
100
AcDbScale
 70
     0
300
1/32" = 1'-0"
140
0.03125
141
12.0
290
     0
  0
SCALE
  5
47
102
{ACAD_REACTORS
330
42
102
}
330
42
100
AcDbScale
 70
     0
300
1/16" = 1'-0"
140
0.0625
141
12.0
290
     0
  0
SCALE
  5
48
102
{ACAD_REACTORS
330
42
102
}
330
42
100
AcDbScale
 70
     0
300
3/32" = 1'-0"
140
0.09375
141
12.0
290
     0
  0
SCALE
  5
49
102
{ACAD_REACTORS
330
42
102
}
330
42
100
AcDbScale
 70
     0
300
1/8" = 1'-0"
140
0.125
141
12.0
290
     0
  0
SCALE
  5
4A
102
{ACAD_REACTORS
330
42
102
}
330
42
100
AcDbScale
 70
     0
300
3/16" = 1'-0"
140
0.1875
141
12.0
290
     0
  0
SCALE
  5
4B
102
{ACAD_REACTORS
330
42
102
}
330
42
100
AcDbScale
 70
     0
300
1/4" = 1'-0"
140
0.25
141
12.0
290
     0
  0
SCALE
  5
4C
102
{ACAD_REACTORS
330
42
102
}
330
42
100
AcDbScale
 70
     0
300
3/8" = 1'-0"
140
0.375
141
12.0
290
     0
  0
SCALE
  5
4D
102
{ACAD_REACTORS
330
42
102
}
330
42
100
AcDbScale
 70
     0
300
1/2" = 1'-0"
140
0.5
141
12.0
290
     0
  0
SCALE
  5
4E
102
{ACAD_REACTORS
330
42
102
}
330
42
100
AcDbScale
 70
     0
300
3/4" = 1'-0"
140
0.75
141
12.0
290
     0
  0
SCALE
  5
4F
102
{ACAD_REACTORS
330
42
102
}
330
42
100
AcDbScale
 70
     0
300
1" = 1'-0"
140
1.0
141
12.0
290
     0
  0
SCALE
  5
50
102
{ACAD_REACTORS
330
42
102
}
330
42
100
AcDbScale
 70
     0
300
1-1/2" = 1'-0"
140
1.5
141
12.0
290
     0
  0
SCALE
  5
51
102
{ACAD_REACTORS
330
42
102
}
330
42
100
AcDbScale
 70
     0
300
3" = 1'-0"
140
3.0
141
12.0
290
     0
  0
SCALE
  5
52
102
{ACAD_REACTORS
330
42
102
}
330
42
100
AcDbScale
 70
     0
300
6" = 1'-0"
140
6.0
141
12.0
290
     0
  0
SCALE
  5
53
102
{ACAD_REACTORS
330
42
102
}
330
42
100
AcDbScale
 70
     0
300
1'-0" = 1'-0"
140
12.0
141
12.0
290
     0
  0
TABLESTYLE
  5
65
102
{ACAD_XDICTIONARY
360
656
102
}
102
{ACAD_REACTORS
330
64
102
}
330
64
100
AcDbTableStyle
  3
Standard
 70
     0
 71
     0
 40
0.06
 41
0.06
280
     0
281
     0
  7
Standard
140
0.18
170
     2
 62
     0
 63
     7
283
     0
274
    -2
284
     1
 64
     0
275
    -2
285
     1
 65
     0
276
    -2
286
     1
 66
     0
277
    -2
287
     1
 67
     0
278
    -2
288
     1
 68
     0
279
    -2
289
     1
 69
     0
  7
Standard
140
0.25
170
     5
 62
     0
 63
     7
283
     0
274
    -2
284
     1
 64
     0
275
    -2
285
     1
 65
     0
276
    -2
286
     1
 66
     0
277
    -2
287
     1
 67
     0
278
    -2
288
     1
 68
     0
279
    -2
289
     1
 69
     0
  7
Standard
140
0.18
170
     5
 62
     0
 63
     7
283
     0
274
    -2
284
     1
 64
     0
275
    -2
285
     1
 65
     0
276
    -2
286
     1
 66
     0
277
    -2
287
     1
 67
     0
278
    -2
288
     1
 68
     0
279
    -2
289
     1
 69
     0
  0
VISUALSTYLE
  5
2F
102
{ACAD_XDICTIONARY
360
673
102
}
102
{ACAD_REACTORS
330
29
102
}
330
29
100
AcDbVisualStyle
  2
2dWireframe
 70
     4
 71
     0
 72
     2
 73
     0
 90
        0
 40
-0.6
 41
-30.0
 62
     5
 63
     7
421
 16777215
 74
     1
 91
        4
 64
     7
 65
   257
 75
     1
175
     1
 42
1.0
 92
        0
 66
   257
 43
1.0
 76
     1
 77
     6
 78
     2
 67
     7
 79
     5
170
     0
171
     0
290
     0
174
     0
 93
        1
 44
0.0
173
     0
291
     0
 45
0.0
1001
ACAD
1000
AcDbSavedByObjectVersion
1070
     0
  0
VISUALSTYLE
  5
2E
102
{ACAD_XDICTIONARY
360
671
102
}
102
{ACAD_REACTORS
330
29
102
}
330
29
100
AcDbVisualStyle
  2
Basic
 70
     7
 71
     1
 72
     0
 73
     1
 90
        0
 40
-0.6
 41
-30.0
 62
     5
 63
     7
421
 16777215
 74
     0
 91
        4
 64
     7
 65
   257
 75
     1
175
     1
 42
1.0
 92
        8
 66
     7
 43
1.0
 76
     1
 77
     6
 78
     2
 67
     7
 79
     5
170
     0
171
     0
290
     0
174
     0
 93
        1
 44
0.0
173
     0
291
     1
 45
0.0
1001
ACAD
1000
AcDbSavedByObjectVersion
1070
     0
  0
VISUALSTYLE
  5
35
102
{ACAD_XDICTIONARY
360
67F
102
}
102
{ACAD_REACTORS
330
29
102
}
330
29
100
AcDbVisualStyle
  2
Brighten
 70
    12
 71
     2
 72
     2
 73
     0
 90
        0
 40
-0.6
 41
-30.0
 62
     5
 63
     7
421
 16777215
 74
     1
 91
        4
 64
     7
 65
   257
 75
     1
175
     1
 42
1.0
 92
        8
 66
     7
 43
1.0
 76
     1
 77
     6
 78
     2
 67
     7
 79
     5
170
     0
171
     0
290
     0
174
     0
 93
        1
 44
50.0
173
     0
291
     1
 45
0.0
1001
ACAD
1000
AcDbSavedByObjectVersion
1070
     0
  0
VISUALSTYLE
  5
39
102
{ACAD_XDICTIONARY
360
687
102
}
102
{ACAD_REACTORS
330
29
102
}
330
29
100
AcDbVisualStyle
  2
ColorChange
 70
    16
 71
     2
 72
     2
 73
     3
 90
        0
 40
-0.6
 41
-30.0
 62
     5
 63
     8
421
  8421504
 74
     1
 91
        4
 64
     7
 65
   257
 75
     1
175
     1
 42
1.0
 92
        8
 66
     8
424
  8421504
 43
1.0
 76
     1
 77
     6
 78
     2
 67
     7
 79
     5
170
     0
171
     0
290
     0
174
     0
 93
        1
 44
0.0
173
     0
291
     1
 45
0.0
1001
ACAD
1000
AcDbSavedByObjectVersion
1070
     0
  0
VISUALSTYLE
  5
32
102
{ACAD_XDICTIONARY
360
679
102
}
102
{ACAD_REACTORS
330
29
102
}
330
29
100
AcDbVisualStyle
  2
Conceptual
 70
     9
 71
     3
 72
     2
 73
     0
 90
        0
 40
-0.6
 41
-30.0
 62
     5
 63
     7
421
 16777215
 74
     2
 91
        2
 64
     7
 65
   257
 75
     1
175
     1
 42
179.0
 92
        8
 66
     7
 43
1.0
 76
     1
 77
     6
 78
     2
 67
     7
 79
     3
170
     0
171
     0
290
     0
174
     0
 93
        1
 44
0.0
173
     0
291
     0
 45
0.0
1001
ACAD
1000
AcDbSavedByObjectVersion
1070
     0
  0
VISUALSTYLE
  5
34
102
{ACAD_XDICTIONARY
360
67D
102
}
102
{ACAD_REACTORS
330
29
102
}
330
29
100
AcDbVisualStyle
  2
Dim
 70
    11
 71
     2
 72
     2
 73
     0
 90
        0
 40
-0.6
 41
-30.0
 62
     5
 63
     7
421
 16777215
 74
     1
 91
        4
 64
     7
 65
   257
 75
     1
175
     1
 42
1.0
 92
        8
 66
     7
 43
1.0
 76
     1
 77
     6
 78
     2
 67
     7
 79
     5
170
     0
171
     0
290
     0
174
     0
 93
        1
 44
-50.0
173
     0
291
     1
 45
0.0
1001
ACAD
1000
AcDbSavedByObjectVersion
1070
     0
  0
VISUALSTYLE
  5
41
102
{ACAD_XDICTIONARY
360
697
102
}
102
{ACAD_REACTORS
330
29
102
}
330
29
100
AcDbVisualStyle
  2
EdgeColorOff
 70
    22
 71
     2
 72
     2
 73
     0
 90
        0
 40
-0.6
 41
-30.0
 62
     5
 63
     7
421
 16777215
 74
     1
 91
        4
 64
     7
 65
   257
 75
     1
175
     1
 42
1.0
 92
        8
 66
     7
 43
1.0
 76
     1
 77
     6
 78
     2
 67
     7
 79
     5
170
     0
171
     0
290
     0
174
     0
 93
        1
 44
0.0
173
     0
291
     1
 45
0.0
1001
ACAD
1000
AcDbSavedByObjectVersion
1070
     0
  0
VISUALSTYLE
  5
38
102
{ACAD_XDICTIONARY
360
685
102
}
102
{ACAD_REACTORS
330
29
102
}
330
29
100
AcDbVisualStyle
  2
Facepattern
 70
    15
 71
     2
 72
     2
 73
     0
 90
        0
 40
-0.6
 41
-30.0
 62
     5
 63
     7
421
 16777215
 74
     1
 91
        4
 64
     7
 65
   257
 75
     1
175
     1
 42
1.0
 92
        8
 66
     7
 43
1.0
 76
     1
 77
     6
 78
     2
 67
     7
 79
     5
170
     0
171
     0
290
     0
174
     0
 93
        1
 44
0.0
173
     0
291
     1
 45
0.0
1001
ACAD
1000
AcDbSavedByObjectVersion
1070
     0
  0
VISUALSTYLE
  5
2A
102
{ACAD_XDICTIONARY
360
669
102
}
102
{ACAD_REACTORS
330
29
102
}
330
29
100
AcDbVisualStyle
  2
Flat
 70
     0
 71
     2
 72
     1
 73
     1
 90
        2
 40
-0.6
 41
30.0
 62
     5
 63
     7
421
 16777215
 74
     0
 91
        0
 64
     7
 65
   257
 75
     1
175
     1
 42
1.0
 92
        8
 66
     7
 43
1.0
 76
     1
 77
     6
 78
     2
 67
     7
 79
     5
170
     0
171
     0
290
     0
174
     0
 93
       13
 44
0.0
173
     0
291
     1
 45
0.0
1001
ACAD
1000
AcDbSavedByObjectVersion
1070
     0
  0
VISUALSTYLE
  5
2B
102
{ACAD_XDICTIONARY
360
66B
102
}
102
{ACAD_REACTORS
330
29
102
}
330
29
100
AcDbVisualStyle
  2
FlatWithEdges
 70
     1
 71
     2
 72
     1
 73
     1
 90
        2
 40
-0.6
 41
30.0
 62
     5
 63
     7
421
 16777215
 74
     1
 91
        0
 64
     7
 65
   257
 75
     1
175
     1
 42
1.0
 92
        0
 66
   257
 43
1.0
 76
     1
 77
     6
 78
     2
 67
     7
 79
     5
170
     0
171
     0
290
     0
174
     0
 93
       13
 44
0.0
173
     0
291
     1
 45
0.0
1001
ACAD
1000
AcDbSavedByObjectVersion
1070
     0
  0
VISUALSTYLE
  5
2C
102
{ACAD_XDICTIONARY
360
66D
102
}
102
{ACAD_REACTORS
330
29
102
}
330
29
100
AcDbVisualStyle
  2
Gouraud
 70
     2
 71
     2
 72
     2
 73
     1
 90
        2
 40
-0.6
 41
30.0
 62
     5
 63
     7
421
 16777215
 74
     0
 91
        0
 64
     7
 65
   257
 75
     1
175
     1
 42
1.0
 92
        0
 66
     7
 43
1.0
 76
     1
 77
     6
 78
     2
 67
     7
 79
     5
170
     0
171
     0
290
     0
174
     0
 93
       13
 44
0.0
173
     0
291
     1
 45
0.0
1001
ACAD
1000
AcDbSavedByObjectVersion
1070
     0
  0
VISUALSTYLE
  5
2D
102
{ACAD_XDICTIONARY
360
66F
102
}
102
{ACAD_REACTORS
330
29
102
}
330
29
100
AcDbVisualStyle
  2
GouraudWithEdges
 70
     3
 71
     2
 72
     2
 73
     1
 90
        2
 40
-0.6
 41
30.0
 62
     5
 63
     7
421
 16777215
 74
     1
 91
        0
 64
     7
 65
   257
 75
     1
175
     1
 42
1.0
 92
        0
 66
   257
 43
1.0
 76
     1
 77
     6
 78
     2
 67
     7
 79
     5
170
     0
171
     0
290
     0
174
     0
 93
       13
 44
0.0
173
     0
291
     1
 45
0.0
1001
ACAD
1000
AcDbSavedByObjectVersion
1070
     0
  0
VISUALSTYLE
  5
31
102
{ACAD_XDICTIONARY
360
677
102
}
102
{ACAD_REACTORS
330
29
102
}
330
29
100
AcDbVisualStyle
  2
Hidden
 70
     6
 71
     1
 72
     2
 73
     2
 90
        0
 40
-0.6
 41
-30.0
 62
     5
 63
     7
421
 16777215
 74
     2
 91
        2
 64
     7
 65
   257
 75
     2
175
     1
 42
40.0
 92
        0
 66
   257
 43
1.0
 76
     1
 77
     6
 78
     2
 67
     7
 79
     3
170
     0
171
     0
290
     0
174
     0
 93
        1
 44
0.0
173
     0
291
     0
 45
0.0
1001
ACAD
1000
AcDbSavedByObjectVersion
1070
     0
  0
VISUALSTYLE
  5
3F
102
{ACAD_XDICTIONARY
360
693
102
}
102
{ACAD_REACTORS
330
29
102
}
330
29
100
AcDbVisualStyle
  2
JitterOff
 70
    20
 71
     2
 72
     2
 73
     0
 90
        0
 40
-0.6
 41
-30.0
 62
     5
 63
     7
421
 16777215
 74
     1
 91
        4
 64
     7
 65
   257
 75
     1
175
     1
 42
1.0
 92
       10
 66
     7
 43
1.0
 76
     1
 77
     6
 78
     2
 67
     7
 79
     5
170
     0
171
     0
290
     0
174
     0
 93
        1
 44
0.0
173
     0
291
     1
 45
0.0
1001
ACAD
1000
AcDbSavedByObjectVersion
1070
     0
  0
VISUALSTYLE
  5
37
102
{ACAD_XDICTIONARY
360
683
102
}
102
{ACAD_REACTORS
330
29
102
}
330
29
100
AcDbVisualStyle
  2
Linepattern
 70
    14
 71
     2
 72
     2
 73
     0
 90
        0
 40
-0.6
 41
-30.0
 62
     5
 63
     7
421
 16777215
 74
     1
 91
        4
 64
     7
 65
   257
 75
     7
175
     7
 42
1.0
 92
        8
 66
     7
 43
1.0
 76
     1
 77
     6
 78
     2
 67
     7
 79
     5
170
     0
171
     0
290
     0
174
     0
 93
        1
 44
0.0
173
     0
291
     1
 45
0.0
1001
ACAD
1000
AcDbSavedByObjectVersion
1070
     0
  0
VISUALSTYLE
  5
40
102
{ACAD_XDICTIONARY
360
695
102
}
102
{ACAD_REACTORS
330
29
102
}
330
29
100
AcDbVisualStyle
  2
OverhangOff
 70
    21
 71
     2
 72
     2
 73
     0
 90
        0
 40
-0.6
 41
-30.0
 62
     5
 63
     7
421
 16777215
 74
     1
 91
        4
 64
     7
 65
   257
 75
     1
175
     1
 42
1.0
 92
        9
 66
     7
 43
1.0
 76
     1
 77
     6
 78
     2
 67
     7
 79
     5
170
     0
171
     0
290
     0
174
     0
 93
        1
 44
0.0
173
     0
291
     1
 45
0.0
1001
ACAD
1000
AcDbSavedByObjectVersion
1070
     0
  0
VISUALSTYLE
  5
33
102
{ACAD_XDICTIONARY
360
67B
102
}
102
{ACAD_REACTORS
330
29
102
}
330
29
100
AcDbVisualStyle
  2
Realistic
 70
     8
 71
     2
 72
     3
 73
     0
 90
        2
 40
-0.6
 41
30.0
 62
     5
 63
     7
421
 16777215
 74
     0
 91
        0
 64
     7
 65
   257
 75
     1
175
     1
 42
1.0
 92
        8
 66
   257
 43
1.0
 76
     1
 77
     6
 78
     2
 67
     7
 79
     3
170
     0
171
     0
290
     0
174
     0
 93
       13
 44
0.0
173
     0
291
     0
 45
0.0
1001
ACAD
1000
AcDbSavedByObjectVersion
1070
     0
  0
VISUALSTYLE
  5
3E
102
{ACAD_XDICTIONARY
360
691
102
}
102
{ACAD_REACTORS
330
29
102
}
330
29
100
AcDbVisualStyle
  2
Shaded
 70
    27
 71
     2
 72
     2
 73
     1
 90
        2
 40
-0.6
 41
30.0
 62
     5
 63
     7
421
 16777215
 74
     0
 91
        4
 64
     7
 65
   257
 75
     1
175
     1
 42
1.0
 92
        8
 66
   257
 43
1.0
 76
     1
 77
     6
 78
     2
 67
     8
425
  7895160
 79
     3
170
     0
171
     0
290
     0
174
     0
 93
        5
 44
0.0
173
     0
291
     0
 45
0.0
1001
ACAD
1000
AcDbSavedByObjectVersion
1070
     0
  0
VISUALSTYLE
  5
3D
102
{ACAD_XDICTIONARY
360
68F
102
}
102
{ACAD_REACTORS
330
29
102
}
330
29
100
AcDbVisualStyle
  2
Shaded with edges
 70
    26
 71
     2
 72
     2
 73
     1
 90
        2
 40
-0.6
 41
30.0
 62
     5
 63
     7
421
 16777215
 74
     1
 91
       10
 64
     7
 65
   257
 75
     2
175
     1
 42
1.0
 92
        8
 66
   257
 43
1.0
 76
     1
 77
     6
 78
     2
 67
     7
 79
     3
170
     0
171
     0
290
     0
174
     0
 93
        5
 44
0.0
173
     0
291
     0
 45
0.0
1001
ACAD
1000
AcDbSavedByObjectVersion
1070
     0
  0
VISUALSTYLE
  5
3A
102
{ACAD_XDICTIONARY
360
689
102
}
102
{ACAD_REACTORS
330
29
102
}
330
29
100
AcDbVisualStyle
  2
Shades of Gray
 70
    23
 71
     2
 72
     2
 73
     3
 90
        0
 40
-0.6
 41
-30.0
 62
     5
 63
     7
421
 16777215
 74
     2
 91
        2
 64
     7
 65
     7
 75
     1
175
     1
 42
40.0
 92
        8
 66
     7
 43
1.0
 76
     1
 77
     6
 78
     2
 67
     7
 79
     3
170
     0
171
     0
290
     0
174
     0
 93
        1
 44
0.0
173
     0
291
     0
 45
0.0
1001
ACAD
1000
AcDbSavedByObjectVersion
1070
     0
  0
VISUALSTYLE
  5
3B
102
{ACAD_XDICTIONARY
360
68B
102
}
102
{ACAD_REACTORS
330
29
102
}
330
29
100
AcDbVisualStyle
  2
Sketchy
 70
    24
 71
     1
 72
     2
 73
     2
 90
        0
 40
-0.6
 41
-30.0
 62
     5
 63
     7
421
 16777215
 74
     2
 91
        2
 64
     7
 65
     7
 75
     1
175
     1
 42
40.0
 92
       11
 66
     7
 43
1.0
 76
     1
 77
     6
 78
     2
 67
     7
 79
     6
170
     0
171
     0
290
     0
174
     0
 93
        1
 44
0.0
173
     0
291
     0
 45
0.0
1001
ACAD
1000
AcDbSavedByObjectVersion
1070
     0
  0
VISUALSTYLE
  5
36
102
{ACAD_XDICTIONARY
360
681
102
}
102
{ACAD_REACTORS
330
29
102
}
330
29
100
AcDbVisualStyle
  2
Thicken
 70
    13
 71
     2
 72
     2
 73
     0
 90
        0
 40
-0.6
 41
-30.0
 62
     5
 63
     7
421
 16777215
 74
     1
 91
        4
 64
     7
 65
   257
 75
     1
175
     1
 42
1.0
 92
       12
 66
     7
 43
1.0
 76
     1
 77
     6
 78
     2
 67
     7
 79
     5
170
     0
171
     0
290
     0
174
     0
 93
        1
 44
0.0
173
     0
291
     1
 45
0.0
1001
ACAD
1000
AcDbSavedByObjectVersion
1070
     0
  0
VISUALSTYLE
  5
30
102
{ACAD_XDICTIONARY
360
675
102
}
102
{ACAD_REACTORS
330
29
102
}
330
29
100
AcDbVisualStyle
  2
Wireframe
 70
     5
 71
     0
 72
     2
 73
     0
 90
        0
 40
-0.6
 41
-30.0
 62
     5
 63
     7
421
 16777215
 74
     1
 91
        4
 64
     7
 65
   257
 75
     1
175
     1
 42
1.0
 92
        0
 66
   257
 43
1.0
 76
     1
 77
     6
 78
     2
 67
     7
 79
     3
170
     0
171
     0
290
     0
174
     0
 93
        1
 44
0.0
173
     0
291
     0
 45
0.0
1001
ACAD
1000
AcDbSavedByObjectVersion
1070
     0
  0
VISUALSTYLE
  5
3C
102
{ACAD_XDICTIONARY
360
68D
102
}
102
{ACAD_REACTORS
330
29
102
}
330
29
100
AcDbVisualStyle
  2
X-Ray
 70
    25
 71
     2
 72
     2
 73
     1
 90
        1
 40
0.5
 41
-30.0
 62
     5
 63
     7
421
 16777215
 74
     1
 91
        0
 64
     7
 65
   257
 75
     1
175
     1
 42
1.0
 92
        8
 66
     7
 43
1.0
 76
     1
 77
     6
 78
     2
 67
     7
 79
     3
170
     0
171
     0
290
     0
174
     0
 93
       13
 44
0.0
173
     0
291
     0
 45
0.0
1001
ACAD
1000
AcDbSavedByObjectVersion
1070
     0
  0
DICTIONARYVAR
  5
651
102
{ACAD_REACTORS
330
64D
102
}
330
64D
100
DictionaryVariables
280
     0
  1
1:1
  0
DICTIONARYVAR
  5
64F
102
{ACAD_REACTORS
330
64D
102
}
330
64D
100
DictionaryVariables
280
     0
  1
STANDARD
  0
DICTIONARYVAR
  5
64E
102
{ACAD_REACTORS
330
64D
102
}
330
64D
100
DictionaryVariables
280
     0
  1
STANDARD
  0
DICTIONARYVAR
  5
653
102
{ACAD_REACTORS
330
64D
102
}
330
64D
100
DictionaryVariables
280
     0
  1
0
  0
DICTIONARYVAR
  5
654
102
{ACAD_REACTORS
330
64D
102
}
330
64D
100
DictionaryVariables
280
     0
  1
0
  0
DICTIONARYVAR
  5
652
102
{ACAD_REACTORS
330
64D
102
}
330
64D
100
DictionaryVariables
280
     0
  1
2
  0
DICTIONARYVAR
  5
650
102
{ACAD_REACTORS
330
64D
102
}
330
64D
100
DictionaryVariables
280
     0
  1
1
  0
DICTIONARYVAR
  5
655
102
{ACAD_REACTORS
330
64D
102
}
330
64D
100
DictionaryVariables
280
     0
  1
2
  0
DICTIONARY
  5
1A
330
19
100
AcDbDictionary
280
     1
281
     1
  3
ACAD_XREC_ROUNDTRIP
360
667
  3
BUMPTILE
360
1C
  3
DIFFUSETILE
360
1B
  3
OPACITYTILE
360
1F
  3
REFLECTIONTILE
360
1E
  3
REFRACTIONTILE
360
20
  3
SPECULARTILE
360
1D
  0
DICTIONARY
  5
12
330
11
100
AcDbDictionary
280
     1
281
     1
  3
ACAD_XREC_ROUNDTRIP
360
666
  3
BUMPTILE
360
14
  3
DIFFUSETILE
360
13
  3
OPACITYTILE
360
17
  3
REFLECTIONTILE
360
16
  3
REFRACTIONTILE
360
18
  3
SPECULARTILE
360
15
  0
DICTIONARY
  5
22
330
21
100
AcDbDictionary
280
     1
281
     1
  3
ACAD_XREC_ROUNDTRIP
360
668
  3
BUMPTILE
360
24
  3
DIFFUSETILE
360
23
  3
OPACITYTILE
360
27
  3
REFLECTIONTILE
360
26
  3
REFRACTIONTILE
360
28
  3
SPECULARTILE
360
25
  0
DICTIONARY
  5
656
330
65
100
AcDbDictionary
280
     1
281
     1
  3
ACAD_ROUNDTRIP_2008_TABLESTYLE_CELLSTYLEMAP
360
657
  3
ACAD_XREC_ROUNDTRIP
360
699
  0
DICTIONARY
  5
673
330
2F
100
AcDbDictionary
280
     1
281
     1
  3
ACAD_XREC_ROUNDTRIP
360
674
  0
DICTIONARY
  5
671
330
2E
100
AcDbDictionary
280
     1
281
     1
  3
ACAD_XREC_ROUNDTRIP
360
672
  0
DICTIONARY
  5
67F
330
35
100
AcDbDictionary
280
     1
281
     1
  3
ACAD_XREC_ROUNDTRIP
360
680
  0
DICTIONARY
  5
687
330
39
100
AcDbDictionary
280
     1
281
     1
  3
ACAD_XREC_ROUNDTRIP
360
688
  0
DICTIONARY
  5
679
330
32
100
AcDbDictionary
280
     1
281
     1
  3
ACAD_XREC_ROUNDTRIP
360
67A
  0
DICTIONARY
  5
67D
330
34
100
AcDbDictionary
280
     1
281
     1
  3
ACAD_XREC_ROUNDTRIP
360
67E
  0
DICTIONARY
  5
697
330
41
100
AcDbDictionary
280
     1
281
     1
  3
ACAD_XREC_ROUNDTRIP
360
698
  0
DICTIONARY
  5
685
330
38
100
AcDbDictionary
280
     1
281
     1
  3
ACAD_XREC_ROUNDTRIP
360
686
  0
DICTIONARY
  5
669
330
2A
100
AcDbDictionary
280
     1
281
     1
  3
ACAD_XREC_ROUNDTRIP
360
66A
  0
DICTIONARY
  5
66B
330
2B
100
AcDbDictionary
280
     1
281
     1
  3
ACAD_XREC_ROUNDTRIP
360
66C
  0
DICTIONARY
  5
66D
330
2C
100
AcDbDictionary
280
     1
281
     1
  3
ACAD_XREC_ROUNDTRIP
360
66E
  0
DICTIONARY
  5
66F
330
2D
100
AcDbDictionary
280
     1
281
     1
  3
ACAD_XREC_ROUNDTRIP
360
670
  0
DICTIONARY
  5
677
330
31
100
AcDbDictionary
280
     1
281
     1
  3
ACAD_XREC_ROUNDTRIP
360
678
  0
DICTIONARY
  5
693
330
3F
100
AcDbDictionary
280
     1
281
     1
  3
ACAD_XREC_ROUNDTRIP
360
694
  0
DICTIONARY
  5
683
330
37
100
AcDbDictionary
280
     1
281
     1
  3
ACAD_XREC_ROUNDTRIP
360
684
  0
DICTIONARY
  5
695
330
40
100
AcDbDictionary
280
     1
281
     1
  3
ACAD_XREC_ROUNDTRIP
360
696
  0
DICTIONARY
  5
67B
330
33
100
AcDbDictionary
280
     1
281
     1
  3
ACAD_XREC_ROUNDTRIP
360
67C
  0
DICTIONARY
  5
691
330
3E
100
AcDbDictionary
280
     1
281
     1
  3
ACAD_XREC_ROUNDTRIP
360
692
  0
DICTIONARY
  5
68F
330
3D
100
AcDbDictionary
280
     1
281
     1
  3
ACAD_XREC_ROUNDTRIP
360
690
  0
DICTIONARY
  5
689
330
3A
100
AcDbDictionary
280
     1
281
     1
  3
ACAD_XREC_ROUNDTRIP
360
68A
  0
DICTIONARY
  5
68B
330
3B
100
AcDbDictionary
280
     1
281
     1
  3
ACAD_XREC_ROUNDTRIP
360
68C
  0
DICTIONARY
  5
681
330
36
100
AcDbDictionary
280
     1
281
     1
  3
ACAD_XREC_ROUNDTRIP
360
682
  0
DICTIONARY
  5
675
330
30
100
AcDbDictionary
280
     1
281
     1
  3
ACAD_XREC_ROUNDTRIP
360
676
  0
DICTIONARY
  5
68D
330
3C
100
AcDbDictionary
280
     1
281
     1
  3
ACAD_XREC_ROUNDTRIP
360
68E
  0
XRECORD
  5
667
102
{ACAD_REACTORS
330
1A
102
}
330
1A
100
AcDbXrecord
280
     1
102
MATERIAL
148
0.0
149
0.0
149
0.0
 93
        0
 94
      127
282
     0
 72
     0
 77
     0
171
     0
175
     0
179
     0
273
     0
  0
XRECORD
  5
1C
102
{ACAD_REACTORS
330
1A
102
}
330
1A
100
AcDbXrecord
280
     1
270
     1
271
     1
  0
XRECORD
  5
1B
102
{ACAD_REACTORS
330
1A
102
}
330
1A
100
AcDbXrecord
280
     1
270
     1
271
     1
  0
XRECORD
  5
1F
102
{ACAD_REACTORS
330
1A
102
}
330
1A
100
AcDbXrecord
280
     1
270
     1
271
     1
  0
XRECORD
  5
1E
102
{ACAD_REACTORS
330
1A
102
}
330
1A
100
AcDbXrecord
280
     1
270
     1
271
     1
  0
XRECORD
  5
20
102
{ACAD_REACTORS
330
1A
102
}
330
1A
100
AcDbXrecord
280
     1
270
     1
271
     1
  0
XRECORD
  5
1D
102
{ACAD_REACTORS
330
1A
102
}
330
1A
100
AcDbXrecord
280
     1
270
     1
271
     1
  0
XRECORD
  5
666
102
{ACAD_REACTORS
330
12
102
}
330
12
100
AcDbXrecord
280
     1
102
MATERIAL
148
0.0
149
0.0
149
0.0
 93
        0
 94
      127
282
     0
 72
     0
 77
     0
171
     0
175
     0
179
     0
273
     0
  0
XRECORD
  5
14
102
{ACAD_REACTORS
330
12
102
}
330
12
100
AcDbXrecord
280
     1
270
     1
271
     1
  0
XRECORD
  5
13
102
{ACAD_REACTORS
330
12
102
}
330
12
100
AcDbXrecord
280
     1
270
     1
271
     1
  0
XRECORD
  5
17
102
{ACAD_REACTORS
330
12
102
}
330
12
100
AcDbXrecord
280
     1
270
     1
271
     1
  0
XRECORD
  5
16
102
{ACAD_REACTORS
330
12
102
}
330
12
100
AcDbXrecord
280
     1
270
     1
271
     1
  0
XRECORD
  5
18
102
{ACAD_REACTORS
330
12
102
}
330
12
100
AcDbXrecord
280
     1
270
     1
271
     1
  0
XRECORD
  5
15
102
{ACAD_REACTORS
330
12
102
}
330
12
100
AcDbXrecord
280
     1
270
     1
271
     1
  0
XRECORD
  5
668
102
{ACAD_REACTORS
330
22
102
}
330
22
100
AcDbXrecord
280
     1
102
MATERIAL
148
0.0
149
0.0
149
0.0
 93
        0
 94
      127
282
     0
 72
     0
 77
     0
171
     0
175
     0
179
     0
273
     0
  0
XRECORD
  5
24
102
{ACAD_REACTORS
330
22
102
}
330
22
100
AcDbXrecord
280
     1
270
     1
271
     1
  0
XRECORD
  5
23
102
{ACAD_REACTORS
330
22
102
}
330
22
100
AcDbXrecord
280
     1
270
     1
271
     1
  0
XRECORD
  5
27
102
{ACAD_REACTORS
330
22
102
}
330
22
100
AcDbXrecord
280
     1
270
     1
271
     1
  0
XRECORD
  5
26
102
{ACAD_REACTORS
330
22
102
}
330
22
100
AcDbXrecord
280
     1
270
     1
271
     1
  0
XRECORD
  5
28
102
{ACAD_REACTORS
330
22
102
}
330
22
100
AcDbXrecord
280
     1
270
     1
271
     1
  0
XRECORD
  5
25
102
{ACAD_REACTORS
330
22
102
}
330
22
100
AcDbXrecord
280
     1
270
     1
271
     1
  0
CELLSTYLEMAP
  5
657
102
{ACAD_REACTORS
330
656
102
}
330
656
100
AcDbCellStyleMap
 90
        3
300
CELLSTYLE
  1
TABLEFORMAT_BEGIN
 90
        5
170
     1
 91
        0
 92
    32768
 62
   257
 93
        1
300
CONTENTFORMAT
  1
CONTENTFORMAT_BEGIN
 90
        0
 91
        0
 92
      512
 93
        0
300

 40
0.0
140
1.0
 94
        5
 62
     0
340
55
144
0.25
309
CONTENTFORMAT_END
171
     0
 94
        0
309
TABLEFORMAT_END
  1
CELLSTYLE_BEGIN
 90
        1
 91
        1
300
_TITLE
309
CELLSTYLE_END
300
CELLSTYLE
  1
TABLEFORMAT_BEGIN
 90
        5
170
     1
 91
        0
 92
        0
 62
   257
 93
        1
300
CONTENTFORMAT
  1
CONTENTFORMAT_BEGIN
 90
        0
 91
        0
 92
      512
 93
        0
300

 40
0.0
140
1.0
 94
        5
 62
     0
340
55
144
0.18
309
CONTENTFORMAT_END
171
     0
 94
        0
309
TABLEFORMAT_END
  1
CELLSTYLE_BEGIN
 90
        2
 91
        1
300
_HEADER
309
CELLSTYLE_END
300
CELLSTYLE
  1
TABLEFORMAT_BEGIN
 90
        5
170
     1
 91
        0
 92
        0
 62
   257
 93
        1
300
CONTENTFORMAT
  1
CONTENTFORMAT_BEGIN
 90
        0
 91
        0
 92
      512
 93
        0
300

 40
0.0
140
1.0
 94
        2
 62
     0
340
55
144
0.18
309
CONTENTFORMAT_END
171
     0
 94
        0
309
TABLEFORMAT_END
  1
CELLSTYLE_BEGIN
 90
        3
 91
        2
300
_DATA
309
CELLSTYLE_END
  0
XRECORD
  5
699
102
{ACAD_REACTORS
330
656
102
}
330
656
100
AcDbXrecord
280
     1
102
ACAD_ROUNDTRIP_PRE2007_TABLESTYLE
 90
      512
 91
        0
  1

 92
      512
 93
        0
  2

 94
      512
 95
        0
  3

  0
XRECORD
  5
674
102
{ACAD_REACTORS
330
673
102
}
330
673
100
AcDbXrecord
280
     1
102
RTVSPropertyOp0
 70
     1
102
RTVSPropertyOp1
 70
     1
102
RTVSPropertyOp2
 70
     1
102
RTVSPropertyOp3
 70
     1
102
RTVSPropertyOp4
 70
     1
102
RTVSPropertyOp5
 70
     1
102
RTVSPropertyOp6
 70
     1
102
RTVSPropertyOp7
 70
     1
102
RTVSPropertyOp8
 70
     1
102
RTVSPropertyOp9
 70
     1
102
RTVSPropertyOp10
 70
     1
102
RTVSPropertyOp11
 70
     1
102
RTVSPropertyOp12
 70
     1
102
RTVSPropertyOp13
 70
     1
102
RTVSPropertyOp14
 70
     1
102
RTVSPropertyOp15
 70
     1
102
RTVSPropertyOp16
 70
     1
102
RTVSPropertyOp17
 70
     1
102
RTVSPropertyOp18
 70
     1
102
RTVSPropertyOp19
 70
     1
102
RTVSPropertyOp20
 70
     1
102
RTVSPropertyOp21
 70
     1
102
RTVSPropertyOp22
 70
     1
102
RTVSPropertyOp23
 70
     1
102
RTVSPropertyOp24
 70
     1
102
RTVSPropertyOp25
 70
     1
102
RTVSPropertyOp26
 70
     1
102
RTVSPropertyOp27
 70
     1
102
RTVSPropertyOp28
 70
     1
102
RTVSPropertyOp29
 70
     1
102
RTVSPropertyOp30
 70
     1
102
RTVSPropertyOp31
 70
     1
102
RTVSPropertyOp32
 70
     1
  0
XRECORD
  5
672
102
{ACAD_REACTORS
330
671
102
}
330
671
100
AcDbXrecord
280
     1
102
RTVSPropertyOp0
 70
     1
102
RTVSPropertyOp1
 70
     1
102
RTVSPropertyOp2
 70
     1
102
RTVSPropertyOp3
 70
     1
102
RTVSPropertyOp4
 70
     1
102
RTVSPropertyOp5
 70
     1
102
RTVSPropertyOp6
 70
     1
102
RTVSPropertyOp7
 70
     1
102
RTVSPropertyOp8
 70
     1
102
RTVSPropertyOp9
 70
     1
102
RTVSPropertyOp10
 70
     1
102
RTVSPropertyOp11
 70
     1
102
RTVSPropertyOp12
 70
     1
102
RTVSPropertyOp13
 70
     1
102
RTVSPropertyOp14
 70
     1
102
RTVSPropertyOp15
 70
     1
102
RTVSPropertyOp16
 70
     1
102
RTVSPropertyOp17
 70
     1
102
RTVSPropertyOp18
 70
     1
102
RTVSPropertyOp19
 70
     1
102
RTVSPropertyOp20
 70
     1
102
RTVSPropertyOp21
 70
     1
102
RTVSPropertyOp22
 70
     1
102
RTVSPropertyOp23
 70
     1
102
RTVSPropertyOp24
 70
     1
102
RTVSPropertyOp25
 70
     1
102
RTVSPropertyOp26
 70
     1
102
RTVSPropertyOp27
 70
     1
102
RTVSPropertyOp28
 70
     1
102
RTVSPropertyOp29
 70
     1
102
RTVSPropertyOp30
 70
     1
102
RTVSPropertyOp31
 70
     1
102
RTVSPropertyOp32
 70
     1
  0
XRECORD
  5
680
102
{ACAD_REACTORS
330
67F
102
}
330
67F
100
AcDbXrecord
280
     1
102
RTVSPropertyOp0
 70
     1
102
RTVSPropertyOp1
 70
     1
102
RTVSPropertyOp2
 70
     1
102
RTVSPropertyOp3
 70
     1
102
RTVSPropertyOp4
 70
     1
102
RTVSPropertyOp5
 70
     1
102
RTVSPropertyOp6
 70
     1
102
RTVSPropertyOp7
 70
     1
102
RTVSPropertyOp8
 70
     1
102
RTVSPropertyOp9
 70
     1
102
RTVSPropertyOp10
 70
     1
102
RTVSPropertyOp11
 70
     1
102
RTVSPropertyOp12
 70
     1
102
RTVSPropertyOp13
 70
     1
102
RTVSPropertyOp14
 70
     1
102
RTVSPropertyOp15
 70
     1
102
RTVSPropertyOp16
 70
     1
102
RTVSPropertyOp17
 70
     1
102
RTVSPropertyOp18
 70
     1
102
RTVSPropertyOp19
 70
     1
102
RTVSPropertyOp20
 70
     1
102
RTVSPropertyOp21
 70
     1
102
RTVSPropertyOp22
 70
     1
102
RTVSPropertyOp23
 70
     1
102
RTVSPropertyOp24
 70
     1
102
RTVSPropertyOp25
 70
     1
102
RTVSPropertyOp26
 70
     1
102
RTVSPropertyOp27
 70
     1
102
RTVSPropertyOp28
 70
     1
102
RTVSPropertyOp29
 70
     1
102
RTVSPropertyOp30
 70
     1
102
RTVSPropertyOp31
 70
     1
102
RTVSPropertyOp32
 70
     1
  0
XRECORD
  5
688
102
{ACAD_REACTORS
330
687
102
}
330
687
100
AcDbXrecord
280
     1
102
RTVSPropertyOp0
 70
     1
102
RTVSPropertyOp1
 70
     1
102
RTVSPropertyOp2
 70
     1
102
RTVSPropertyOp3
 70
     1
102
RTVSPropertyOp4
 70
     1
102
RTVSPropertyOp5
 70
     1
102
RTVSPropertyOp6
 70
     1
102
RTVSPropertyOp7
 70
     1
102
RTVSPropertyOp8
 70
     1
102
RTVSPropertyOp9
 70
     1
102
RTVSPropertyOp10
 70
     1
102
RTVSPropertyOp11
 70
     1
102
RTVSPropertyOp12
 70
     1
102
RTVSPropertyOp13
 70
     1
102
RTVSPropertyOp14
 70
     1
102
RTVSPropertyOp15
 70
     1
102
RTVSPropertyOp16
 70
     1
102
RTVSPropertyOp17
 70
     1
102
RTVSPropertyOp18
 70
     1
102
RTVSPropertyOp19
 70
     1
102
RTVSPropertyOp20
 70
     1
102
RTVSPropertyOp21
 70
     1
102
RTVSPropertyOp22
 70
     1
102
RTVSPropertyOp23
 70
     1
102
RTVSPropertyOp24
 70
     1
102
RTVSPropertyOp25
 70
     1
102
RTVSPropertyOp26
 70
     1
102
RTVSPropertyOp27
 70
     1
102
RTVSPropertyOp28
 70
     1
102
RTVSPropertyOp29
 70
     1
102
RTVSPropertyOp30
 70
     1
102
RTVSPropertyOp31
 70
     1
102
RTVSPropertyOp32
 70
     1
  0
XRECORD
  5
67A
102
{ACAD_REACTORS
330
679
102
}
330
679
100
AcDbXrecord
280
     1
102
RTVSPropertyOp0
 70
     1
102
RTVSPropertyOp1
 70
     1
102
RTVSPropertyOp2
 70
     1
102
RTVSPropertyOp3
 70
     1
102
RTVSPropertyOp4
 70
     1
102
RTVSPropertyOp5
 70
     1
102
RTVSPropertyOp6
 70
     1
102
RTVSPropertyOp7
 70
     1
102
RTVSPropertyOp8
 70
     1
102
RTVSPropertyOp9
 70
     1
102
RTVSPropertyOp10
 70
     1
102
RTVSPropertyOp11
 70
     1
102
RTVSPropertyOp12
 70
     1
102
RTVSPropertyOp13
 70
     1
102
RTVSPropertyOp14
 70
     1
102
RTVSPropertyOp15
 70
     1
102
RTVSPropertyOp16
 70
     1
102
RTVSPropertyOp17
 70
     1
102
RTVSPropertyOp18
 70
     1
102
RTVSPropertyOp19
 70
     1
102
RTVSPropertyOp20
 70
     1
102
RTVSPropertyOp21
 70
     1
102
RTVSPropertyOp22
 70
     1
102
RTVSPropertyOp23
 70
     1
102
RTVSPropertyOp24
 70
     1
102
RTVSPropertyOp25
 70
     1
102
RTVSPropertyOp26
 70
     1
102
RTVSPropertyOp27
 70
     1
102
RTVSPropertyOp28
 70
     1
102
RTVSPropertyOp29
 70
     1
102
RTVSPropertyOp30
 70
     1
102
RTVSPropertyOp31
 70
     1
102
RTVSPropertyOp32
 70
     1
  0
XRECORD
  5
67E
102
{ACAD_REACTORS
330
67D
102
}
330
67D
100
AcDbXrecord
280
     1
102
RTVSPropertyOp0
 70
     1
102
RTVSPropertyOp1
 70
     1
102
RTVSPropertyOp2
 70
     1
102
RTVSPropertyOp3
 70
     1
102
RTVSPropertyOp4
 70
     1
102
RTVSPropertyOp5
 70
     1
102
RTVSPropertyOp6
 70
     1
102
RTVSPropertyOp7
 70
     1
102
RTVSPropertyOp8
 70
     1
102
RTVSPropertyOp9
 70
     1
102
RTVSPropertyOp10
 70
     1
102
RTVSPropertyOp11
 70
     1
102
RTVSPropertyOp12
 70
     1
102
RTVSPropertyOp13
 70
     1
102
RTVSPropertyOp14
 70
     1
102
RTVSPropertyOp15
 70
     1
102
RTVSPropertyOp16
 70
     1
102
RTVSPropertyOp17
 70
     1
102
RTVSPropertyOp18
 70
     1
102
RTVSPropertyOp19
 70
     1
102
RTVSPropertyOp20
 70
     1
102
RTVSPropertyOp21
 70
     1
102
RTVSPropertyOp22
 70
     1
102
RTVSPropertyOp23
 70
     1
102
RTVSPropertyOp24
 70
     1
102
RTVSPropertyOp25
 70
     1
102
RTVSPropertyOp26
 70
     1
102
RTVSPropertyOp27
 70
     1
102
RTVSPropertyOp28
 70
     1
102
RTVSPropertyOp29
 70
     1
102
RTVSPropertyOp30
 70
     1
102
RTVSPropertyOp31
 70
     1
102
RTVSPropertyOp32
 70
     1
  0
XRECORD
  5
698
102
{ACAD_REACTORS
330
697
102
}
330
697
100
AcDbXrecord
280
     1
102
RTVSPropertyOp0
 70
     0
102
RTVSPropertyOp1
 70
     0
102
RTVSPropertyOp2
 70
     0
102
RTVSPropertyOp3
 70
     0
102
RTVSPropertyOp4
 70
     0
102
RTVSPropertyOp5
 70
     0
102
RTVSPropertyOp6
 70
     0
102
RTVSPropertyOp7
 70
     0
102
RTVSPropertyOp8
 70
     0
102
RTVSPropertyOp9
 70
     0
102
RTVSPropertyOp10
 70
     0
102
RTVSPropertyOp11
 70
     0
102
RTVSPropertyOp12
 70
     0
102
RTVSPropertyOp13
 70
     0
102
RTVSPropertyOp14
 70
     2
102
RTVSPropertyOp15
 70
     0
102
RTVSPropertyOp16
 70
     0
102
RTVSPropertyOp17
 70
     0
102
RTVSPropertyOp18
 70
     0
102
RTVSPropertyOp19
 70
     0
102
RTVSPropertyOp20
 70
     0
102
RTVSPropertyOp21
 70
     0
102
RTVSPropertyOp22
 70
     0
102
RTVSPropertyOp23
 70
     0
102
RTVSPropertyOp24
 70
     0
102
RTVSPropertyOp25
 70
     0
102
RTVSPropertyOp26
 70
     0
102
RTVSPropertyOp27
 70
     0
102
RTVSPropertyOp28
 70
     0
102
RTVSPropertyOp29
 70
     0
102
RTVSPropertyOp30
 70
     0
102
RTVSPropertyOp31
 70
     0
102
RTVSPropertyOp32
 70
     0
  0
XRECORD
  5
686
102
{ACAD_REACTORS
330
685
102
}
330
685
100
AcDbXrecord
280
     1
102
RTVSPropertyOp0
 70
     1
102
RTVSPropertyOp1
 70
     1
102
RTVSPropertyOp2
 70
     1
102
RTVSPropertyOp3
 70
     1
102
RTVSPropertyOp4
 70
     1
102
RTVSPropertyOp5
 70
     1
102
RTVSPropertyOp6
 70
     1
102
RTVSPropertyOp7
 70
     1
102
RTVSPropertyOp8
 70
     1
102
RTVSPropertyOp9
 70
     1
102
RTVSPropertyOp10
 70
     1
102
RTVSPropertyOp11
 70
     1
102
RTVSPropertyOp12
 70
     1
102
RTVSPropertyOp13
 70
     1
102
RTVSPropertyOp14
 70
     1
102
RTVSPropertyOp15
 70
     1
102
RTVSPropertyOp16
 70
     1
102
RTVSPropertyOp17
 70
     1
102
RTVSPropertyOp18
 70
     1
102
RTVSPropertyOp19
 70
     1
102
RTVSPropertyOp20
 70
     1
102
RTVSPropertyOp21
 70
     1
102
RTVSPropertyOp22
 70
     1
102
RTVSPropertyOp23
 70
     1
102
RTVSPropertyOp24
 70
     1
102
RTVSPropertyOp25
 70
     1
102
RTVSPropertyOp26
 70
     1
102
RTVSPropertyOp27
 70
     1
102
RTVSPropertyOp28
 70
     1
102
RTVSPropertyOp29
 70
     1
102
RTVSPropertyOp30
 70
     1
102
RTVSPropertyOp31
 70
     1
102
RTVSPropertyOp32
 70
     1
  0
XRECORD
  5
66A
102
{ACAD_REACTORS
330
669
102
}
330
669
100
AcDbXrecord
280
     1
102
RTVSPropertyOp0
 70
     1
102
RTVSPropertyOp1
 70
     1
102
RTVSPropertyOp2
 70
     1
102
RTVSPropertyOp3
 70
     1
102
RTVSPropertyOp4
 70
     1
102
RTVSPropertyOp5
 70
     1
102
RTVSPropertyOp6
 70
     1
102
RTVSPropertyOp7
 70
     1
102
RTVSPropertyOp8
 70
     1
102
RTVSPropertyOp9
 70
     1
102
RTVSPropertyOp10
 70
     1
102
RTVSPropertyOp11
 70
     1
102
RTVSPropertyOp12
 70
     1
102
RTVSPropertyOp13
 70
     1
102
RTVSPropertyOp14
 70
     1
102
RTVSPropertyOp15
 70
     1
102
RTVSPropertyOp16
 70
     1
102
RTVSPropertyOp17
 70
     1
102
RTVSPropertyOp18
 70
     1
102
RTVSPropertyOp19
 70
     1
102
RTVSPropertyOp20
 70
     1
102
RTVSPropertyOp21
 70
     1
102
RTVSPropertyOp22
 70
     1
102
RTVSPropertyOp23
 70
     1
102
RTVSPropertyOp24
 70
     1
102
RTVSPropertyOp25
 70
     1
102
RTVSPropertyOp26
 70
     1
102
RTVSPropertyOp27
 70
     1
102
RTVSPropertyOp28
 70
     1
102
RTVSPropertyOp29
 70
     1
102
RTVSPropertyOp30
 70
     1
102
RTVSPropertyOp31
 70
     1
102
RTVSPropertyOp32
 70
     1
  0
XRECORD
  5
66C
102
{ACAD_REACTORS
330
66B
102
}
330
66B
100
AcDbXrecord
280
     1
102
RTVSPropertyOp0
 70
     1
102
RTVSPropertyOp1
 70
     1
102
RTVSPropertyOp2
 70
     1
102
RTVSPropertyOp3
 70
     1
102
RTVSPropertyOp4
 70
     1
102
RTVSPropertyOp5
 70
     1
102
RTVSPropertyOp6
 70
     1
102
RTVSPropertyOp7
 70
     1
102
RTVSPropertyOp8
 70
     1
102
RTVSPropertyOp9
 70
     1
102
RTVSPropertyOp10
 70
     1
102
RTVSPropertyOp11
 70
     1
102
RTVSPropertyOp12
 70
     1
102
RTVSPropertyOp13
 70
     1
102
RTVSPropertyOp14
 70
     1
102
RTVSPropertyOp15
 70
     1
102
RTVSPropertyOp16
 70
     1
102
RTVSPropertyOp17
 70
     1
102
RTVSPropertyOp18
 70
     1
102
RTVSPropertyOp19
 70
     1
102
RTVSPropertyOp20
 70
     1
102
RTVSPropertyOp21
 70
     1
102
RTVSPropertyOp22
 70
     1
102
RTVSPropertyOp23
 70
     1
102
RTVSPropertyOp24
 70
     1
102
RTVSPropertyOp25
 70
     1
102
RTVSPropertyOp26
 70
     1
102
RTVSPropertyOp27
 70
     1
102
RTVSPropertyOp28
 70
     1
102
RTVSPropertyOp29
 70
     1
102
RTVSPropertyOp30
 70
     1
102
RTVSPropertyOp31
 70
     1
102
RTVSPropertyOp32
 70
     1
  0
XRECORD
  5
66E
102
{ACAD_REACTORS
330
66D
102
}
330
66D
100
AcDbXrecord
280
     1
102
RTVSPropertyOp0
 70
     1
102
RTVSPropertyOp1
 70
     1
102
RTVSPropertyOp2
 70
     1
102
RTVSPropertyOp3
 70
     1
102
RTVSPropertyOp4
 70
     1
102
RTVSPropertyOp5
 70
     1
102
RTVSPropertyOp6
 70
     1
102
RTVSPropertyOp7
 70
     1
102
RTVSPropertyOp8
 70
     1
102
RTVSPropertyOp9
 70
     1
102
RTVSPropertyOp10
 70
     1
102
RTVSPropertyOp11
 70
     1
102
RTVSPropertyOp12
 70
     1
102
RTVSPropertyOp13
 70
     1
102
RTVSPropertyOp14
 70
     1
102
RTVSPropertyOp15
 70
     1
102
RTVSPropertyOp16
 70
     1
102
RTVSPropertyOp17
 70
     1
102
RTVSPropertyOp18
 70
     1
102
RTVSPropertyOp19
 70
     1
102
RTVSPropertyOp20
 70
     1
102
RTVSPropertyOp21
 70
     1
102
RTVSPropertyOp22
 70
     1
102
RTVSPropertyOp23
 70
     1
102
RTVSPropertyOp24
 70
     1
102
RTVSPropertyOp25
 70
     1
102
RTVSPropertyOp26
 70
     1
102
RTVSPropertyOp27
 70
     1
102
RTVSPropertyOp28
 70
     1
102
RTVSPropertyOp29
 70
     1
102
RTVSPropertyOp30
 70
     1
102
RTVSPropertyOp31
 70
     1
102
RTVSPropertyOp32
 70
     1
  0
XRECORD
  5
670
102
{ACAD_REACTORS
330
66F
102
}
330
66F
100
AcDbXrecord
280
     1
102
RTVSPropertyOp0
 70
     1
102
RTVSPropertyOp1
 70
     1
102
RTVSPropertyOp2
 70
     1
102
RTVSPropertyOp3
 70
     1
102
RTVSPropertyOp4
 70
     1
102
RTVSPropertyOp5
 70
     1
102
RTVSPropertyOp6
 70
     1
102
RTVSPropertyOp7
 70
     1
102
RTVSPropertyOp8
 70
     1
102
RTVSPropertyOp9
 70
     1
102
RTVSPropertyOp10
 70
     1
102
RTVSPropertyOp11
 70
     1
102
RTVSPropertyOp12
 70
     1
102
RTVSPropertyOp13
 70
     1
102
RTVSPropertyOp14
 70
     1
102
RTVSPropertyOp15
 70
     1
102
RTVSPropertyOp16
 70
     1
102
RTVSPropertyOp17
 70
     1
102
RTVSPropertyOp18
 70
     1
102
RTVSPropertyOp19
 70
     1
102
RTVSPropertyOp20
 70
     1
102
RTVSPropertyOp21
 70
     1
102
RTVSPropertyOp22
 70
     1
102
RTVSPropertyOp23
 70
     1
102
RTVSPropertyOp24
 70
     1
102
RTVSPropertyOp25
 70
     1
102
RTVSPropertyOp26
 70
     1
102
RTVSPropertyOp27
 70
     1
102
RTVSPropertyOp28
 70
     1
102
RTVSPropertyOp29
 70
     1
102
RTVSPropertyOp30
 70
     1
102
RTVSPropertyOp31
 70
     1
102
RTVSPropertyOp32
 70
     1
  0
XRECORD
  5
678
102
{ACAD_REACTORS
330
677
102
}
330
677
100
AcDbXrecord
280
     1
102
RTVSPropertyOp0
 70
     1
102
RTVSPropertyOp1
 70
     1
102
RTVSPropertyOp2
 70
     1
102
RTVSPropertyOp3
 70
     1
102
RTVSPropertyOp4
 70
     1
102
RTVSPropertyOp5
 70
     1
102
RTVSPropertyOp6
 70
     1
102
RTVSPropertyOp7
 70
     1
102
RTVSPropertyOp8
 70
     1
102
RTVSPropertyOp9
 70
     1
102
RTVSPropertyOp10
 70
     1
102
RTVSPropertyOp11
 70
     1
102
RTVSPropertyOp12
 70
     1
102
RTVSPropertyOp13
 70
     1
102
RTVSPropertyOp14
 70
     1
102
RTVSPropertyOp15
 70
     1
102
RTVSPropertyOp16
 70
     1
102
RTVSPropertyOp17
 70
     1
102
RTVSPropertyOp18
 70
     1
102
RTVSPropertyOp19
 70
     1
102
RTVSPropertyOp20
 70
     1
102
RTVSPropertyOp21
 70
     1
102
RTVSPropertyOp22
 70
     1
102
RTVSPropertyOp23
 70
     1
102
RTVSPropertyOp24
 70
     1
102
RTVSPropertyOp25
 70
     1
102
RTVSPropertyOp26
 70
     1
102
RTVSPropertyOp27
 70
     1
102
RTVSPropertyOp28
 70
     1
102
RTVSPropertyOp29
 70
     1
102
RTVSPropertyOp30
 70
     1
102
RTVSPropertyOp31
 70
     1
102
RTVSPropertyOp32
 70
     1
  0
XRECORD
  5
694
102
{ACAD_REACTORS
330
693
102
}
330
693
100
AcDbXrecord
280
     1
102
RTVSPropertyOp0
 70
     0
102
RTVSPropertyOp1
 70
     0
102
RTVSPropertyOp2
 70
     0
102
RTVSPropertyOp3
 70
     0
102
RTVSPropertyOp4
 70
     0
102
RTVSPropertyOp5
 70
     0
102
RTVSPropertyOp6
 70
     0
102
RTVSPropertyOp7
 70
     0
102
RTVSPropertyOp8
 70
     0
102
RTVSPropertyOp9
 70
     0
102
RTVSPropertyOp10
 70
     0
102
RTVSPropertyOp11
 70
     0
102
RTVSPropertyOp12
 70
     0
102
RTVSPropertyOp13
 70
     0
102
RTVSPropertyOp14
 70
     2
102
RTVSPropertyOp15
 70
     0
102
RTVSPropertyOp16
 70
     0
102
RTVSPropertyOp17
 70
     0
102
RTVSPropertyOp18
 70
     0
102
RTVSPropertyOp19
 70
     0
102
RTVSPropertyOp20
 70
     0
102
RTVSPropertyOp21
 70
     0
102
RTVSPropertyOp22
 70
     0
102
RTVSPropertyOp23
 70
     0
102
RTVSPropertyOp24
 70
     0
102
RTVSPropertyOp25
 70
     0
102
RTVSPropertyOp26
 70
     0
102
RTVSPropertyOp27
 70
     0
102
RTVSPropertyOp28
 70
     0
102
RTVSPropertyOp29
 70
     0
102
RTVSPropertyOp30
 70
     0
102
RTVSPropertyOp31
 70
     0
102
RTVSPropertyOp32
 70
     0
  0
XRECORD
  5
684
102
{ACAD_REACTORS
330
683
102
}
330
683
100
AcDbXrecord
280
     1
102
RTVSPropertyOp0
 70
     1
102
RTVSPropertyOp1
 70
     1
102
RTVSPropertyOp2
 70
     1
102
RTVSPropertyOp3
 70
     1
102
RTVSPropertyOp4
 70
     1
102
RTVSPropertyOp5
 70
     1
102
RTVSPropertyOp6
 70
     1
102
RTVSPropertyOp7
 70
     1
102
RTVSPropertyOp8
 70
     1
102
RTVSPropertyOp9
 70
     1
102
RTVSPropertyOp10
 70
     1
102
RTVSPropertyOp11
 70
     1
102
RTVSPropertyOp12
 70
     1
102
RTVSPropertyOp13
 70
     1
102
RTVSPropertyOp14
 70
     1
102
RTVSPropertyOp15
 70
     1
102
RTVSPropertyOp16
 70
     1
102
RTVSPropertyOp17
 70
     1
102
RTVSPropertyOp18
 70
     1
102
RTVSPropertyOp19
 70
     1
102
RTVSPropertyOp20
 70
     1
102
RTVSPropertyOp21
 70
     1
102
RTVSPropertyOp22
 70
     1
102
RTVSPropertyOp23
 70
     1
102
RTVSPropertyOp24
 70
     1
102
RTVSPropertyOp25
 70
     1
102
RTVSPropertyOp26
 70
     1
102
RTVSPropertyOp27
 70
     1
102
RTVSPropertyOp28
 70
     1
102
RTVSPropertyOp29
 70
     1
102
RTVSPropertyOp30
 70
     1
102
RTVSPropertyOp31
 70
     1
102
RTVSPropertyOp32
 70
     1
  0
XRECORD
  5
696
102
{ACAD_REACTORS
330
695
102
}
330
695
100
AcDbXrecord
280
     1
102
RTVSPropertyOp0
 70
     0
102
RTVSPropertyOp1
 70
     0
102
RTVSPropertyOp2
 70
     0
102
RTVSPropertyOp3
 70
     0
102
RTVSPropertyOp4
 70
     0
102
RTVSPropertyOp5
 70
     0
102
RTVSPropertyOp6
 70
     0
102
RTVSPropertyOp7
 70
     0
102
RTVSPropertyOp8
 70
     0
102
RTVSPropertyOp9
 70
     0
102
RTVSPropertyOp10
 70
     0
102
RTVSPropertyOp11
 70
     0
102
RTVSPropertyOp12
 70
     0
102
RTVSPropertyOp13
 70
     0
102
RTVSPropertyOp14
 70
     2
102
RTVSPropertyOp15
 70
     0
102
RTVSPropertyOp16
 70
     0
102
RTVSPropertyOp17
 70
     0
102
RTVSPropertyOp18
 70
     0
102
RTVSPropertyOp19
 70
     0
102
RTVSPropertyOp20
 70
     0
102
RTVSPropertyOp21
 70
     0
102
RTVSPropertyOp22
 70
     0
102
RTVSPropertyOp23
 70
     0
102
RTVSPropertyOp24
 70
     0
102
RTVSPropertyOp25
 70
     0
102
RTVSPropertyOp26
 70
     0
102
RTVSPropertyOp27
 70
     0
102
RTVSPropertyOp28
 70
     0
102
RTVSPropertyOp29
 70
     0
102
RTVSPropertyOp30
 70
     0
102
RTVSPropertyOp31
 70
     0
102
RTVSPropertyOp32
 70
     0
  0
XRECORD
  5
67C
102
{ACAD_REACTORS
330
67B
102
}
330
67B
100
AcDbXrecord
280
     1
102
RTVSPropertyOp0
 70
     1
102
RTVSPropertyOp1
 70
     1
102
RTVSPropertyOp2
 70
     1
102
RTVSPropertyOp3
 70
     1
102
RTVSPropertyOp4
 70
     1
102
RTVSPropertyOp5
 70
     1
102
RTVSPropertyOp6
 70
     1
102
RTVSPropertyOp7
 70
     1
102
RTVSPropertyOp8
 70
     1
102
RTVSPropertyOp9
 70
     1
102
RTVSPropertyOp10
 70
     1
102
RTVSPropertyOp11
 70
     1
102
RTVSPropertyOp12
 70
     1
102
RTVSPropertyOp13
 70
     1
102
RTVSPropertyOp14
 70
     1
102
RTVSPropertyOp15
 70
     1
102
RTVSPropertyOp16
 70
     1
102
RTVSPropertyOp17
 70
     1
102
RTVSPropertyOp18
 70
     1
102
RTVSPropertyOp19
 70
     1
102
RTVSPropertyOp20
 70
     1
102
RTVSPropertyOp21
 70
     1
102
RTVSPropertyOp22
 70
     1
102
RTVSPropertyOp23
 70
     1
102
RTVSPropertyOp24
 70
     1
102
RTVSPropertyOp25
 70
     1
102
RTVSPropertyOp26
 70
     1
102
RTVSPropertyOp27
 70
     1
102
RTVSPropertyOp28
 70
     1
102
RTVSPropertyOp29
 70
     1
102
RTVSPropertyOp30
 70
     1
102
RTVSPropertyOp31
 70
     1
102
RTVSPropertyOp32
 70
     1
  0
XRECORD
  5
692
102
{ACAD_REACTORS
330
691
102
}
330
691
100
AcDbXrecord
280
     1
102
RTVSPropertyOp0
 70
     1
102
RTVSPropertyOp1
 70
     1
102
RTVSPropertyOp2
 70
     1
102
RTVSPropertyOp3
 70
     1
102
RTVSPropertyOp4
 70
     1
102
RTVSPropertyOp5
 70
     1
102
RTVSPropertyOp6
 70
     1
102
RTVSPropertyOp7
 70
     1
102
RTVSPropertyOp8
 70
     1
102
RTVSPropertyOp9
 70
     1
102
RTVSPropertyOp10
 70
     1
102
RTVSPropertyOp11
 70
     1
102
RTVSPropertyOp12
 70
     1
102
RTVSPropertyOp13
 70
     1
102
RTVSPropertyOp14
 70
     1
102
RTVSPropertyOp15
 70
     1
102
RTVSPropertyOp16
 70
     1
102
RTVSPropertyOp17
 70
     1
102
RTVSPropertyOp18
 70
     1
102
RTVSPropertyOp19
 70
     1
102
RTVSPropertyOp20
 70
     1
102
RTVSPropertyOp21
 70
     1
102
RTVSPropertyOp22
 70
     1
102
RTVSPropertyOp23
 70
     1
102
RTVSPropertyOp24
 70
     1
102
RTVSPropertyOp25
 70
     1
102
RTVSPropertyOp26
 70
     1
102
RTVSPropertyOp27
 70
     1
102
RTVSPropertyOp28
 70
     1
102
RTVSPropertyOp29
 70
     1
102
RTVSPropertyOp30
 70
     1
102
RTVSPropertyOp31
 70
     1
102
RTVSPropertyOp32
 70
     1
  0
XRECORD
  5
690
102
{ACAD_REACTORS
330
68F
102
}
330
68F
100
AcDbXrecord
280
     1
102
RTVSPropertyOp0
 70
     1
102
RTVSPropertyOp1
 70
     1
102
RTVSPropertyOp2
 70
     1
102
RTVSPropertyOp3
 70
     1
102
RTVSPropertyOp4
 70
     1
102
RTVSPropertyOp5
 70
     1
102
RTVSPropertyOp6
 70
     1
102
RTVSPropertyOp7
 70
     1
102
RTVSPropertyOp8
 70
     1
102
RTVSPropertyOp9
 70
     1
102
RTVSPropertyOp10
 70
     1
102
RTVSPropertyOp11
 70
     1
102
RTVSPropertyOp12
 70
     1
102
RTVSPropertyOp13
 70
     1
102
RTVSPropertyOp14
 70
     1
102
RTVSPropertyOp15
 70
     1
102
RTVSPropertyOp16
 70
     1
102
RTVSPropertyOp17
 70
     1
102
RTVSPropertyOp18
 70
     1
102
RTVSPropertyOp19
 70
     1
102
RTVSPropertyOp20
 70
     1
102
RTVSPropertyOp21
 70
     1
102
RTVSPropertyOp22
 70
     1
102
RTVSPropertyOp23
 70
     1
102
RTVSPropertyOp24
 70
     1
102
RTVSPropertyOp25
 70
     1
102
RTVSPropertyOp26
 70
     1
102
RTVSPropertyOp27
 70
     1
102
RTVSPropertyOp28
 70
     1
102
RTVSPropertyOp29
 70
     1
102
RTVSPropertyOp30
 70
     1
102
RTVSPropertyOp31
 70
     1
102
RTVSPropertyOp32
 70
     1
  0
XRECORD
  5
68A
102
{ACAD_REACTORS
330
689
102
}
330
689
100
AcDbXrecord
280
     1
102
RTVSPropertyOp0
 70
     1
102
RTVSPropertyOp1
 70
     1
102
RTVSPropertyOp2
 70
     1
102
RTVSPropertyOp3
 70
     1
102
RTVSPropertyOp4
 70
     1
102
RTVSPropertyOp5
 70
     1
102
RTVSPropertyOp6
 70
     1
102
RTVSPropertyOp7
 70
     1
102
RTVSPropertyOp8
 70
     1
102
RTVSPropertyOp9
 70
     1
102
RTVSPropertyOp10
 70
     1
102
RTVSPropertyOp11
 70
     1
102
RTVSPropertyOp12
 70
     1
102
RTVSPropertyOp13
 70
     1
102
RTVSPropertyOp14
 70
     1
102
RTVSPropertyOp15
 70
     1
102
RTVSPropertyOp16
 70
     1
102
RTVSPropertyOp17
 70
     1
102
RTVSPropertyOp18
 70
     1
102
RTVSPropertyOp19
 70
     1
102
RTVSPropertyOp20
 70
     1
102
RTVSPropertyOp21
 70
     1
102
RTVSPropertyOp22
 70
     1
102
RTVSPropertyOp23
 70
     1
102
RTVSPropertyOp24
 70
     1
102
RTVSPropertyOp25
 70
     1
102
RTVSPropertyOp26
 70
     1
102
RTVSPropertyOp27
 70
     1
102
RTVSPropertyOp28
 70
     1
102
RTVSPropertyOp29
 70
     1
102
RTVSPropertyOp30
 70
     1
102
RTVSPropertyOp31
 70
     1
102
RTVSPropertyOp32
 70
     1
  0
XRECORD
  5
68C
102
{ACAD_REACTORS
330
68B
102
}
330
68B
100
AcDbXrecord
280
     1
102
RTVSPropertyOp0
 70
     1
102
RTVSPropertyOp1
 70
     1
102
RTVSPropertyOp2
 70
     1
102
RTVSPropertyOp3
 70
     1
102
RTVSPropertyOp4
 70
     1
102
RTVSPropertyOp5
 70
     1
102
RTVSPropertyOp6
 70
     1
102
RTVSPropertyOp7
 70
     1
102
RTVSPropertyOp8
 70
     1
102
RTVSPropertyOp9
 70
     1
102
RTVSPropertyOp10
 70
     1
102
RTVSPropertyOp11
 70
     1
102
RTVSPropertyOp12
 70
     1
102
RTVSPropertyOp13
 70
     1
102
RTVSPropertyOp14
 70
     1
102
RTVSPropertyOp15
 70
     1
102
RTVSPropertyOp16
 70
     1
102
RTVSPropertyOp17
 70
     1
102
RTVSPropertyOp18
 70
     1
102
RTVSPropertyOp19
 70
     1
102
RTVSPropertyOp20
 70
     1
102
RTVSPropertyOp21
 70
     1
102
RTVSPropertyOp22
 70
     1
102
RTVSPropertyOp23
 70
     1
102
RTVSPropertyOp24
 70
     1
102
RTVSPropertyOp25
 70
     1
102
RTVSPropertyOp26
 70
     1
102
RTVSPropertyOp27
 70
     1
102
RTVSPropertyOp28
 70
     1
102
RTVSPropertyOp29
 70
     1
102
RTVSPropertyOp30
 70
     1
102
RTVSPropertyOp31
 70
     1
102
RTVSPropertyOp32
 70
     1
  0
XRECORD
  5
682
102
{ACAD_REACTORS
330
681
102
}
330
681
100
AcDbXrecord
280
     1
102
RTVSPropertyOp0
 70
     1
102
RTVSPropertyOp1
 70
     1
102
RTVSPropertyOp2
 70
     1
102
RTVSPropertyOp3
 70
     1
102
RTVSPropertyOp4
 70
     1
102
RTVSPropertyOp5
 70
     1
102
RTVSPropertyOp6
 70
     1
102
RTVSPropertyOp7
 70
     1
102
RTVSPropertyOp8
 70
     1
102
RTVSPropertyOp9
 70
     1
102
RTVSPropertyOp10
 70
     1
102
RTVSPropertyOp11
 70
     1
102
RTVSPropertyOp12
 70
     1
102
RTVSPropertyOp13
 70
     1
102
RTVSPropertyOp14
 70
     1
102
RTVSPropertyOp15
 70
     1
102
RTVSPropertyOp16
 70
     1
102
RTVSPropertyOp17
 70
     1
102
RTVSPropertyOp18
 70
     1
102
RTVSPropertyOp19
 70
     1
102
RTVSPropertyOp20
 70
     1
102
RTVSPropertyOp21
 70
     1
102
RTVSPropertyOp22
 70
     1
102
RTVSPropertyOp23
 70
     1
102
RTVSPropertyOp24
 70
     1
102
RTVSPropertyOp25
 70
     1
102
RTVSPropertyOp26
 70
     1
102
RTVSPropertyOp27
 70
     1
102
RTVSPropertyOp28
 70
     1
102
RTVSPropertyOp29
 70
     1
102
RTVSPropertyOp30
 70
     1
102
RTVSPropertyOp31
 70
     1
102
RTVSPropertyOp32
 70
     1
  0
XRECORD
  5
676
102
{ACAD_REACTORS
330
675
102
}
330
675
100
AcDbXrecord
280
     1
102
RTVSPropertyOp0
 70
     1
102
RTVSPropertyOp1
 70
     1
102
RTVSPropertyOp2
 70
     1
102
RTVSPropertyOp3
 70
     1
102
RTVSPropertyOp4
 70
     1
102
RTVSPropertyOp5
 70
     1
102
RTVSPropertyOp6
 70
     1
102
RTVSPropertyOp7
 70
     1
102
RTVSPropertyOp8
 70
     1
102
RTVSPropertyOp9
 70
     1
102
RTVSPropertyOp10
 70
     1
102
RTVSPropertyOp11
 70
     1
102
RTVSPropertyOp12
 70
     1
102
RTVSPropertyOp13
 70
     1
102
RTVSPropertyOp14
 70
     1
102
RTVSPropertyOp15
 70
     1
102
RTVSPropertyOp16
 70
     1
102
RTVSPropertyOp17
 70
     1
102
RTVSPropertyOp18
 70
     1
102
RTVSPropertyOp19
 70
     1
102
RTVSPropertyOp20
 70
     1
102
RTVSPropertyOp21
 70
     1
102
RTVSPropertyOp22
 70
     1
102
RTVSPropertyOp23
 70
     1
102
RTVSPropertyOp24
 70
     1
102
RTVSPropertyOp25
 70
     1
102
RTVSPropertyOp26
 70
     1
102
RTVSPropertyOp27
 70
     1
102
RTVSPropertyOp28
 70
     1
102
RTVSPropertyOp29
 70
     1
102
RTVSPropertyOp30
 70
     1
102
RTVSPropertyOp31
 70
     1
102
RTVSPropertyOp32
 70
     1
  0
XRECORD
  5
68E
102
{ACAD_REACTORS
330
68D
102
}
330
68D
100
AcDbXrecord
280
     1
102
RTVSPropertyOp0
 70
     1
102
RTVSPropertyOp1
 70
     1
102
RTVSPropertyOp2
 70
     1
102
RTVSPropertyOp3
 70
     1
102
RTVSPropertyOp4
 70
     1
102
RTVSPropertyOp5
 70
     1
102
RTVSPropertyOp6
 70
     1
102
RTVSPropertyOp7
 70
     1
102
RTVSPropertyOp8
 70
     1
102
RTVSPropertyOp9
 70
     1
102
RTVSPropertyOp10
 70
     1
102
RTVSPropertyOp11
 70
     1
102
RTVSPropertyOp12
 70
     1
102
RTVSPropertyOp13
 70
     1
102
RTVSPropertyOp14
 70
     1
102
RTVSPropertyOp15
 70
     1
102
RTVSPropertyOp16
 70
     1
102
RTVSPropertyOp17
 70
     1
102
RTVSPropertyOp18
 70
     1
102
RTVSPropertyOp19
 70
     1
102
RTVSPropertyOp20
 70
     1
102
RTVSPropertyOp21
 70
     1
102
RTVSPropertyOp22
 70
     1
102
RTVSPropertyOp23
 70
     1
102
RTVSPropertyOp24
 70
     1
102
RTVSPropertyOp25
 70
     1
102
RTVSPropertyOp26
 70
     1
102
RTVSPropertyOp27
 70
     1
102
RTVSPropertyOp28
 70
     1
102
RTVSPropertyOp29
 70
     1
102
RTVSPropertyOp30
 70
     1
102
RTVSPropertyOp31
 70
     1
102
RTVSPropertyOp32
 70
     1
  0
ENDSEC
  0
EOF
