  0
SECTION
  2
HEADER
  9
$ACADVER
  1
AC1018
  9
$ACADMAINTVER
 70
   104
  9
$DWGCODEPAGE
  3
ANSI_1252
  9
$AUTHOR
  1
U. Name
  9
$REVISIONNUMBER
  1
Z
  9
$CUSTOMPROPERTYTAG
  1
Manager
  9
$CUSTOMPROPERTY
  1

  9
$CUSTOMPROPERTYTAG
  1
Company
  9
$CUSTOMPROPERTY
  1

  9
$CUSTOMPROPERTYTAG
  1
Category
  9
$CUSTOMPROPERTY
  1

  9
$CUSTOMPROPERTYTAG
  1
Part Number
  9
$CUSTOMPROPERTY
  1
Scaled Schematic Views
  9
$CUSTOMPROPERTYTAG
  1
Description
  9
$CUSTOMPROPERTY
  1

  9
$CUSTOMPROPERTYTAG
  1
Project
  9
$CUSTOMPROPERTY
  1

  9
$CUSTOMPROPERTYTAG
  1
Designer
  9
$CUSTOMPROPERTY
  1
U. Name
  9
$CUSTOMPROPERTYTAG
  1
Engineer
  9
$CUSTOMPROPERTY
  1

  9
$CUSTOMPROPERTYTAG
  1
Authority
  9
$CUSTOMPROPERTY
  1

  9
$CUSTOMPROPERTYTAG
  1
Cost Center
  9
$CUSTOMPROPERTY
  1

  9
$CUSTOMPROPERTYTAG
  1
Vendor
  9
$CUSTOMPROPERTY
  1

  9
$CUSTOMPROPERTYTAG
  1
User Status
  9
$CUSTOMPROPERTY
  1

  9
$CUSTOMPROPERTYTAG
  1
Design Status
  9
$CUSTOMPROPERTY
  1
WorkInProgress
  9
$CUSTOMPROPERTYTAG
  1
Checked by
  9
$CUSTOMPROPERTY
  1

  9
$CUSTOMPROPERTYTAG
  1
Engr Approved by
  9
$CUSTOMPROPERTY
  1
 
  9
$CUSTOMPROPERTYTAG
  1
Mfg Approved by
  9
$CUSTOMPROPERTY
  1

  9
$CUSTOMPROPERTYTAG
  1
Drawing Designator
  9
$CUSTOMPROPERTY
  1

  9
$CUSTOMPROPERTYTAG
  1
Cut Size
  9
$CUSTOMPROPERTY
  1
                   
  9
$CUSTOMPROPERTYTAG
  1
Makes
  9
$CUSTOMPROPERTY
  1
1
  9
$CUSTOMPROPERTYTAG
  1
Source Code
  9
$CUSTOMPROPERTY
  1
M
  9
$CUSTOMPROPERTYTAG
  1
Unit of Measure
  9
$CUSTOMPROPERTY
  1
EA
  9
$CUSTOMPROPERTYTAG
  1
MTL Component #1
  9
$CUSTOMPROPERTY
  1

  9
$CUSTOMPROPERTYTAG
  1
MTL Component #2
  9
$CUSTOMPROPERTY
  1

  9
$CUSTOMPROPERTYTAG
  1
MTL Component #3
  9
$CUSTOMPROPERTY
  1

  9
$CUSTOMPROPERTYTAG
  1
MTL Option #1
  9
$CUSTOMPROPERTY
  1
M3
  9
$CUSTOMPROPERTYTAG
  1
MTL Option #2
  9
$CUSTOMPROPERTY
  1
M5
  9
$CUSTOMPROPERTYTAG
  1
MTL Option #3
  9
$CUSTOMPROPERTY
  1
MG
  9
$CUSTOMPROPERTYTAG
  1
MTL Description #1
  9
$CUSTOMPROPERTY
  1

  9
$CUSTOMPROPERTYTAG
  1
MTL Description #2
  9
$CUSTOMPROPERTY
  1

  9
$CUSTOMPROPERTYTAG
  1
MTL Description #3
  9
$CUSTOMPROPERTY
  1

  9
$CUSTOMPROPERTYTAG
  1
Assembly Type
  9
$CUSTOMPROPERTY
  1
1
  9
$INSBASE
 10
0.0
 20
0.0
 30
0.0
  9
$EXTMIN
 10
0.0
 20
0.0
 30
0.0
  9
$EXTMAX
 10
1100.0
 20
850.0
 30
0.0
  9
$LIMMIN
 10
0.0
 20
0.0
  9
$LIMMAX
 10
1100.0
 20
850.0
  9
$ORTHOMODE
 70
     0
  9
$REGENMODE
 70
     1
  9
$FILLMODE
 70
     1
  9
$QTEXTMODE
 70
     0
  9
$MIRRTEXT
 70
     0
  9
$LTSCALE
 40
100.0
  9
$ATTMODE
 70
     1
  9
$TEXTSIZE
 40
0.2
  9
$TRACEWID
 40
0.05
  9
$TEXTSTYLE
  7
Standard
  9
$CLAYER
  8
0
  9
$CELTYPE
  6
ByLayer
  9
$CECOLOR
 62
   256
  9
$CELTSCALE
 40
1.0
  9
$DISPSILH
 70
     0
  9
$DIMSCALE
 40
1.0
  9
$DIMASZ
 40
0.0708661417322835
  9
$DIMEXO
 40
0.0625
  9
$DIMDLI
 40
0.38
  9
$DIMRND
 40
0.0
  9
$DIMDLE
 40
0.0
  9
$DIMEXE
 40
0.18
  9
$DIMTP
 40
0.0
  9
$DIMTM
 40
0.0
  9
$DIMTXT
 40
0.2540000081062317
  9
$DIMCEN
 40
0.09
  9
$DIMTSZ
 40
0.0
  9
$DIMTOL
 70
     0
  9
$DIMLIM
 70
     0
  9
$DIMTIH
 70
     1
  9
$DIMTOH
 70
     1
  9
$DIMSE1
 70
     0
  9
$DIMSE2
 70
     0
  9
$DIMTAD
 70
     0
  9
$DIMZIN
 70
     0
  9
$DIMBLK
  1

  9
$DIMASO
 70
     1
  9
$DIMSHO
 70
     1
  9
$DIMPOST
  1

  9
$DIMAPOST
  1

  9
$DIMALT
 70
     0
  9
$DIMALTD
 70
     2
  9
$DIMALTF
 40
25.4
  9
$DIMLFAC
 40
1.0
  9
$DIMTOFL
 70
     0
  9
$DIMTVP
 40
0.0
  9
$DIMTIX
 70
     0
  9
$DIMSOXD
 70
     0
  9
$DIMSAH
 70
     0
  9
$DIMBLK1
  1

  9
$DIMBLK2
  1

  9
$DIMSTYLE
  2
Standard
  9
$DIMCLRD
 70
     0
  9
$DIMCLRE
 70
     0
  9
$DIMCLRT
 70
     0
  9
$DIMTFAC
 40
1.0
  9
$DIMGAP
 40
0.09
  9
$DIMJUST
 70
     0
  9
$DIMSD1
 70
     0
  9
$DIMSD2
 70
     0
  9
$DIMTOLJ
 70
     1
  9
$DIMTZIN
 70
     0
  9
$DIMALTZ
 70
     0
  9
$DIMALTTZ
 70
     0
  9
$DIMUPT
 70
     0
  9
$DIMDEC
 70
     4
  9
$DIMTDEC
 70
     4
  9
$DIMALTU
 70
     2
  9
$DIMALTTD
 70
     2
  9
$DIMTXSTY
  7
Standard
  9
$DIMAUNIT
 70
     0
  9
$DIMADEC
 70
     0
  9
$DIMALTRND
 40
0.0
  9
$DIMAZIN
 70
     0
  9
$DIMDSEP
 70
    46
  9
$DIMATFIT
 70
     3
  9
$DIMFRAC
 70
     0
  9
$DIMLDRBLK
  1

  9
$DIMLUNIT
 70
     2
  9
$DIMLWD
 70
    -2
  9
$DIMLWE
 70
    -2
  9
$DIMTMOVE
 70
     0
  9
$LUNITS
 70
     2
  9
$LUPREC
 70
     4
  9
$SKETCHINC
 40
0.1
  9
$FILLETRAD
 40
0.0
  9
$AUNITS
 70
     0
  9
$AUPREC
 70
     0
  9
$MENU
  1
.
  9
$ELEVATION
 40
0.0
  9
$PELEVATION
 40
0.0
  9
$THICKNESS
 40
0.0
  9
$LIMCHECK
 70
     0
  9
$CHAMFERA
 40
0.0
  9
$CHAMFERB
 40
0.0
  9
$CHAMFERC
 40
0.0
  9
$CHAMFERD
 40
0.0
  9
$SKPOLY
 70
     0
  9
$TDCREATE
 40
2455741.706034178
  9
$TDUCREATE
 40
2455741.872700845
  9
$TDUPDATE
 40
2455741.706034178
  9
$TDUUPDATE
 40
2455741.872700845
  9
$TDINDWG
 40
0.0000224306
  9
$TDUSRTIMER
 40
0.0000224306
  9
$USRTIMER
 70
     1
  9
$ANGBASE
 50
0.0
  9
$ANGDIR
 70
     0
  9
$PDMODE
 70
     0
  9
$PDSIZE
 40
0.0
  9
$PLINEWID
 40
0.0
  9
$SPLFRAME
 70
     0
  9
$SPLINETYPE
 70
     6
  9
$SPLINESEGS
 70
     8
  9
$HANDSEED
  5
698
  9
$SURFTAB1
 70
     6
  9
$SURFTAB2
 70
     6
  9
$SURFTYPE
 70
     6
  9
$SURFU
 70
     6
  9
$SURFV
 70
     6
  9
$UCSBASE
  2

  9
$UCSNAME
  2

  9
$UCSORG
 10
0.0
 20
0.0
 30
0.0
  9
$UCSXDIR
 10
1.0
 20
0.0
 30
0.0
  9
$UCSYDIR
 10
0.0
 20
1.0
 30
0.0
  9
$UCSORTHOREF
  2

  9
$UCSORTHOVIEW
 70
     0
  9
$UCSORGTOP
 10
0.0
 20
0.0
 30
0.0
  9
$UCSORGBOTTOM
 10
0.0
 20
0.0
 30
0.0
  9
$UCSORGLEFT
 10
0.0
 20
0.0
 30
0.0
  9
$UCSORGRIGHT
 10
0.0
 20
0.0
 30
0.0
  9
$UCSORGFRONT
 10
0.0
 20
0.0
 30
0.0
  9
$UCSORGBACK
 10
0.0
 20
0.0
 30
0.0
  9
$PUCSBASE
  2

  9
$PUCSNAME
  2

  9
$PUCSORG
 10
0.0
 20
0.0
 30
0.0
  9
$PUCSXDIR
 10
1.0
 20
0.0
 30
0.0
  9
$PUCSYDIR
 10
0.0
 20
1.0
 30
0.0
  9
$PUCSORTHOREF
  2

  9
$PUCSORTHOVIEW
 70
     0
  9
$PUCSORGTOP
 10
0.0
 20
0.0
 30
0.0
  9
$PUCSORGBOTTOM
 10
0.0
 20
0.0
 30
0.0
  9
$PUCSORGLEFT
 10
0.0
 20
0.0
 30
0.0
  9
$PUCSORGRIGHT
 10
0.0
 20
0.0
 30
0.0
  9
$PUCSORGFRONT
 10
0.0
 20
0.0
 30
0.0
  9
$PUCSORGBACK
 10
0.0
 20
0.0
 30
0.0
  9
$USERI1
 70
     0
  9
$USERI2
 70
     0
  9
$USERI3
 70
     0
  9
$USERI4
 70
     0
  9
$USERI5
 70
     0
  9
$USERR1
 40
0.0
  9
$USERR2
 40
0.0
  9
$USERR3
 40
0.0
  9
$USERR4
 40
0.0
  9
$USERR5
 40
0.0
  9
$WORLDVIEW
 70
     1
  9
$SHADEDGE
 70
     3
  9
$SHADEDIF
 70
    70
  9
$TILEMODE
 70
     1
  9
$MAXACTVP
 70
    64
  9
$PINSBASE
 10
0.0
 20
0.0
 30
0.0
  9
$PLIMCHECK
 70
     0
  9
$PEXTMIN
 10
0.0
 20
0.0
 30
0.0
  9
$PEXTMAX
 10
1100.0
 20
850.0
 30
0.0
  9
$PLIMMIN
 10
0.0
 20
0.0
  9
$PLIMMAX
 10
1100.0
 20
850.0
  9
$UNITMODE
 70
     0
  9
$VISRETAIN
 70
     1
  9
$PLINEGEN
 70
     0
  9
$PSLTSCALE
 70
     1
  9
$TREEDEPTH
 70
  3020
  9
$CMLSTYLE
  2
Standard
  9
$CMLJUST
 70
     0
  9
$CMLSCALE
 40
1.0
  9
$PROXYGRAPHICS
 70
     1
  9
$MEASUREMENT
 70
     0
  9
$CELWEIGHT
370
    -1
  9
$ENDCAPS
280
     0
  9
$JOINSTYLE
280
     0
  9
$LWDISPLAY
290
     0
  9
$INSUNITS
 70
     1
  9
$HYPERLINKBASE
  1

  9
$STYLESHEET
  1

  9
$XEDIT
290
     1
  9
$CEPSNTYPE
380
     0
  9
$PSTYLEMODE
290
     1
  9
$FINGERPRINTGUID
  2
{355F555E-4D34-4588-A7DF-9B87589C898D}
  9
$VERSIONGUID
  2
{6282787A-EB50-40B7-ADB7-2C4CB38A204C}
  9
$EXTNAMES
290
     1
  9
$PSVPSCALE
 40
0.0
  9
$OLESTARTUP
290
     0
  9
$SORTENTS
280
   127
  9
$INDEXCTL
280
     0
  9
$HIDETEXT
280
     1
  9
$XCLIPFRAME
290
     0
  9
$HALOGAP
280
     0
  9
$OBSCOLOR
 70
   257
  9
$OBSLTYPE
280
     0
  9
$INTERSECTIONDISPLAY
280
     0
  9
$INTERSECTIONCOLOR
 70
   257
  9
$DIMASSOC
280
     1
  9
$PROJECTNAME
  1

  0
ENDSEC
  0
SECTION
  2
CLASSES
  0
CLASS
  1
ACDBDICTIONARYWDFLT
  2
AcDbDictionaryWithDefault
  3
ObjectDBX Classes
 90
        0
 91
        1
280
     0
281
     0
  0
CLASS
  1
MATERIAL
  2
AcDbMaterial
  3
ObjectDBX Classes
 90
     1153
 91
        3
280
     0
281
     0
  0
CLASS
  1
VISUALSTYLE
  2
AcDbVisualStyle
  3
ObjectDBX Classes
 90
     4095
 91
       24
280
     0
281
     0
  0
CLASS
  1
SCALE
  2
AcDbScale
  3
ObjectDBX Classes
 90
     1153
 91
       17
280
     0
281
     0
  0
CLASS
  1
TABLESTYLE
  2
AcDbTableStyle
  3
ObjectDBX Classes
 90
     4095
 91
        1
280
     0
281
     0
  0
CLASS
  1
MLEADERSTYLE
  2
AcDbMLeaderStyle
  3
ACDB_MLEADERSTYLE_CLASS
 90
     4095
 91
        1
280
     0
281
     0
  0
CLASS
  1
DICTIONARYVAR
  2
AcDbDictionaryVar
  3
ObjectDBX Classes
 90
        0
 91
        8
280
     0
281
     0
  0
CLASS
  1
CELLSTYLEMAP
  2
AcDbCellStyleMap
  3
ObjectDBX Classes
 90
     1152
 91
        1
280
     0
281
     0
  0
ENDSEC
  0
SECTION
  2
TABLES
  0
TABLE
  2
VPORT
  5
8
330
0
100
AcDbSymbolTable
 70
     1
  0
VPORT
  5
57
330
8
100
AcDbSymbolTableRecord
100
AcDbViewportTableRecord
  2
*Active
 70
     0
 10
0.0
 20
0.0
 11
1.0
 21
1.0
 12
550.0
 22
425.0
 13
0.0
 23
0.0
 14
1.0
 24
1.0
 15
0.0
 25
0.0
 16
0.0
 26
0.0
 36
1.0
 17
0.0
 27
0.0
 37
0.0
 40
850.0
 41
1.294117647058823
 42
50.0
 43
0.0
 44
0.0
 50
0.0
 51
0.0
 71
     0
 72
   100
 73
     1
 74
     1
 75
     0
 76
     0
 77
     0
 78
     0
281
     0
 65
     1
110
0.0
120
0.0
130
0.0
111
1.0
121
0.0
131
0.0
112
0.0
122
1.0
132
0.0
 79
     0
146
0.0
  0
ENDTAB
  0
TABLE
  2
LTYPE
  5
5
330
0
100
AcDbSymbolTable
 70
     1
  0
LTYPE
  5
5B
330
5
100
AcDbSymbolTableRecord
100
AcDbLinetypeTableRecord
  2
ByBlock
 70
     0
  3

 72
    65
 73
     0
 40
0.0
  0
LTYPE
  5
5C
330
5
100
AcDbSymbolTableRecord
100
AcDbLinetypeTableRecord
  2
ByLayer
 70
     0
  3

 72
    65
 73
     0
 40
0.0
  0
LTYPE
  5
5D
330
5
100
AcDbSymbolTableRecord
100
AcDbLinetypeTableRecord
  2
Continuous
 70
     0
  3
Solid line
 72
    65
 73
     0
 40
0.0
  0
ENDTAB
  0
TABLE
  2
LAYER
  5
2
330
0
100
AcDbSymbolTable
 70
    59
  0
LAYER
  5
54
330
2
100
AcDbSymbolTableRecord
100
AcDbLayerTableRecord
  2
0
 70
     0
 62
     7
  6
Continuous
370
    -3
390
F
  0
LAYER
  5
88
330
2
100
AcDbSymbolTableRecord
100
AcDbLayerTableRecord
  2
Hatch
 70
     0
 62
   179
420
  1973831
  6
Continuous
370
     9
390
F
  0
LAYER
  5
98
330
2
100
AcDbSymbolTableRecord
100
AcDbLayerTableRecord
  2
Sketch Geometry(BAC Assy)
 70
     0
 62
     7
  6
Continuous
370
    35
390
F
  0
LAYER
  5
9D
330
2
100
AcDbSymbolTableRecord
100
AcDbLayerTableRecord
  2
Symbol (ANSI)
 70
     0
 62
     7
  6
Continuous
370
    25
390
F
  0
LAYER
  5
9E
330
2
100
AcDbSymbolTableRecord
100
AcDbLayerTableRecord
  2
Symbols(BAC Assy)
 70
     0
 62
     7
  6
Continuous
370
    25
390
F
  0
LAYER
  5
A4
330
2
100
AcDbSymbolTableRecord
100
AcDbLayerTableRecord
  2
Visible (ANSI)
 70
     0
 62
     7
  6
Continuous
370
    35
390
F
  0
ENDTAB
  0
TABLE
  2
STYLE
  5
3
330
0
100
AcDbSymbolTable
 70
    15
  0
STYLE
  5
55
330
3
100
AcDbSymbolTableRecord
100
AcDbTextStyleTableRecord
  2
Standard
 70
     0
 40
0.0
 41
1.0
 50
0.0
 71
     0
 42
0.2
  3
TAHOMA.TTF
  4

1001
ACAD
1000
Tahoma
1071
      256
  0
STYLE
  5
5A
330
3
100
AcDbSymbolTableRecord
100
AcDbTextStyleTableRecord
  2
Annotative
 70
     0
 40
0.0
 41
1.0
 50
0.0
 71
     0
 42
0.2
  3
txt
  4

1001
AcadAnnotative
1000
AnnotativeData
1002
{
1070
     1
1070
     1
1002
}
  0
STYLE
  5
AE
330
3
100
AcDbSymbolTableRecord
100
AcDbTextStyleTableRecord
  2
BAC Rev
 70
     0
 40
0.0
 41
1.0
 50
0.0
 71
     0
 42
0.2
  3
ARIALN.TTF
  4

1001
ACAD
1000
Arial Narrow
1071
      256
  0
STYLE
  5
AF
330
3
100
AcDbSymbolTableRecord
100
AcDbTextStyleTableRecord
  2
BAC Text
 70
     0
 40
0.0
 41
1.0
 50
0.0
 71
     0
 42
0.2
  3
TAHOMA.TTF
  4

1001
ACAD
1000
Tahoma
1071
      256
  0
STYLE
  5
B0
330
3
100
AcDbSymbolTableRecord
100
AcDbTextStyleTableRecord
  2
Border_1
 70
     0
 40
0.0
 41
1.0
 50
0.0
 71
     0
 42
0.2
  3
ARIAL.TTF
  4

1001
ACAD
1000
Arial
1071
      256
  0
STYLE
  5
B1
330
3
100
AcDbSymbolTableRecord
100
AcDbTextStyleTableRecord
  2
Current-ANSI
 70
     0
 40
0.0
 41
1.0
 50
0.0
 71
     0
 42
0.2
  3
ARIAL.TTF
  4

1001
ACAD
1000
Arial
1071
      256
  0
STYLE
  5
B2
330
3
100
AcDbSymbolTableRecord
100
AcDbTextStyleTableRecord
  2
Current-ANSI-BAC Part
 70
     0
 40
0.0
 41
1.0
 50
0.0
 71
     0
 42
0.2
  3
ARIAL.TTF
  4

1001
ACAD
1000
Arial
1071
      256
  0
STYLE
  5
B3
330
3
100
AcDbSymbolTableRecord
100
AcDbTextStyleTableRecord
  2
Current-ANSI-BAC Part-BAC Assy
 70
     0
 40
0.0
 41
1.0
 50
0.0
 71
     0
 42
0.2
  3
monos.ttf
  4

1001
ACAD
1000
Monospac821 BT
1071
      256
  0
STYLE
  5
B4
330
3
100
AcDbSymbolTableRecord
100
AcDbTextStyleTableRecord
  2
DEFAULT-BAC Assy
 70
     0
 40
0.0
 41
1.0
 50
0.0
 71
     0
 42
0.2
  3
ARIAL.TTF
  4

1001
ACAD
1000
Arial
1071
      256
  0
STYLE
  5
B5
330
3
100
AcDbSymbolTableRecord
100
AcDbTextStyleTableRecord
  2
DEFAULT-BAC AssyBigText
 70
     0
 40
0.0
 41
1.0
 50
0.0
 71
     0
 42
0.2
  3
ARIAL.TTF
  4

1001
ACAD
1000
Arial
1071
      256
  0
STYLE
  5
B6
330
3
100
AcDbSymbolTableRecord
100
AcDbTextStyleTableRecord
  2
DEFAULT-BAC AssyByLayer
 70
     0
 40
0.0
 41
1.0
 50
0.0
 71
     0
 42
0.2
  3
ARIAL.TTF
  4

1001
ACAD
1000
Arial
1071
      256
  0
STYLE
  5
B7
330
3
100
AcDbSymbolTableRecord
100
AcDbTextStyleTableRecord
  2
DEFAULT-BAC Part~0
 70
     0
 40
0.0
 41
1.0
 50
0.0
 71
     0
 42
0.2
  3
ARIAL.TTF
  4

1001
ACAD
1000
Arial
1071
      256
  0
STYLE
  5
B8
330
3
100
AcDbSymbolTableRecord
100
AcDbTextStyleTableRecord
  2
Label Text (ANSI)
 70
     0
 40
0.0
 41
1.0
 50
0.0
 71
     0
 42
0.2
  3
TAHOMA.TTF
  4

1001
ACAD
1000
Tahoma
1071
      256
  0
STYLE
  5
B9
330
3
100
AcDbSymbolTableRecord
100
AcDbTextStyleTableRecord
  2
Note Text (ANSI)
 70
     0
 40
0.0
 41
1.0
 50
0.0
 71
     0
 42
0.2
  3
TAHOMA.TTF
  4

1001
ACAD
1000
Tahoma
1071
      256
  0
STYLE
  5
105
330
3
100
AcDbSymbolTableRecord
100
AcDbTextStyleTableRecord
  2
Text Style74
 70
     0
 40
0.0
 41
1.0
 50
0.0
 71
     0
 42
0.2
  3
monos.ttf
  4

1001
ACAD
1000
Monospac821 BT
1071
      256
  0
ENDTAB
  0
TABLE
  2
VIEW
  5
6
330
0
100
AcDbSymbolTable
 70
     0
  0
ENDTAB
  0
TABLE
  2
UCS
  5
7
330
0
100
AcDbSymbolTable
 70
     0
  0
ENDTAB
  0
TABLE
  2
APPID
  5
9
330
0
100
AcDbSymbolTable
 70
     4
  0
APPID
  5
56
330
9
100
AcDbSymbolTableRecord
100
AcDbRegAppTableRecord
  2
ACAD
 70
     0
  0
APPID
  5
5E
330
9
100
AcDbSymbolTableRecord
100
AcDbRegAppTableRecord
  2
AcadAnnotative
 70
     0
  0
APPID
  5
FF
330
9
100
AcDbSymbolTableRecord
100
AcDbRegAppTableRecord
  2
AcadAnnoPO
 70
     0
  0
APPID
  5
697
330
9
100
AcDbSymbolTableRecord
100
AcDbRegAppTableRecord
  2
ACAD_MLEADERVER
 70
     0
  0
ENDTAB
  0
TABLE
  2
DIMSTYLE
  5
A
330
0
100
AcDbSymbolTable
 70
    17
100
AcDbDimStyleTable
 71
     0
  0
DIMSTYLE
105
58
330
A
100
AcDbSymbolTableRecord
100
AcDbDimStyleTableRecord
  2
Standard
 70
     0
340
55
  0
DIMSTYLE
105
59
330
A
100
AcDbSymbolTableRecord
100
AcDbDimStyleTableRecord
  2
Annotative
 70
     0
340
55
1001
AcadAnnotative
1000
AnnotativeData
1002
{
1070
     1
1070
     1
1002
}
  0
DIMSTYLE
105
BA
330
A
100
AcDbSymbolTableRecord
100
AcDbDimStyleTableRecord
  2
BAC Global - in [0.000]
 70
     0
 40
100.0
 41
0.0984251946210861
 42
0.03125
 43
0.25
 44
0.0625
 45
0.00000001
 46
0.3125
 73
     0
 78
     3
 79
     1
140
0.1000000014901161
143
1.0
147
0.031496062992126
170
     1
171
     3
176
   256
177
   256
178
   256
271
     6
272
     2
274
     3
276
     2
277
     5
284
     4
285
     4
286
     4
340
B9
371
    -1
372
    -1
  0
DIMSTYLE
105
BB
330
A
100
AcDbSymbolTableRecord
100
AcDbDimStyleTableRecord
  2
BAC Global - in [0.000]$7
 70
     0
 40
100.0
 41
0.0984251946210861
 42
0.03125
 43
0.25
 44
0.0625
 45
0.00000001
 46
0.3125
 73
     0
 78
     3
 79
     1
140
0.1000000014901161
143
1.0
147
0.031496062992126
170
     1
171
     3
176
   256
177
   256
178
   256
271
     6
272
     2
274
     3
276
     2
277
     5
284
     4
285
     4
286
     4
340
B9
371
    -1
372
    -1
  0
DIMSTYLE
105
BC
330
A
100
AcDbSymbolTableRecord
100
AcDbDimStyleTableRecord
  2
DEFAULT-BAC Assy
 70
     0
 40
100.0
 41
0.0984251946210861
 43
0.2362204724409449
 44
0.125
 45
0.00000001
 46
0.3937007874015748
140
0.1200000047683716
147
0.031496062992126
171
     1
176
   250
177
   250
178
   256
271
     2
272
     2
274
     1
340
B7
371
    25
372
    25
  0
DIMSTYLE
105
BD
330
A
100
AcDbSymbolTableRecord
100
AcDbDimStyleTableRecord
  2
DEFAULT-BAC Assy$7
 70
     0
 40
100.0
 41
0.0984251946210861
 43
0.2362204724409449
 44
0.125
 45
0.00000001
 46
0.3937007874015748
140
0.1200000047683716
147
0.031496062992126
171
     1
176
   256
177
   250
178
   256
271
     2
272
     2
274
     1
340
B7
371
    25
372
    25
  0
DIMSTYLE
105
BE
330
A
100
AcDbSymbolTableRecord
100
AcDbDimStyleTableRecord
  2
DEFAULT-BAC AssyBigText
 70
     0
 40
100.0
 41
0.1968503892421722
 43
0.2362204724409449
 44
0.125
 45
0.00000001
 46
0.3937007874015748
140
0.1799999922513962
146
0.666666721856155
147
0.031496062992126
171
     1
176
   250
177
   250
178
   256
271
     2
272
     2
274
     1
340
B5
371
    25
372
    25
  0
DIMSTYLE
105
BF
330
A
100
AcDbSymbolTableRecord
100
AcDbDimStyleTableRecord
  2
DEFAULT-BAC AssyBigText$7
 70
     0
 40
100.0
 41
0.1968503892421722
 43
0.2362204724409449
 44
0.125
 45
0.00000001
 46
0.3937007874015748
140
0.1799999922513962
146
0.666666721856155
147
0.031496062992126
171
     1
176
   256
177
   250
178
   256
271
     2
272
     2
274
     1
340
B5
371
    25
372
    25
  0
DIMSTYLE
105
C0
330
A
100
AcDbSymbolTableRecord
100
AcDbDimStyleTableRecord
  2
Default (ANSI)
 70
     0
 40
100.0
 41
0.0984251946210861
 43
0.2362204724409449
 44
0.125
 45
0.00000001
 46
0.3937007874015748
 78
     4
 79
     1
140
0.1000000014901161
146
1.200000029802321
147
0.031496062992126
171
     1
176
   256
177
   256
178
   256
271
     2
272
     2
274
     1
284
     4
285
     4
340
B9
371
    -1
372
    -1
  0
DIMSTYLE
105
C1
330
A
100
AcDbSymbolTableRecord
100
AcDbDimStyleTableRecord
  2
Default (ANSI)$7
 70
     0
 40
100.0
 41
0.0984251946210861
 43
0.2362204724409449
 44
0.125
 45
0.00000001
 46
0.3937007874015748
 78
     4
 79
     1
140
0.1000000014901161
146
1.200000029802321
147
0.031496062992126
171
     1
176
   256
177
   256
178
   256
271
     2
272
     2
274
     1
284
     4
285
     4
340
B9
371
    -1
372
    -1
  0
DIMSTYLE
105
C2
330
A
100
AcDbSymbolTableRecord
100
AcDbDimStyleTableRecord
  2
Alternate (ANSI)
 70
     0
 40
100.0
 41
0.0979999974370003
340
55
342
C3
  0
DIMSTYLE
105
D4
330
A
100
AcDbSymbolTableRecord
100
AcDbDimStyleTableRecord
  2
Datum (ANSI)
 70
     0
 40
100.0
 41
0.0979999974370003
340
55
342
C3
  0
DIMSTYLE
105
E3
330
A
100
AcDbSymbolTableRecord
100
AcDbDimStyleTableRecord
  2
Large (ANSI)
 70
     0
 40
100.0
 41
0.1959999948740005
340
55
342
C3
  0
DIMSTYLE
105
E4
330
A
100
AcDbSymbolTableRecord
100
AcDbDimStyleTableRecord
  2
Leader-Datum(BAC Assy)
 70
     0
 40
100.0
 41
0.0984251946210861
340
55
342
C3
  0
DIMSTYLE
105
E5
330
A
100
AcDbSymbolTableRecord
100
AcDbDimStyleTableRecord
  2
Leader-Dot(BAC Assy)
 70
     0
 40
100.0
 41
0.0984251946210861
340
55
342
C3
  0
DIMSTYLE
105
E6
330
A
100
AcDbSymbolTableRecord
100
AcDbDimStyleTableRecord
  2
Leader-OriginIndicator(BAC Assy)
 70
     0
 40
100.0
 41
0.0984251946210861
340
55
342
C3
  0
DIMSTYLE
105
E7
330
A
100
AcDbSymbolTableRecord
100
AcDbDimStyleTableRecord
  2
Leader(BAC Assy)
 70
     0
 40
100.0
 41
0.0984251946210861
340
55
342
C3
  0
ENDTAB
  0
TABLE
  2
BLOCK_RECORD
  5
1
330
0
100
AcDbSymbolTable
 70
     6
  0
BLOCK_RECORD
  5
6C
330
1
100
AcDbSymbolTableRecord
100
AcDbBlockTableRecord
  2
*Model_Space
340
6F
  0
BLOCK_RECORD
  5
68
330
1
100
AcDbSymbolTableRecord
100
AcDbBlockTableRecord
  2
*Paper_Space
340
6B
  0
BLOCK_RECORD
  5
70
330
1
100
AcDbSymbolTableRecord
100
AcDbBlockTableRecord
  2
*Paper_Space0
340
73
  0
BLOCK_RECORD
  5
C3
330
1
100
AcDbSymbolTableRecord
100
AcDbBlockTableRecord
  2
_Closed
340
0
  0
BLOCK_RECORD
  5
CA
330
1
100
AcDbSymbolTableRecord
100
AcDbBlockTableRecord
  2
DatumFilled45
340
0
  0
BLOCK_RECORD
  5
D5
330
1
100
AcDbSymbolTableRecord
100
AcDbBlockTableRecord
  2
Filled-1
340
0
  0
BLOCK_RECORD
  5
E8
330
1
100
AcDbSymbolTableRecord
100
AcDbBlockTableRecord
  2
SECTION SYMBOL
340
0
  0
BLOCK_RECORD
  5
101
330
1
100
AcDbSymbolTableRecord
100
AcDbBlockTableRecord
  2
Revision Bubble
340
0
  0
ENDTAB
  0
ENDSEC
  0
SECTION
  2
BLOCKS
  0
BLOCK
  5
6D
330
6C
100
AcDbEntity
  8
0
100
AcDbBlockBegin
  2
*Model_Space
 70
     0
 10
0.0
 20
0.0
 30
0.0
  3
*Model_Space
  1

  0
ENDBLK
  5
6E
330
6C
100
AcDbEntity
  8
0
100
AcDbBlockEnd
  0
BLOCK
  5
69
330
68
100
AcDbEntity
 67
     1
  8
0
100
AcDbBlockBegin
  2
*Paper_Space
 70
     0
 10
0.0
 20
0.0
 30
0.0
  3
*Paper_Space
  1

  0
ENDBLK
  5
6A
330
68
100
AcDbEntity
 67
     1
  8
0
100
AcDbBlockEnd
  0
BLOCK
  5
71
330
70
100
AcDbEntity
 67
     1
  8
0
100
AcDbBlockBegin
  2
*Paper_Space0
 70
     0
 10
0.0
 20
0.0
 30
0.0
  3
*Paper_Space0
  1

  0
ENDBLK
  5
72
330
70
100
AcDbEntity
 67
     1
  8
0
100
AcDbBlockEnd
  0
BLOCK
  5
C8
330
C3
100
AcDbEntity
  8
0
100
AcDbBlockBegin
  2
_Closed
 70
     0
 10
0.0
 20
0.0
 30
0.0
  3
_Closed
  1

  0
LINE
  5
C4
330
C3
100
AcDbEntity
  8
0
  6
ByBlock
 62
     0
370
    -2
100
AcDbLine
 10
-1.0
 20
0.1666666666666666
 30
0.0
 11
0.0
 21
0.0
 31
0.0
  0
LINE
  5
C5
330
C3
100
AcDbEntity
  8
0
  6
ByBlock
 62
     0
370
    -2
100
AcDbLine
 10
0.0
 20
0.0
 30
0.0
 11
-1.0
 21
-0.1666666666666666
 31
0.0
  0
LINE
  5
C6
330
C3
100
AcDbEntity
  8
0
  6
ByBlock
 62
     0
370
    -2
100
AcDbLine
 10
-1.0
 20
0.1666666666666666
 30
0.0
 11
-1.0
 21
-0.1666666666666666
 31
0.0
  0
LINE
  5
C7
330
C3
100
AcDbEntity
  8
0
  6
ByBlock
 62
     0
370
    -2
100
AcDbLine
 10
0.0
 20
0.0
 30
0.0
 11
-1.0
 21
0.0
 31
0.0
  0
ENDBLK
  5
C9
330
C3
100
AcDbEntity
  8
0
100
AcDbBlockEnd
  0
BLOCK
  5
CB
330
CA
100
AcDbEntity
  8
0
100
AcDbBlockBegin
  2
DatumFilled45
 70
     0
 10
0.0
 20
0.0
 30
0.0
  3
DatumFilled45
  1

  0
POLYLINE
  5
CD
330
CA
100
AcDbEntity
  8
0
 62
     0
100
AcDb2dPolyline
 66
     1
 10
0.0
 20
0.0
 30
0.0
 70
   128
  0
VERTEX
  5
CE
330
CD
100
AcDbEntity
  8
0
 62
     0
100
AcDbVertex
100
AcDb2dVertex
 10
0.0
 20
0.9999999999999998
 30
0.0
  0
VERTEX
  5
CF
330
CD
100
AcDbEntity
  8
0
 62
     0
100
AcDbVertex
100
AcDb2dVertex
 10
0.0
 20
-0.9999999999999998
 30
0.0
  0
VERTEX
  5
D1
330
CD
100
AcDbEntity
  8
0
 62
     0
100
AcDbVertex
100
AcDb2dVertex
 10
-0.9999999999999998
 20
0.0
 30
0.0
  0
VERTEX
  5
D2
330
CD
100
AcDbEntity
  8
0
 62
     0
100
AcDbVertex
100
AcDb2dVertex
 10
0.0
 20
0.9999999999999998
 30
0.0
  0
SEQEND
  5
D0
330
CD
100
AcDbEntity
  8
0
 62
     0
  0
SOLID
  5
D3
330
CA
100
AcDbEntity
  8
0
 62
     0
100
AcDbTrace
 10
0.0
 20
0.9999999999999998
 30
0.0
 11
0.0
 21
-0.9999999999999998
 31
0.0
 12
-0.9999999999999998
 22
0.0
 32
0.0
 13
0.0
 23
0.9999999999999998
 33
0.0
  0
ENDBLK
  5
CC
330
CA
100
AcDbEntity
  8
0
100
AcDbBlockEnd
  0
BLOCK
  5
D6
330
D5
100
AcDbEntity
  8
0
100
AcDbBlockBegin
  2
Filled-1
 70
     0
 10
0.0
 20
0.0
 30
0.0
  3
Filled-1
  1

  0
LINE
  5
D8
330
D5
100
AcDbEntity
  8
0
 62
     0
100
AcDbLine
 10
-0.9999999999999998
 20
0.0
 30
0.0
 11
0.0
 21
0.0
 31
0.0
  0
POLYLINE
  5
D9
330
D5
100
AcDbEntity
  8
0
 62
     0
100
AcDb2dPolyline
 66
     1
 10
0.0
 20
0.0
 30
0.0
 70
   128
  0
VERTEX
  5
DA
330
D9
100
AcDbEntity
  8
0
 62
     0
100
AcDbVertex
100
AcDb2dVertex
 10
-0.9999999999999998
 20
-0.0994897959183674
 30
0.0
  0
VERTEX
  5
DB
330
D9
100
AcDbEntity
  8
0
 62
     0
100
AcDbVertex
100
AcDb2dVertex
 10
0.0
 20
0.0
 30
0.0
  0
VERTEX
  5
DD
330
D9
100
AcDbEntity
  8
0
 62
     0
100
AcDbVertex
100
AcDb2dVertex
 10
-0.9999999999999998
 20
0.0994897959183674
 30
0.0
  0
VERTEX
  5
DE
330
D9
100
AcDbEntity
  8
0
 62
     0
100
AcDbVertex
100
AcDb2dVertex
 10
-0.9999999999999998
 20
-0.0994897959183674
 30
0.0
  0
SEQEND
  5
DC
330
D9
100
AcDbEntity
  8
0
 62
     0
  0
SOLID
  5
DF
330
D5
100
AcDbEntity
  8
0
 62
     0
100
AcDbTrace
 10
-0.9999999999999998
 20
-0.0994897959183674
 30
0.0
 11
0.0
 21
0.0
 31
0.0
 12
-0.9999999999999998
 22
0.0994897959183674
 32
0.0
 13
-0.9999999999999998
 23
-0.0994897959183674
 33
0.0
  0
LINE
  5
E0
330
D5
100
AcDbEntity
  8
0
 62
     0
100
AcDbLine
 10
-0.9999999999999998
 20
-0.0994897959183674
 30
0.0
 11
0.0
 21
0.0
 31
0.0
  0
LINE
  5
E1
330
D5
100
AcDbEntity
  8
0
 62
     0
100
AcDbLine
 10
0.0
 20
0.0
 30
0.0
 11
-0.9999999999999998
 21
0.0994897959183674
 31
0.0
  0
LINE
  5
E2
330
D5
100
AcDbEntity
  8
0
 62
     0
100
AcDbLine
 10
-0.9999999999999998
 20
0.0994897959183674
 30
0.0
 11
-0.9999999999999998
 21
-0.0994897959183674
 31
0.0
  0
ENDBLK
  5
D7
330
D5
100
AcDbEntity
  8
0
100
AcDbBlockEnd
  0
BLOCK
  5
E9
330
E8
100
AcDbEntity
  8
0
100
AcDbBlockBegin
  2
SECTION SYMBOL
 70
     2
 10
0.0
 20
0.0
 30
0.0
  3
SECTION SYMBOL
  1

  0
HATCH
  5
EE
330
E8
100
AcDbEntity
  8
Hatch
 62
     7
100
AcDbHatch
 10
0.0
 20
0.0
 30
0.0
210
0.0
220
0.0
230
1.0
  2
SOLID
 70
     1
 71
     0
 91
        1
 92
        1
 93
        3
 72
     1
 10
-0.6705530757778919
 20
-0.3750000000000002
 11
-0.6393030757778916
 21
-0.2499999999999999
 72
     1
 10
-0.6393030757778915
 20
-0.2499999999999999
 11
-0.7018030757778916
 21
-0.2499999999999999
 72
     1
 10
-0.7018030757778917
 20
-0.2499999999999999
 11
-0.6705530757778919
 21
-0.3750000000000002
 97
        0
 75
     0
 76
     1
 98
        1
 10
0.0
 20
0.0
450
        0
451
        0
460
0.0
461
0.0
452
        0
462
0.0
453
        0
470

  0
HATCH
  5
F2
330
E8
100
AcDbEntity
  8
Hatch
 62
     7
100
AcDbHatch
 10
0.0
 20
0.0
 30
0.0
210
0.0
220
0.0
230
1.0
  2
SOLID
 70
     1
 71
     0
 91
        1
 92
        1
 93
        3
 72
     1
 10
0.6705530757778928
 20
-0.3750000000000002
 11
0.7018030757778924
 21
-0.2499999999999999
 72
     1
 10
0.7018030757778924
 20
-0.2499999999999999
 11
0.6393030757778926
 21
-0.2499999999999999
 72
     1
 10
0.6393030757778926
 20
-0.2499999999999999
 11
0.6705530757778928
 21
-0.3750000000000002
 97
        0
 75
     0
 76
     1
 98
        1
 10
0.0
 20
0.0
450
        0
451
        0
460
0.0
461
0.0
452
        0
462
0.0
453
        0
470

  0
LINE
  5
F3
330
E8
100
AcDbEntity
  8
Sketch Geometry(BAC Assy)
100
AcDbLine
 10
-0.6705530757778919
 20
-0.3750000000000002
 30
0.0
 11
-0.6393030757778915
 21
-0.2499999999999999
 31
0.0
  0
LINE
  5
F4
330
E8
100
AcDbEntity
  8
Sketch Geometry(BAC Assy)
100
AcDbLine
 10
-0.6393030757778915
 20
-0.2499999999999999
 30
0.0
 11
-0.7018030757778917
 21
-0.2499999999999999
 31
0.0
  0
LINE
  5
F5
330
E8
100
AcDbEntity
  8
Sketch Geometry(BAC Assy)
100
AcDbLine
 10
-0.7018030757778917
 20
-0.2499999999999999
 30
0.0
 11
-0.6705530757778919
 21
-0.3750000000000002
 31
0.0
  0
LINE
  5
F6
330
E8
100
AcDbEntity
  8
Sketch Geometry(BAC Assy)
100
AcDbLine
 10
0.6705530757778928
 20
-0.3750000000000002
 30
0.0
 11
0.7018030757778924
 21
-0.2499999999999999
 31
0.0
  0
LINE
  5
F7
330
E8
100
AcDbEntity
  8
Sketch Geometry(BAC Assy)
100
AcDbLine
 10
0.7018030757778924
 20
-0.2499999999999999
 30
0.0
 11
0.6393030757778926
 21
-0.2499999999999999
 31
0.0
  0
LINE
  5
F8
330
E8
100
AcDbEntity
  8
Sketch Geometry(BAC Assy)
100
AcDbLine
 10
0.6393030757778926
 20
-0.2499999999999999
 30
0.0
 11
0.6705530757778928
 21
-0.3750000000000002
 31
0.0
  0
LINE
  5
F9
330
E8
100
AcDbEntity
  8
Sketch Geometry(BAC Assy)
100
AcDbLine
 10
-0.6705530757778919
 20
-0.3750000000000002
 30
0.0
 11
-0.6705530757778919
 21
0.3750000000000002
 31
0.0
  0
LINE
  5
FA
330
E8
100
AcDbEntity
  8
Sketch Geometry(BAC Assy)
100
AcDbLine
 10
-0.6705530757778919
 20
0.3750000000000002
 30
0.0
 11
0.6705530757778922
 21
0.3750000000000002
 31
0.0
  0
LINE
  5
FB
330
E8
100
AcDbEntity
  8
Sketch Geometry(BAC Assy)
100
AcDbLine
 10
0.6705530757778928
 20
-0.3750000000000002
 30
0.0
 11
0.6705530757778922
 21
0.3750000000000002
 31
0.0
  0
ATTDEF
  5
FC
102
{ACAD_XDICTIONARY
360
656
102
}
330
E8
100
AcDbEntity
  8
Symbols(BAC Assy)
 62
     7
100
AcDbText
 10
-0.8051012470333162
 20
-0.3561459447744604
 30
0.0
 40
0.093999997837337
  1

  7
Current-ANSI-BAC Part-BAC Assy
 72
     1
 11
-0.8051012470333162
 21
-0.3091459458557919
 31
0.0
100
AcDbAttributeDefinition
  3
Enter Prompt for Field
  2
Enter_Prompt_for_Field
 70
     0
 74
     2
  0
ATTDEF
  5
100
102
{ACAD_XDICTIONARY
360
659
102
}
330
E8
100
AcDbEntity
  8
Symbols(BAC Assy)
 62
     7
100
AcDbText
 10
1.424328237886467
 20
-0.343271853321809
 30
0.0
 40
0.093999997837337
  1

  7
Current-ANSI-BAC Part-BAC Assy
 72
     2
 11
1.424328237886467
 21
-0.249271855484472
 31
0.0
100
AcDbAttributeDefinition
  3
Enter Prompt for Field
  2
Enter_Prompt_for_Field
 70
     0
 74
     3
  0
ENDBLK
  5
EA
330
E8
100
AcDbEntity
  8
0
100
AcDbBlockEnd
  0
BLOCK
  5
102
330
101
100
AcDbEntity
  8
0
100
AcDbBlockBegin
  2
Revision Bubble
 70
     2
 10
0.0
 20
0.0
 30
0.0
  3
Revision Bubble
  1

  0
CIRCLE
  5
104
330
101
100
AcDbEntity
  8
Sketch Geometry(BAC Assy)
100
AcDbCircle
 10
0.0
 20
0.0
 30
0.0
 40
0.125
  0
ATTDEF
  5
106
102
{ACAD_XDICTIONARY
360
65C
102
}
330
101
100
AcDbEntity
  8
Symbols(BAC Assy)
 62
   179
420
  2500185
100
AcDbText
 10
-0.7268032520252535
 20
-0.0478732029608019
 30
0.0
 40
0.093999997837337
  1
Rev Level
  7
Text Style74
100
AcDbAttributeDefinition
  3
Rev Level
  2
Rev_Level_001
 70
     0
  0
ATTDEF
  5
107
102
{ACAD_XDICTIONARY
360
65F
102
}
330
101
100
AcDbEntity
  8
Symbols(BAC Assy)
 62
   179
420
  2500185
100
AcDbText
 10
-0.0101206886784616
 20
-0.0478732029608019
 30
0.0
 40
0.093999997837337
  1
Line Number
  7
Text Style74
100
AcDbAttributeDefinition
  3
Line Number
  2
Line_Number_001
 70
     0
  0
ENDBLK
  5
103
330
101
100
AcDbEntity
  8
0
100
AcDbBlockEnd
  0
ENDSEC
  0
SECTION
  2
ENTITIES
  0
ARC
  5
108
330
6C
100
AcDbEntity
  8
Visible (ANSI)
100
AcDbCircle
 10
350.1007811876042
 20
588.8451885881254
 30
0.0
 40
1.74999999999999
100
AcDbArc
 50
90.0
 51
270.0
  0
LINE
  5
109
330
6C
100
AcDbEntity
  8
Visible (ANSI)
100
AcDbLine
 10
351.8581405004849
 20
590.5951885881254
 30
0.0
 11
352.3507811876044
 21
590.5951885881254
 31
0.0
  0
LINE
  5
10A
330
6C
100
AcDbEntity
  8
Visible (ANSI)
100
AcDbLine
 10
351.8581405004849
 20
587.0951885881255
 30
0.0
 11
352.3507811876044
 21
587.0951885881255
 31
0.0
  0
LINE
  5
10B
330
6C
100
AcDbEntity
  8
Visible (ANSI)
100
AcDbLine
 10
351.8581405004849
 20
590.5951885881254
 30
0.0
 11
350.1007811876042
 21
590.5951885881254
 31
0.0
  0
LINE
  5
10C
330
6C
100
AcDbEntity
  8
Visible (ANSI)
100
AcDbLine
 10
350.1007811876042
 20
587.0951885881255
 30
0.0
 11
351.8581405004849
 21
587.0951885881255
 31
0.0
  0
ARC
  5
10D
330
6C
100
AcDbEntity
  8
Visible (ANSI)
100
AcDbCircle
 10
350.1007811876042
 20
588.8451885881254
 30
0.0
 40
2.187499999999986
100
AcDbArc
 50
53.13010235415672
 51
306.8698976458444
  0
LINE
  5
10E
330
6C
100
AcDbEntity
  8
Visible (ANSI)
100
AcDbLine
 10
364.3507811876054
 20
542.2201885881257
 30
0.0
 11
364.3507811876054
 21
541.5951885881257
 31
0.0
  0
LINE
  5
10F
330
6C
100
AcDbEntity
  8
Visible (ANSI)
100
AcDbLine
 10
364.3507811876054
 20
541.5951885881257
 30
0.0
 11
431.6007811876038
 21
541.5951885881257
 31
0.0
  0
LINE
  5
110
330
6C
100
AcDbEntity
  8
Visible (ANSI)
100
AcDbLine
 10
431.6007811876038
 20
542.2201885881257
 30
0.0
 11
431.6007811876038
 21
541.5951885881257
 31
0.0
  0
LINE
  5
111
330
6C
100
AcDbEntity
  8
Visible (ANSI)
100
AcDbLine
 10
433.8507811876038
 20
643.3451885881252
 30
0.0
 11
433.8507811876038
 21
541.5951885881257
 31
0.0
  0
LINE
  5
112
330
6C
100
AcDbEntity
  8
Visible (ANSI)
100
AcDbLine
 10
362.1007811876042
 20
643.3451885881252
 30
0.0
 11
362.7257811876043
 21
643.3451885881252
 31
0.0
  0
LINE
  5
113
330
6C
100
AcDbEntity
  8
Visible (ANSI)
100
AcDbLine
 10
433.225781187604
 20
643.3451885881252
 30
0.0
 11
433.8507811876038
 21
643.3451885881252
 31
0.0
  0
LINE
  5
114
330
6C
100
AcDbEntity
  8
Visible (ANSI)
100
AcDbLine
 10
362.1007811876042
 20
541.5951885881257
 30
0.0
 11
362.1007811876042
 21
544.095188588126
 31
0.0
  0
LINE
  5
115
330
6C
100
AcDbEntity
  8
Visible (ANSI)
100
AcDbLine
 10
362.1007811876042
 20
593.0951885881256
 30
0.0
 11
362.1007811876042
 21
609.5951885881254
 31
0.0
  0
LINE
  5
116
330
6C
100
AcDbEntity
  8
Visible (ANSI)
100
AcDbLine
 10
362.1007811876042
 20
614.0951885881254
 30
0.0
 11
362.1007811876042
 21
643.3451885881252
 31
0.0
  0
LINE
  5
117
330
6C
100
AcDbEntity
  8
Visible (ANSI)
100
AcDbLine
 10
433.8507811876038
 20
541.5951885881257
 30
0.0
 11
431.6007811876038
 21
541.5951885881257
 31
0.0
  0
LINE
  5
118
330
6C
100
AcDbEntity
  8
Visible (ANSI)
100
AcDbLine
 10
364.3507811876056
 20
541.5951885881257
 30
0.0
 11
362.1007811876042
 21
541.5951885881257
 31
0.0
  0
LINE
  5
119
330
6C
100
AcDbEntity
  8
Visible (ANSI)
100
AcDbLine
 10
351.3507811876042
 20
592.9076885881254
 30
0.0
 11
352.3507811876044
 21
592.9076885881254
 31
0.0
  0
LINE
  5
11A
330
6C
100
AcDbEntity
  8
Visible (ANSI)
100
AcDbLine
 10
351.5382811876043
 20
584.5951885881255
 30
0.0
 11
352.3507811876044
 21
584.5951885881255
 31
0.0
  0
LINE
  5
11B
330
6C
100
AcDbEntity
  8
Visible (ANSI)
100
AcDbLine
 10
351.3507811876042
 20
592.9076885881254
 30
0.0
 11
351.3507811876042
 21
590.6403644151686
 31
0.0
  0
LINE
  5
11C
330
6C
100
AcDbEntity
  8
Visible (ANSI)
100
AcDbLine
 10
351.5382811876043
 20
587.0951885881255
 30
0.0
 11
351.5382811876043
 21
584.5951885881255
 31
0.0
  0
LINE
  5
11D
330
6C
100
AcDbEntity
  8
Visible (ANSI)
100
AcDbLine
 10
351.5382811876043
 20
584.5951885881255
 30
0.0
 11
351.0811744064178
 21
584.138081806939
 31
0.0
  0
ARC
  5
11E
330
6C
100
AcDbEntity
  8
Visible (ANSI)
100
AcDbCircle
 10
351.7882811876043
 20
583.4309750257524
 30
0.0
 40
1.000000000000036
100
AcDbArc
 50
135.0
 51
180.0
  0
LINE
  5
11F
330
6C
100
AcDbEntity
  8
Visible (ANSI)
100
AcDbLine
 10
350.7882811876042
 20
583.4309750257524
 30
0.0
 11
350.7882811876042
 21
575.9701885881255
 31
0.0
  0
ARC
  5
120
330
6C
100
AcDbEntity
  8
Visible (ANSI)
100
AcDbCircle
 10
352.7882811876043
 20
575.9701885881255
 30
0.0
 40
1.99999999999999
100
AcDbArc
 50
180.0
 51
257.3643749069835
  0
LINE
  5
121
330
6C
100
AcDbEntity
  8
Visible (ANSI)
100
AcDbLine
 10
356.3507811876043
 20
606.8451885881254
 30
0.0
 11
356.3507811876043
 21
593.0951885881256
 31
0.0
  0
LINE
  5
122
330
6C
100
AcDbEntity
  8
Visible (ANSI)
100
AcDbLine
 10
351.8507811876043
 20
606.8451885881254
 30
0.0
 11
351.8507811876043
 21
592.9076885881254
 31
0.0
  0
ARC
  5
123
330
6C
100
AcDbEntity
  8
Visible (ANSI)
100
AcDbCircle
 10
359.1007811876043
 20
606.8451885881254
 30
0.0
 40
7.249999999999914
100
AcDbArc
 50
90.0
 51
180.0
  0
ARC
  5
124
330
6C
100
AcDbEntity
  8
Visible (ANSI)
100
AcDbCircle
 10
359.1007811876043
 20
606.8451885881254
 30
0.0
 40
2.749999999999936
100
AcDbArc
 50
90.0
 51
180.0
  0
LINE
  5
125
330
6C
100
AcDbEntity
  8
Visible (ANSI)
100
AcDbLine
 10
362.7257811876042
 20
609.5951885881254
 30
0.0
 11
359.1007811876042
 21
609.5951885881254
 31
0.0
  0
LINE
  5
126
330
6C
100
AcDbEntity
  8
Visible (ANSI)
100
AcDbLine
 10
362.7257811876042
 20
614.0951885881254
 30
0.0
 11
359.1007811876042
 21
614.0951885881254
 31
0.0
  0
LINE
  5
127
330
6C
100
AcDbEntity
  8
Visible (ANSI)
100
AcDbLine
 10
366.2257811876041
 20
579.8451885881256
 30
0.0
 11
366.2257811876041
 21
587.8451885881258
 31
0.0
  0
LINE
  5
128
330
6C
100
AcDbEntity
  8
Visible (ANSI)
100
AcDbLine
 10
429.7257811876041
 20
579.8451885881256
 30
0.0
 11
366.2257811876041
 21
579.8451885881256
 31
0.0
  0
LINE
  5
129
330
6C
100
AcDbEntity
  8
Visible (ANSI)
100
AcDbLine
 10
429.7257811876041
 20
587.8451885881258
 30
0.0
 11
429.7257811876041
 21
579.8451885881256
 31
0.0
  0
LINE
  5
12A
330
6C
100
AcDbEntity
  8
Visible (ANSI)
100
AcDbLine
 10
366.2257811876041
 20
587.8451885881258
 30
0.0
 11
377.3622427055774
 21
587.8451885881258
 31
0.0
  0
LINE
  5
12B
330
6C
100
AcDbEntity
  8
Visible (ANSI)
100
AcDbLine
 10
418.5893196696309
 20
587.8451885881258
 30
0.0
 11
429.7257811876041
 21
587.8451885881258
 31
0.0
  0
LINE
  5
12C
330
6C
100
AcDbEntity
  8
Visible (ANSI)
100
AcDbLine
 10
429.7257811876041
 20
587.8451885881258
 30
0.0
 11
433.2257811876042
 21
587.8451885881258
 31
0.0
  0
LINE
  5
12D
330
6C
100
AcDbEntity
  8
Visible (ANSI)
100
AcDbLine
 10
362.7257811876041
 20
587.8451885881258
 30
0.0
 11
366.2257811876041
 21
587.8451885881258
 31
0.0
  0
LINE
  5
12E
330
6C
100
AcDbEntity
  8
Visible (ANSI)
100
AcDbLine
 10
362.7257811876041
 20
542.2201885881257
 30
0.0
 11
362.7257811876041
 21
544.0951885881258
 31
0.0
  0
LINE
  5
12F
330
6C
100
AcDbEntity
  8
Visible (ANSI)
100
AcDbLine
 10
433.2257811876042
 20
587.8451885881258
 30
0.0
 11
433.225781187604
 21
542.2201885881257
 31
0.0
  0
LINE
  5
130
330
6C
100
AcDbEntity
  8
Visible (ANSI)
100
AcDbLine
 10
433.225781187604
 20
542.2201885881257
 30
0.0
 11
362.7257811876041
 21
542.2201885881257
 31
0.0
  0
LINE
  5
131
330
6C
100
AcDbEntity
  8
Visible (ANSI)
100
AcDbLine
 10
362.7257811876041
 20
593.0951885881257
 30
0.0
 11
352.3507811876041
 21
593.0951885881257
 31
0.0
  0
LINE
  5
132
330
6C
100
AcDbEntity
  8
Visible (ANSI)
100
AcDbLine
 10
362.7257811876041
 20
587.8451885881258
 30
0.0
 11
362.7257811876041
 21
593.0951885881257
 31
0.0
  0
LINE
  5
133
330
6C
100
AcDbEntity
  8
Visible (ANSI)
100
AcDbLine
 10
352.3507811876041
 20
593.0951885881257
 30
0.0
 11
352.3507811876041
 21
544.0951885881258
 31
0.0
  0
LINE
  5
134
330
6C
100
AcDbEntity
  8
Visible (ANSI)
100
AcDbLine
 10
352.3507811876041
 20
544.0951885881258
 30
0.0
 11
362.7257811876041
 21
544.0951885881258
 31
0.0
  0
LINE
  5
135
330
6C
100
AcDbEntity
  8
Visible (ANSI)
100
AcDbLine
 10
431.3507811876042
 20
579.0951885881256
 30
0.0
 11
431.350781187604
 21
544.0951885881258
 31
0.0
  0
LINE
  5
136
330
6C
100
AcDbEntity
  8
Visible (ANSI)
100
AcDbLine
 10
364.6007811876041
 20
579.0951885881256
 30
0.0
 11
431.3507811876042
 21
579.0951885881256
 31
0.0
  0
LINE
  5
137
330
6C
100
AcDbEntity
  8
Visible (ANSI)
100
AcDbLine
 10
364.6007811876041
 20
544.0951885881258
 30
0.0
 11
364.6007811876041
 21
579.0951885881256
 31
0.0
  0
LINE
  5
138
330
6C
100
AcDbEntity
  8
Visible (ANSI)
100
AcDbLine
 10
431.350781187604
 20
544.0951885881258
 30
0.0
 11
364.6007811876041
 21
544.0951885881258
 31
0.0
  0
LINE
  5
139
330
6C
100
AcDbEntity
  8
Visible (ANSI)
100
AcDbLine
 10
348.7257811876042
 20
560.4701885881257
 30
0.0
 11
348.7257811876042
 21
564.9701885881257
 31
0.0
  0
LINE
  5
13A
330
6C
100
AcDbEntity
  8
Visible (ANSI)
100
AcDbLine
 10
352.3507811876041
 20
560.4701885881257
 30
0.0
 11
348.7257811876042
 21
560.4701885881257
 31
0.0
  0
LINE
  5
13B
330
6C
100
AcDbEntity
  8
Visible (ANSI)
100
AcDbLine
 10
352.3507811876041
 20
564.9701885881257
 30
0.0
 11
348.7257811876042
 21
564.9701885881257
 31
0.0
  0
LINE
  5
13C
330
6C
100
AcDbEntity
  8
Visible (ANSI)
100
AcDbLine
 10
364.6007811876041
 20
552.5951885881256
 30
0.0
 11
431.350781187604
 21
552.5951885881256
 31
0.0
  0
LINE
  5
13D
330
6C
100
AcDbEntity
  8
Visible (ANSI)
100
AcDbLine
 10
364.6007811876041
 20
548.0951885881256
 30
0.0
 11
431.350781187604
 21
548.0951885881256
 31
0.0
  0
LINE
  5
13E
330
6C
100
AcDbEntity
  8
Visible (ANSI)
100
AcDbLine
 10
364.6007811876041
 20
564.3451885881257
 30
0.0
 11
431.350781187604
 21
564.3451885881257
 31
0.0
  0
LINE
  5
13F
330
6C
100
AcDbEntity
  8
Visible (ANSI)
100
AcDbLine
 10
364.6007811876041
 20
559.8451885881257
 30
0.0
 11
431.350781187604
 21
559.8451885881257
 31
0.0
  0
LINE
  5
140
330
6C
100
AcDbEntity
  8
Visible (ANSI)
100
AcDbLine
 10
364.6007811876041
 20
576.0951885881257
 30
0.0
 11
431.350781187604
 21
576.0951885881257
 31
0.0
  0
LINE
  5
141
330
6C
100
AcDbEntity
  8
Visible (ANSI)
100
AcDbLine
 10
364.6007811876041
 20
571.5951885881256
 30
0.0
 11
431.350781187604
 21
571.5951885881257
 31
0.0
  0
ELLIPSE
  5
142
330
6C
100
AcDbEntity
  8
Visible (ANSI)
100
AcDbEllipse
 10
399.7435481405704
 20
613.9254555410921
 30
0.0
 11
-0.0883883476483186
 21
0.0883883476483184
 31
0.0
210
0.0
220
0.0
230
0.9999999999999998
 40
0.1701288793327038
 41
2.997101436680909
 42
6.427676524088448
  0
ELLIPSE
  5
143
330
6C
100
AcDbEntity
  8
Visible (ANSI)
100
AcDbEllipse
 10
419.4541496661455
 20
633.6360570666671
 30
0.0
 11
-0.0883883476483184
 21
0.0883883476483185
 31
0.0
210
0.0
220
0.0
230
1.0
 40
0.0856890347290828
 41
3.1415926535944
 42
6.283185307184194
  0
LINE
  5
144
330
6C
100
AcDbEntity
  8
Visible (ANSI)
100
AcDbLine
 10
420.6031981855736
 20
634.6083288907987
 30
0.0
 11
420.4264214902769
 21
634.7851055860951
 31
0.0
  0
ELLIPSE
  5
145
330
6C
100
AcDbEntity
  8
Visible (ANSI)
100
AcDbEllipse
 10
400.4757811876041
 20
612.1576885881258
 30
0.0
 11
-0.0000000000000001
 21
0.1249999999999998
 31
0.0
210
0.0
220
0.0
230
1.0
 40
0.1701288793327021
 41
2.997101436682649
 42
6.427676524090053
  0
ELLIPSE
  5
146
330
6C
100
AcDbEntity
  8
Visible (ANSI)
100
AcDbEllipse
 10
428.3507811876042
 20
612.1576885881258
 30
0.0
 11
0.0
 21
0.125
 31
0.0
210
0.0
220
0.0
230
1.0
 40
0.0856890347290828
 41
3.141592653589807
 42
6.2831853071796
  0
LINE
  5
147
330
6C
100
AcDbEntity
  8
Visible (ANSI)
100
AcDbLine
 10
429.8507811876041
 20
612.0326885881257
 30
0.0
 11
429.8507811876041
 21
612.2826885881258
 31
0.0
  0
ELLIPSE
  5
148
330
6C
100
AcDbEntity
  8
Visible (ANSI)
100
AcDbEllipse
 10
399.7435481405706
 20
610.3899216351593
 30
0.0
 11
0.088388347648316
 21
0.088388347648316
 31
0.0
210
0.0
220
0.0
230
1.0
 40
0.1701288793326999
 41
2.997101436680911
 42
6.427676524088457
  0
ELLIPSE
  5
149
330
6C
100
AcDbEntity
  8
Visible (ANSI)
100
AcDbEllipse
 10
419.4541496661455
 20
590.6793201095843
 30
0.0
 11
0.0883883476483185
 21
0.0883883476483184
 31
0.0
210
0.0
220
0.0
230
1.0
 40
0.0856890347290829
 41
3.141592653589825
 42
6.283185307179618
  0
LINE
  5
14A
330
6C
100
AcDbEntity
  8
Visible (ANSI)
100
AcDbLine
 10
420.4264214902769
 20
589.5302715901562
 30
0.0
 11
420.6031981855736
 21
589.7070482854529
 31
0.0
  0
ELLIPSE
  5
14B
330
6C
100
AcDbEntity
  8
Visible (ANSI)
100
AcDbEllipse
 10
397.9757811876041
 20
609.6576885881257
 30
0.0
 11
0.125
 21
-0.0000000000000002
 31
0.0
210
0.0
220
0.0
230
1.0
 40
0.1701288793326998
 41
2.99710143668266
 42
6.427676524090068
  0
ELLIPSE
  5
14C
330
6C
100
AcDbEntity
  8
Visible (ANSI)
100
AcDbEllipse
 10
397.9757811876041
 20
581.7826885881258
 30
0.0
 11
0.125
 21
0.0
 31
0.0
210
0.0
220
0.0
230
1.0
 40
0.0856890347290831
 41
3.141592653589826
 42
6.283185307179619
  0
LINE
  5
14D
330
6C
100
AcDbEntity
  8
Visible (ANSI)
100
AcDbLine
 10
397.8507811876042
 20
580.2826885881257
 30
0.0
 11
398.1007811876042
 21
580.2826885881257
 31
0.0
  0
ELLIPSE
  5
14E
330
6C
100
AcDbEntity
  8
Visible (ANSI)
100
AcDbEllipse
 10
396.2080142346378
 20
610.3899216351593
 30
0.0
 11
0.0883883476483188
 21
-0.0883883476483184
 31
0.0
210
0.0
220
0.0
230
1.0
 40
0.1701288793327019
 41
2.997101436680904
 42
6.427676524088447
  0
ELLIPSE
  5
14F
330
6C
100
AcDbEntity
  8
Visible (ANSI)
100
AcDbEllipse
 10
376.4974127090628
 20
590.6793201095844
 30
0.0
 11
0.0883883476483184
 21
-0.0883883476483185
 31
0.0
210
0.0
220
0.0
230
0.9999999999999998
 40
0.0856890347290832
 41
3.141592653589809
 42
6.283185307179603
  0
LINE
  5
150
330
6C
100
AcDbEntity
  8
Visible (ANSI)
100
AcDbLine
 10
375.3483641896346
 20
589.7070482854529
 30
0.0
 11
375.5251408849312
 21
589.5302715901562
 31
0.0
  0
ELLIPSE
  5
151
330
6C
100
AcDbEntity
  8
Visible (ANSI)
100
AcDbEllipse
 10
395.4757811876041
 20
612.1576885881258
 30
0.0
 11
0.0000000000000001
 21
-0.1249999999999998
 31
0.0
210
0.0
220
0.0
230
1.0
 40
0.1701288793327026
 41
2.997101436682648
 42
6.427676524090051
  0
ELLIPSE
  5
152
330
6C
100
AcDbEntity
  8
Visible (ANSI)
100
AcDbEllipse
 10
367.6007811876041
 20
612.1576885881258
 30
0.0
 11
0.0
 21
-0.125
 31
0.0
210
0.0
220
0.0
230
1.0
 40
0.0856890347290832
 41
3.141592653589784
 42
6.283185307179577
  0
LINE
  5
153
330
6C
100
AcDbEntity
  8
Visible (ANSI)
100
AcDbLine
 10
366.1007811876041
 20
612.2826885881258
 30
0.0
 11
366.1007811876041
 21
612.0326885881257
 31
0.0
  0
ELLIPSE
  5
154
330
6C
100
AcDbEntity
  8
Visible (ANSI)
100
AcDbEllipse
 10
396.2080142346378
 20
613.9254555410921
 30
0.0
 11
-0.0883883476483184
 21
-0.0883883476483188
 31
0.0
210
0.0
220
0.0
230
1.0
 40
0.1701288793327011
 41
2.997101436680905
 42
6.427676524088449
  0
ELLIPSE
  5
155
330
6C
100
AcDbEntity
  8
Visible (ANSI)
100
AcDbEllipse
 10
376.4974127090628
 20
633.6360570666671
 30
0.0
 11
-0.0883883476483185
 21
-0.0883883476483184
 31
0.0
210
0.0
220
0.0
230
0.9999999999999998
 40
0.0856890347290831
 41
3.141592653585149
 42
6.283185307174942
  0
LINE
  5
156
330
6C
100
AcDbEntity
  8
Visible (ANSI)
100
AcDbLine
 10
375.5251408849312
 20
634.7851055860951
 30
0.0
 11
375.3483641896346
 21
634.6083288907987
 31
0.0
  0
LINE
  5
157
330
6C
100
AcDbEntity
  8
Visible (ANSI)
100
AcDbLine
 10
419.5425380137938
 20
633.5476687190188
 30
0.0
 11
418.2240929490546
 21
632.2292236542795
 31
0.0
  0
LINE
  5
158
330
6C
100
AcDbEntity
  8
Visible (ANSI)
100
AcDbLine
 10
418.0473145396813
 20
632.0524452449063
 30
0.0
 11
415.1880081986869
 21
629.1931389039119
 31
0.0
  0
LINE
  5
159
330
6C
100
AcDbEntity
  8
Visible (ANSI)
100
AcDbLine
 10
415.0112291238851
 20
629.0163598291099
 30
0.0
 11
412.1519086410017
 21
626.1570393462267
 31
0.0
  0
LINE
  5
15A
330
6C
100
AcDbEntity
  8
Visible (ANSI)
100
AcDbLine
 10
411.9751284221396
 20
625.9802591273645
 30
0.0
 11
409.1157820724051
 21
623.1209127776301
 31
0.0
  0
LINE
  5
15B
330
6C
100
AcDbEntity
  8
Visible (ANSI)
100
AcDbLine
 10
408.9389996315817
 20
622.9441303368067
 30
0.0
 11
406.0795977989455
 21
620.0847285041704
 31
0.0
  0
LINE
  5
15C
330
6C
100
AcDbEntity
  8
Visible (ANSI)
100
AcDbLine
 10
405.9028101134877
 20
619.9079408187128
 30
0.0
 11
403.0432502585219
 21
617.0483809637468
 31
0.0
  0
LINE
  5
15D
330
6C
100
AcDbEntity
  8
Visible (ANSI)
100
AcDbLine
 10
402.8664446861421
 20
616.8715753913671
 30
0.0
 11
399.8319364882188
 21
613.8370671934437
 31
0.0
  0
LINE
  5
15E
330
6C
100
AcDbEntity
  8
Visible (ANSI)
100
AcDbLine
 10
419.3657613184972
 20
633.7244454143155
 30
0.0
 11
418.0473162537579
 21
632.4060003495762
 31
0.0
  0
LINE
  5
15F
330
6C
100
AcDbEntity
  8
Visible (ANSI)
100
AcDbLine
 10
417.8705378443847
 20
632.229221940203
 30
0.0
 11
415.0112315033902
 21
629.3699155992085
 31
0.0
  0
LINE
  5
160
330
6C
100
AcDbEntity
  8
Visible (ANSI)
100
AcDbLine
 10
414.8344524285884
 20
629.1931365244066
 30
0.0
 11
411.975131945705
 21
626.3338160415234
 31
0.0
  0
LINE
  5
161
330
6C
100
AcDbEntity
  8
Visible (ANSI)
100
AcDbLine
 10
411.7983517268429
 20
626.1570358226612
 30
0.0
 11
408.9390053771085
 21
623.2976894729268
 31
0.0
  0
LINE
  5
162
330
6C
100
AcDbEntity
  8
Visible (ANSI)
100
AcDbLine
 10
408.7622229362851
 20
623.1209070321033
 30
0.0
 11
405.9028211036489
 21
620.261505199467
 31
0.0
  0
LINE
  5
163
330
6C
100
AcDbEntity
  8
Visible (ANSI)
100
AcDbLine
 10
405.7260334181911
 20
620.0847175140093
 30
0.0
 11
402.8664735632252
 21
617.2251576590435
 31
0.0
  0
LINE
  5
164
330
6C
100
AcDbEntity
  8
Visible (ANSI)
100
AcDbLine
 10
402.6896679908455
 20
617.0483520866638
 30
0.0
 11
399.6551597929222
 21
614.0138438887404
 31
0.0
  0
LINE
  5
165
330
6C
100
AcDbEntity
  8
Visible (ANSI)
100
AcDbLine
 10
420.6031981855736
 20
634.6083288907987
 30
0.0
 11
419.5425380137938
 21
633.5476687190188
 31
0.0
  0
LINE
  5
166
330
6C
100
AcDbEntity
  8
Visible (ANSI)
100
AcDbLine
 10
420.4264214902769
 20
634.7851055860951
 30
0.0
 11
419.3657613184972
 21
633.7244454143155
 31
0.0
  0
LINE
  5
167
330
6C
100
AcDbEntity
  8
Visible (ANSI)
100
AcDbLine
 10
428.3507811876042
 20
612.0326885881257
 30
0.0
 11
426.486218295806
 21
612.0326885881257
 31
0.0
  0
LINE
  5
168
330
6C
100
AcDbEntity
  8
Visible (ANSI)
100
AcDbLine
 10
426.2362158717357
 20
612.0326885881257
 30
0.0
 11
422.1925460653218
 21
612.0326885881257
 31
0.0
  0
LINE
  5
169
330
6C
100
AcDbEntity
  8
Visible (ANSI)
100
AcDbLine
 10
421.9425427001935
 20
612.0326885881257
 30
0.0
 11
417.8988528941285
 21
612.0326885881257
 31
0.0
  0
LINE
  5
16A
330
6C
100
AcDbEntity
  8
Visible (ANSI)
100
AcDbLine
 10
417.6488479110544
 20
612.0326885881257
 30
0.0
 11
413.605121523738
 21
612.0326885881257
 31
0.0
  0
LINE
  5
16B
330
6C
100
AcDbEntity
  8
Visible (ANSI)
100
AcDbLine
 10
413.355113398336
 20
612.0326885881257
 30
0.0
 11
409.3113085463474
 21
612.0326885881257
 31
0.0
  0
LINE
  5
16C
330
6C
100
AcDbEntity
  8
Visible (ANSI)
100
AcDbLine
 10
409.0612930039126
 20
612.0326885881257
 30
0.0
 11
405.0172646746021
 21
612.0326885881257
 31
0.0
  0
LINE
  5
16D
330
6C
100
AcDbEntity
  8
Visible (ANSI)
100
AcDbLine
 10
404.7672238362397
 20
612.0326885881257
 30
0.0
 11
400.4757811876041
 21
612.0326885881257
 31
0.0
  0
LINE
  5
16E
330
6C
100
AcDbEntity
  8
Visible (ANSI)
100
AcDbLine
 10
428.3507811876042
 20
612.2826885881257
 30
0.0
 11
426.486218295806
 21
612.2826885881257
 31
0.0
  0
LINE
  5
16F
330
6C
100
AcDbEntity
  8
Visible (ANSI)
100
AcDbLine
 10
426.2362158717357
 20
612.2826885881257
 30
0.0
 11
422.1925460653218
 21
612.2826885881257
 31
0.0
  0
LINE
  5
170
330
6C
100
AcDbEntity
  8
Visible (ANSI)
100
AcDbLine
 10
421.9425427001935
 20
612.2826885881257
 30
0.0
 11
417.8988528941285
 21
612.2826885881257
 31
0.0
  0
LINE
  5
171
330
6C
100
AcDbEntity
  8
Visible (ANSI)
100
AcDbLine
 10
417.6488479110544
 20
612.2826885881257
 30
0.0
 11
413.605121523738
 21
612.2826885881257
 31
0.0
  0
LINE
  5
172
330
6C
100
AcDbEntity
  8
Visible (ANSI)
100
AcDbLine
 10
413.355113398336
 20
612.2826885881257
 30
0.0
 11
409.3113085463474
 21
612.2826885881258
 31
0.0
  0
LINE
  5
173
330
6C
100
AcDbEntity
  8
Visible (ANSI)
100
AcDbLine
 10
409.0612930039126
 20
612.2826885881258
 30
0.0
 11
405.0172646746021
 21
612.2826885881258
 31
0.0
  0
LINE
  5
174
330
6C
100
AcDbEntity
  8
Visible (ANSI)
100
AcDbLine
 10
404.7672238362397
 20
612.2826885881258
 30
0.0
 11
400.4757811876041
 21
612.2826885881258
 31
0.0
  0
LINE
  5
175
330
6C
100
AcDbEntity
  8
Visible (ANSI)
100
AcDbLine
 10
429.8507811876041
 20
612.0326885881257
 30
0.0
 11
428.3507811876042
 21
612.0326885881257
 31
0.0
  0
LINE
  5
176
330
6C
100
AcDbEntity
  8
Visible (ANSI)
100
AcDbLine
 10
429.8507811876041
 20
612.2826885881257
 30
0.0
 11
428.3507811876042
 21
612.2826885881257
 31
0.0
  0
LINE
  5
177
330
6C
100
AcDbEntity
  8
Visible (ANSI)
100
AcDbLine
 10
419.3657613184972
 20
590.5909317619359
 30
0.0
 11
418.0473162537579
 21
591.9093768266752
 31
0.0
  0
LINE
  5
178
330
6C
100
AcDbEntity
  8
Visible (ANSI)
100
AcDbLine
 10
417.8705378443847
 20
592.0861552360484
 30
0.0
 11
415.0112315033902
 21
594.945461577043
 31
0.0
  0
LINE
  5
179
330
6C
100
AcDbEntity
  8
Visible (ANSI)
100
AcDbLine
 10
414.8344524285884
 20
595.1222406518447
 30
0.0
 11
411.975131945705
 21
597.9815611347281
 31
0.0
  0
LINE
  5
17A
330
6C
100
AcDbEntity
  8
Visible (ANSI)
100
AcDbLine
 10
411.7983517268429
 20
598.1583413535903
 30
0.0
 11
408.9390053771085
 21
601.0176877033246
 31
0.0
  0
LINE
  5
17B
330
6C
100
AcDbEntity
  8
Visible (ANSI)
100
AcDbLine
 10
408.7622229362851
 20
601.1944701441482
 30
0.0
 11
405.9028211036489
 21
604.0538719767844
 31
0.0
  0
LINE
  5
17C
330
6C
100
AcDbEntity
  8
Visible (ANSI)
100
AcDbLine
 10
405.7260334181911
 20
604.230659662242
 30
0.0
 11
402.8664735632252
 21
607.0902195172079
 31
0.0
  0
LINE
  5
17D
330
6C
100
AcDbEntity
  8
Visible (ANSI)
100
AcDbLine
 10
402.6896679908455
 20
607.2670250895876
 30
0.0
 11
399.6551597929222
 21
610.3015332875109
 31
0.0
  0
LINE
  5
17E
330
6C
100
AcDbEntity
  8
Visible (ANSI)
100
AcDbLine
 10
419.5425380137938
 20
590.7677084572326
 30
0.0
 11
418.2240929490546
 21
592.0861535219719
 31
0.0
  0
LINE
  5
17F
330
6C
100
AcDbEntity
  8
Visible (ANSI)
100
AcDbLine
 10
418.0473145396813
 20
592.2629319313451
 30
0.0
 11
415.1880081986868
 21
595.1222382723397
 31
0.0
  0
LINE
  5
180
330
6C
100
AcDbEntity
  8
Visible (ANSI)
100
AcDbLine
 10
415.0112291238851
 20
595.2990173471414
 30
0.0
 11
412.1519086410017
 21
598.1583378300247
 31
0.0
  0
LINE
  5
181
330
6C
100
AcDbEntity
  8
Visible (ANSI)
100
AcDbLine
 10
411.9751284221396
 20
598.3351180488869
 30
0.0
 11
409.1157820724051
 21
601.1944643986213
 31
0.0
  0
LINE
  5
182
330
6C
100
AcDbEntity
  8
Visible (ANSI)
100
AcDbLine
 10
408.9389996315817
 20
601.3712468394447
 30
0.0
 11
406.0795977989455
 21
604.2306486720811
 31
0.0
  0
LINE
  5
183
330
6C
100
AcDbEntity
  8
Visible (ANSI)
100
AcDbLine
 10
405.9028101134877
 20
604.4074363575386
 30
0.0
 11
403.0432502585218
 21
607.2669962125046
 31
0.0
  0
LINE
  5
184
330
6C
100
AcDbEntity
  8
Visible (ANSI)
100
AcDbLine
 10
402.8664446861421
 20
607.4438017848843
 30
0.0
 11
399.8319364882188
 21
610.4783099828076
 31
0.0
  0
LINE
  5
185
330
6C
100
AcDbEntity
  8
Visible (ANSI)
100
AcDbLine
 10
420.4264214902769
 20
589.5302715901562
 30
0.0
 11
419.3657613184972
 21
590.5909317619359
 31
0.0
  0
LINE
  5
186
330
6C
100
AcDbEntity
  8
Visible (ANSI)
100
AcDbLine
 10
420.6031981855736
 20
589.7070482854529
 30
0.0
 11
419.5425380137938
 21
590.7677084572326
 31
0.0
  0
LINE
  5
187
330
6C
100
AcDbEntity
  8
Visible (ANSI)
100
AcDbLine
 10
397.8507811876042
 20
581.7826885881258
 30
0.0
 11
397.8507811876042
 21
583.6472514799238
 31
0.0
  0
LINE
  5
188
330
6C
100
AcDbEntity
  8
Visible (ANSI)
100
AcDbLine
 10
397.8507811876042
 20
583.8972539039941
 30
0.0
 11
397.8507811876042
 21
587.9409237104081
 31
0.0
  0
LINE
  5
189
330
6C
100
AcDbEntity
  8
Visible (ANSI)
100
AcDbLine
 10
397.8507811876042
 20
588.1909270755365
 30
0.0
 11
397.8507811876042
 21
592.2346168816012
 31
0.0
  0
LINE
  5
18A
330
6C
100
AcDbEntity
  8
Visible (ANSI)
100
AcDbLine
 10
397.8507811876042
 20
592.4846218646754
 30
0.0
 11
397.8507811876042
 21
596.5283482519919
 31
0.0
  0
LINE
  5
18B
330
6C
100
AcDbEntity
  8
Visible (ANSI)
100
AcDbLine
 10
397.8507811876042
 20
596.7783563773938
 30
0.0
 11
397.8507811876042
 21
600.8221612293824
 31
0.0
  0
LINE
  5
18C
330
6C
100
AcDbEntity
  8
Visible (ANSI)
100
AcDbLine
 10
397.8507811876042
 20
601.0721767718172
 30
0.0
 11
397.8507811876042
 21
605.1162051011277
 31
0.0
  0
LINE
  5
18D
330
6C
100
AcDbEntity
  8
Visible (ANSI)
100
AcDbLine
 10
397.8507811876042
 20
605.3662459394902
 30
0.0
 11
397.8507811876042
 21
609.6576885881257
 31
0.0
  0
LINE
  5
18E
330
6C
100
AcDbEntity
  8
Visible (ANSI)
100
AcDbLine
 10
398.1007811876041
 20
581.7826885881258
 30
0.0
 11
398.1007811876041
 21
583.6472514799238
 31
0.0
  0
LINE
  5
18F
330
6C
100
AcDbEntity
  8
Visible (ANSI)
100
AcDbLine
 10
398.1007811876041
 20
583.8972539039941
 30
0.0
 11
398.1007811876041
 21
587.9409237104081
 31
0.0
  0
LINE
  5
190
330
6C
100
AcDbEntity
  8
Visible (ANSI)
100
AcDbLine
 10
398.1007811876041
 20
588.1909270755365
 30
0.0
 11
398.1007811876041
 21
592.2346168816012
 31
0.0
  0
LINE
  5
191
330
6C
100
AcDbEntity
  8
Visible (ANSI)
100
AcDbLine
 10
398.1007811876041
 20
592.4846218646754
 30
0.0
 11
398.1007811876041
 21
596.5283482519919
 31
0.0
  0
LINE
  5
192
330
6C
100
AcDbEntity
  8
Visible (ANSI)
100
AcDbLine
 10
398.1007811876041
 20
596.7783563773938
 30
0.0
 11
398.1007811876041
 21
600.8221612293824
 31
0.0
  0
LINE
  5
193
330
6C
100
AcDbEntity
  8
Visible (ANSI)
100
AcDbLine
 10
398.1007811876041
 20
601.0721767718172
 30
0.0
 11
398.1007811876041
 21
605.1162051011277
 31
0.0
  0
LINE
  5
194
330
6C
100
AcDbEntity
  8
Visible (ANSI)
100
AcDbLine
 10
398.1007811876041
 20
605.3662459394902
 30
0.0
 11
398.1007811876041
 21
609.6576885881257
 31
0.0
  0
LINE
  5
195
330
6C
100
AcDbEntity
  8
Visible (ANSI)
100
AcDbLine
 10
397.8507811876042
 20
580.2826885881257
 30
0.0
 11
397.8507811876042
 21
581.7826885881258
 31
0.0
  0
LINE
  5
196
330
6C
100
AcDbEntity
  8
Visible (ANSI)
100
AcDbLine
 10
398.1007811876041
 20
580.2826885881257
 30
0.0
 11
398.1007811876041
 21
581.7826885881258
 31
0.0
  0
LINE
  5
197
330
6C
100
AcDbEntity
  8
Visible (ANSI)
100
AcDbLine
 10
376.4090243614144
 20
590.7677084572326
 30
0.0
 11
377.7274694261536
 21
592.0861535219719
 31
0.0
  0
LINE
  5
198
330
6C
100
AcDbEntity
  8
Visible (ANSI)
100
AcDbLine
 10
377.9042478355269
 20
592.2629319313451
 30
0.0
 11
380.7635541765214
 21
595.1222382723397
 31
0.0
  0
LINE
  5
199
330
6C
100
AcDbEntity
  8
Visible (ANSI)
100
AcDbLine
 10
380.9403332513232
 20
595.2990173471414
 30
0.0
 11
383.7996537342066
 21
598.1583378300248
 31
0.0
  0
LINE
  5
19A
330
6C
100
AcDbEntity
  8
Visible (ANSI)
100
AcDbLine
 10
383.9764339530687
 20
598.3351180488869
 30
0.0
 11
386.8357803028031
 21
601.1944643986213
 31
0.0
  0
LINE
  5
19B
330
6C
100
AcDbEntity
  8
Visible (ANSI)
100
AcDbLine
 10
387.0125627436266
 20
601.3712468394449
 30
0.0
 11
389.8719645762628
 21
604.2306486720811
 31
0.0
  0
LINE
  5
19C
330
6C
100
AcDbEntity
  8
Visible (ANSI)
100
AcDbLine
 10
390.0487522617205
 20
604.4074363575386
 30
0.0
 11
392.9083121166864
 21
607.2669962125046
 31
0.0
  0
LINE
  5
19D
330
6C
100
AcDbEntity
  8
Visible (ANSI)
100
AcDbLine
 10
393.0851176890661
 20
607.4438017848843
 30
0.0
 11
396.1196258869894
 21
610.4783099828076
 31
0.0
  0
LINE
  5
19E
330
6C
100
AcDbEntity
  8
Visible (ANSI)
100
AcDbLine
 10
376.585801056711
 20
590.590931761936
 30
0.0
 11
377.9042461214503
 21
591.9093768266752
 31
0.0
  0
LINE
  5
19F
330
6C
100
AcDbEntity
  8
Visible (ANSI)
100
AcDbLine
 10
378.0810245308235
 20
592.0861552360484
 30
0.0
 11
380.9403308718181
 21
594.945461577043
 31
0.0
  0
LINE
  5
1A0
330
6C
100
AcDbEntity
  8
Visible (ANSI)
100
AcDbLine
 10
381.1171099466198
 20
595.1222406518447
 30
0.0
 11
383.9764304295031
 21
597.9815611347281
 31
0.0
  0
LINE
  5
1A1
330
6C
100
AcDbEntity
  8
Visible (ANSI)
100
AcDbLine
 10
384.1532106483653
 20
598.1583413535903
 30
0.0
 11
387.0125569980997
 21
601.0176877033246
 31
0.0
  0
LINE
  5
1A2
330
6C
100
AcDbEntity
  8
Visible (ANSI)
100
AcDbLine
 10
387.1893394389232
 20
601.1944701441482
 30
0.0
 11
390.0487412715595
 21
604.0538719767844
 31
0.0
  0
LINE
  5
1A3
330
6C
100
AcDbEntity
  8
Visible (ANSI)
100
AcDbLine
 10
390.2255289570171
 20
604.230659662242
 30
0.0
 11
393.085088811983
 21
607.0902195172079
 31
0.0
  0
LINE
  5
1A4
330
6C
100
AcDbEntity
  8
Visible (ANSI)
100
AcDbLine
 10
393.2618943843627
 20
607.2670250895876
 30
0.0
 11
396.2964025822861
 21
610.3015332875109
 31
0.0
  0
LINE
  5
1A5
330
6C
100
AcDbEntity
  8
Visible (ANSI)
100
AcDbLine
 10
375.3483641896346
 20
589.7070482854529
 30
0.0
 11
376.4090243614144
 21
590.7677084572326
 31
0.0
  0
LINE
  5
1A6
330
6C
100
AcDbEntity
  8
Visible (ANSI)
100
AcDbLine
 10
375.5251408849312
 20
589.5302715901562
 30
0.0
 11
376.585801056711
 21
590.590931761936
 31
0.0
  0
LINE
  5
1A7
330
6C
100
AcDbEntity
  8
Visible (ANSI)
100
AcDbLine
 10
367.6007811876041
 20
612.2826885881258
 30
0.0
 11
369.4653440794023
 21
612.2826885881258
 31
0.0
  0
LINE
  5
1A8
330
6C
100
AcDbEntity
  8
Visible (ANSI)
100
AcDbLine
 10
369.7153465034726
 20
612.2826885881258
 30
0.0
 11
373.7590163098865
 21
612.2826885881258
 31
0.0
  0
LINE
  5
1A9
330
6C
100
AcDbEntity
  8
Visible (ANSI)
100
AcDbLine
 10
374.0090196750148
 20
612.2826885881258
 30
0.0
 11
378.0527094810797
 21
612.2826885881258
 31
0.0
  0
LINE
  5
1AA
330
6C
100
AcDbEntity
  8
Visible (ANSI)
100
AcDbLine
 10
378.3027144641538
 20
612.2826885881258
 30
0.0
 11
382.3464408514703
 21
612.2826885881258
 31
0.0
  0
LINE
  5
1AB
330
6C
100
AcDbEntity
  8
Visible (ANSI)
100
AcDbLine
 10
382.5964489768722
 20
612.2826885881258
 30
0.0
 11
386.6402538288609
 21
612.2826885881258
 31
0.0
  0
LINE
  5
1AC
330
6C
100
AcDbEntity
  8
Visible (ANSI)
100
AcDbLine
 10
386.8902693712956
 20
612.2826885881258
 30
0.0
 11
390.934297700606
 21
612.2826885881258
 31
0.0
  0
LINE
  5
1AD
330
6C
100
AcDbEntity
  8
Visible (ANSI)
100
AcDbLine
 10
391.1843385389686
 20
612.2826885881258
 30
0.0
 11
395.4757811876041
 21
612.2826885881258
 31
0.0
  0
LINE
  5
1AE
330
6C
100
AcDbEntity
  8
Visible (ANSI)
100
AcDbLine
 10
367.6007811876041
 20
612.0326885881257
 30
0.0
 11
369.4653440794023
 21
612.0326885881257
 31
0.0
  0
LINE
  5
1AF
330
6C
100
AcDbEntity
  8
Visible (ANSI)
100
AcDbLine
 10
369.7153465034726
 20
612.0326885881257
 30
0.0
 11
373.7590163098865
 21
612.0326885881257
 31
0.0
  0
LINE
  5
1B0
330
6C
100
AcDbEntity
  8
Visible (ANSI)
100
AcDbLine
 10
374.0090196750148
 20
612.0326885881257
 30
0.0
 11
378.0527094810797
 21
612.0326885881257
 31
0.0
  0
LINE
  5
1B1
330
6C
100
AcDbEntity
  8
Visible (ANSI)
100
AcDbLine
 10
378.3027144641538
 20
612.0326885881257
 30
0.0
 11
382.3464408514703
 21
612.0326885881257
 31
0.0
  0
LINE
  5
1B2
330
6C
100
AcDbEntity
  8
Visible (ANSI)
100
AcDbLine
 10
382.5964489768722
 20
612.0326885881257
 30
0.0
 11
386.6402538288609
 21
612.0326885881257
 31
0.0
  0
LINE
  5
1B3
330
6C
100
AcDbEntity
  8
Visible (ANSI)
100
AcDbLine
 10
386.8902693712956
 20
612.0326885881257
 30
0.0
 11
390.934297700606
 21
612.0326885881257
 31
0.0
  0
LINE
  5
1B4
330
6C
100
AcDbEntity
  8
Visible (ANSI)
100
AcDbLine
 10
391.1843385389686
 20
612.0326885881257
 30
0.0
 11
395.4757811876041
 21
612.0326885881257
 31
0.0
  0
LINE
  5
1B5
330
6C
100
AcDbEntity
  8
Visible (ANSI)
100
AcDbLine
 10
366.1007811876041
 20
612.2826885881258
 30
0.0
 11
367.6007811876041
 21
612.2826885881258
 31
0.0
  0
LINE
  5
1B6
330
6C
100
AcDbEntity
  8
Visible (ANSI)
100
AcDbLine
 10
366.1007811876041
 20
612.0326885881257
 30
0.0
 11
367.6007811876041
 21
612.0326885881257
 31
0.0
  0
LINE
  5
1B7
330
6C
100
AcDbEntity
  8
Visible (ANSI)
100
AcDbLine
 10
376.585801056711
 20
633.7244454143155
 30
0.0
 11
377.9042461214503
 21
632.4060003495762
 31
0.0
  0
LINE
  5
1B8
330
6C
100
AcDbEntity
  8
Visible (ANSI)
100
AcDbLine
 10
378.0810245308235
 20
632.229221940203
 30
0.0
 11
380.9403308718181
 21
629.3699155992085
 31
0.0
  0
LINE
  5
1B9
330
6C
100
AcDbEntity
  8
Visible (ANSI)
100
AcDbLine
 10
381.1171099466198
 20
629.1931365244066
 30
0.0
 11
383.9764304295031
 21
626.3338160415234
 31
0.0
  0
LINE
  5
1BA
330
6C
100
AcDbEntity
  8
Visible (ANSI)
100
AcDbLine
 10
384.1532106483653
 20
626.1570358226612
 30
0.0
 11
387.0125569980997
 21
623.2976894729268
 31
0.0
  0
LINE
  5
1BB
330
6C
100
AcDbEntity
  8
Visible (ANSI)
100
AcDbLine
 10
387.1893394389232
 20
623.1209070321033
 30
0.0
 11
390.0487412715595
 21
620.261505199467
 31
0.0
  0
LINE
  5
1BC
330
6C
100
AcDbEntity
  8
Visible (ANSI)
100
AcDbLine
 10
390.2255289570171
 20
620.0847175140093
 30
0.0
 11
393.0850888119831
 21
617.2251576590435
 31
0.0
  0
LINE
  5
1BD
330
6C
100
AcDbEntity
  8
Visible (ANSI)
100
AcDbLine
 10
393.2618943843627
 20
617.0483520866638
 30
0.0
 11
396.2964025822861
 21
614.0138438887404
 31
0.0
  0
LINE
  5
1BE
330
6C
100
AcDbEntity
  8
Visible (ANSI)
100
AcDbLine
 10
376.4090243614144
 20
633.5476687190188
 30
0.0
 11
377.7274694261537
 21
632.2292236542795
 31
0.0
  0
LINE
  5
1BF
330
6C
100
AcDbEntity
  8
Visible (ANSI)
100
AcDbLine
 10
377.9042478355269
 20
632.0524452449063
 30
0.0
 11
380.7635541765214
 21
629.1931389039119
 31
0.0
  0
LINE
  5
1C0
330
6C
100
AcDbEntity
  8
Visible (ANSI)
100
AcDbLine
 10
380.9403332513232
 20
629.0163598291099
 30
0.0
 11
383.7996537342066
 21
626.1570393462267
 31
0.0
  0
LINE
  5
1C1
330
6C
100
AcDbEntity
  8
Visible (ANSI)
100
AcDbLine
 10
383.9764339530687
 20
625.9802591273645
 30
0.0
 11
386.8357803028031
 21
623.1209127776301
 31
0.0
  0
LINE
  5
1C2
330
6C
100
AcDbEntity
  8
Visible (ANSI)
100
AcDbLine
 10
387.0125627436266
 20
622.9441303368067
 30
0.0
 11
389.8719645762628
 21
620.0847285041704
 31
0.0
  0
LINE
  5
1C3
330
6C
100
AcDbEntity
  8
Visible (ANSI)
100
AcDbLine
 10
390.0487522617205
 20
619.9079408187128
 30
0.0
 11
392.9083121166864
 21
617.0483809637468
 31
0.0
  0
LINE
  5
1C4
330
6C
100
AcDbEntity
  8
Visible (ANSI)
100
AcDbLine
 10
393.0851176890661
 20
616.8715753913671
 30
0.0
 11
396.1196258869894
 21
613.8370671934437
 31
0.0
  0
LINE
  5
1C5
330
6C
100
AcDbEntity
  8
Visible (ANSI)
100
AcDbLine
 10
375.5251408849312
 20
634.7851055860953
 30
0.0
 11
376.585801056711
 21
633.7244454143155
 31
0.0
  0
LINE
  5
1C6
330
6C
100
AcDbEntity
  8
Visible (ANSI)
100
AcDbLine
 10
375.3483641896346
 20
634.6083288907987
 30
0.0
 11
376.4090243614144
 21
633.5476687190188
 31
0.0
  0
ARC
  5
1C7
330
6C
100
AcDbEntity
  8
Visible (ANSI)
100
AcDbCircle
 10
397.9757811876041
 20
612.1576885881258
 30
0.0
 40
30.375
100
AcDbArc
 50
90.23578576638888
 51
134.7642142336111
  0
ARC
  5
1C8
330
6C
100
AcDbEntity
  8
Visible (ANSI)
100
AcDbCircle
 10
397.9757811876041
 20
612.1576885881258
 30
0.0
 40
31.87499999999996
100
AcDbArc
 50
90.22468990733273
 51
134.7753100926672
  0
ARC
  5
1C9
330
6C
100
AcDbEntity
  8
Visible (ANSI)
100
AcDbCircle
 10
397.9757811876041
 20
612.1576885881258
 30
0.0
 40
30.37499999999996
100
AcDbArc
 50
135.2357857663889
 51
179.7642142336115
  0
ARC
  5
1CA
330
6C
100
AcDbEntity
  8
Visible (ANSI)
100
AcDbCircle
 10
397.9757811876041
 20
612.1576885881258
 30
0.0
 40
31.87499999999997
100
AcDbArc
 50
135.2246899073327
 51
179.7753100926684
  0
ARC
  5
1CB
330
6C
100
AcDbEntity
  8
Visible (ANSI)
100
AcDbCircle
 10
397.9757811876041
 20
612.1576885881258
 30
0.0
 40
30.375
100
AcDbArc
 50
180.2357857663885
 51
224.7642142336112
  0
ARC
  5
1CC
330
6C
100
AcDbEntity
  8
Visible (ANSI)
100
AcDbCircle
 10
397.9757811876041
 20
612.1576885881258
 30
0.0
 40
31.87499999999996
100
AcDbArc
 50
180.2246899073316
 51
224.7753100926672
  0
ARC
  5
1CD
330
6C
100
AcDbEntity
  8
Visible (ANSI)
100
AcDbCircle
 10
397.9757811876041
 20
612.1576885881258
 30
0.0
 40
30.37500000000001
100
AcDbArc
 50
225.2357857663889
 51
269.7642142336111
  0
ARC
  5
1CE
330
6C
100
AcDbEntity
  8
Visible (ANSI)
100
AcDbCircle
 10
397.9757811876041
 20
612.1576885881258
 30
0.0
 40
31.87500000000001
100
AcDbArc
 50
225.2246899073329
 51
269.7753100926673
  0
ARC
  5
1CF
330
6C
100
AcDbEntity
  8
Visible (ANSI)
100
AcDbCircle
 10
397.9757811876041
 20
612.1576885881258
 30
0.0
 40
30.375
100
AcDbArc
 50
270.2357857663888
 51
314.764214233611
  0
ARC
  5
1D0
330
6C
100
AcDbEntity
  8
Visible (ANSI)
100
AcDbCircle
 10
397.9757811876041
 20
612.1576885881258
 30
0.0
 40
31.87500000000001
100
AcDbArc
 50
270.2246899073327
 51
314.7753100926672
  0
ARC
  5
1D1
330
6C
100
AcDbEntity
  8
Visible (ANSI)
100
AcDbCircle
 10
397.9757811876041
 20
612.1576885881258
 30
0.0
 40
30.37500000000004
100
AcDbArc
 50
315.2357857663889
 51
359.7642142336115
  0
ARC
  5
1D2
330
6C
100
AcDbEntity
  8
Visible (ANSI)
100
AcDbCircle
 10
397.9757811876041
 20
612.1576885881258
 30
0.0
 40
31.87499999999997
100
AcDbArc
 50
315.2246899073328
 51
359.7753100926684
  0
ARC
  5
1D3
330
6C
100
AcDbEntity
  8
Visible (ANSI)
100
AcDbCircle
 10
397.9757811876041
 20
612.1576885881258
 30
0.0
 40
31.87499999999994
100
AcDbArc
 50
45.22468990733259
 51
89.775310092667
  0
ARC
  5
1D4
330
6C
100
AcDbEntity
  8
Visible (ANSI)
100
AcDbCircle
 10
397.9757811876041
 20
612.1576885881256
 30
0.0
 40
30.37500000000004
100
AcDbArc
 50
45.23578576638889
 51
89.76421423361109
  0
ARC
  5
1D5
330
6C
100
AcDbEntity
  8
Visible (ANSI)
100
AcDbCircle
 10
397.9757811876041
 20
612.1576885881256
 30
0.0
 40
8.000000000000074
100
AcDbArc
 50
123.5427967026144
 51
134.1047170134297
  0
ARC
  5
1D6
330
6C
100
AcDbEntity
  8
Visible (ANSI)
100
AcDbCircle
 10
397.9757811876041
 20
612.1576885881258
 30
0.0
 40
7.999999999999998
100
AcDbArc
 50
135.8952829865699
 51
178.3981929050159
  0
ARC
  5
1D7
330
6C
100
AcDbEntity
  8
Visible (ANSI)
100
AcDbCircle
 10
397.9757811876041
 20
612.1576885881258
 30
0.0
 40
7.999999999999992
100
AcDbArc
 50
183.5427967026148
 51
224.1047170134301
  0
ARC
  5
1D8
330
6C
100
AcDbEntity
  8
Visible (ANSI)
100
AcDbCircle
 10
397.9757811876041
 20
612.1576885881258
 30
0.0
 40
7.999999999999987
100
AcDbArc
 50
225.8952829865699
 51
238.3981929050164
  0
ARC
  5
1D9
330
6C
100
AcDbEntity
  8
Visible (ANSI)
100
AcDbCircle
 10
397.9757811876041
 20
612.1576885881258
 30
0.0
 40
8.000000000000031
100
AcDbArc
 50
243.5427967026144
 51
269.1047170134292
  0
ARC
  5
1DA
330
6C
100
AcDbEntity
  8
Visible (ANSI)
100
AcDbCircle
 10
397.9757811876041
 20
612.1576885881256
 30
0.0
 40
7.999999999999911
100
AcDbArc
 50
270.8952829865698
 51
298.3981929050166
  0
ARC
  5
1DB
330
6C
100
AcDbEntity
  8
Visible (ANSI)
100
AcDbCircle
 10
397.9757811876043
 20
612.1576885881256
 30
0.0
 40
7.999999999999908
100
AcDbArc
 50
303.5427967026146
 51
314.1047170134301
  0
ARC
  5
1DC
330
6C
100
AcDbEntity
  8
Visible (ANSI)
100
AcDbCircle
 10
397.9757811876041
 20
612.1576885881258
 30
0.0
 40
7.999999999999995
100
AcDbArc
 50
315.8952829865699
 51
358.3981929050164
  0
ARC
  5
1DD
330
6C
100
AcDbEntity
  8
Visible (ANSI)
100
AcDbCircle
 10
397.9757811876041
 20
612.1576885881258
 30
0.0
 40
7.999999999999999
100
AcDbArc
 50
3.542796702614738
 51
44.10471701343011
  0
ARC
  5
1DE
330
6C
100
AcDbEntity
  8
Visible (ANSI)
100
AcDbCircle
 10
397.9757811876041
 20
612.1576885881258
 30
0.0
 40
7.999999999999952
100
AcDbArc
 50
45.89528298657024
 51
58.39819290501684
  0
ARC
  5
1DF
330
6C
100
AcDbEntity
  8
Visible (ANSI)
100
AcDbCircle
 10
397.9757811876041
 20
612.1576885881258
 30
0.0
 40
8.000000000000001
100
AcDbArc
 50
63.54279670261447
 51
89.1047170134297
  0
ARC
  5
1E0
330
6C
100
AcDbEntity
  8
Visible (ANSI)
100
AcDbCircle
 10
397.9757811876041
 20
612.1576885881258
 30
0.0
 40
8.000000000000001
100
AcDbArc
 50
90.89528298657027
 51
118.3981929050167
  0
ARC
  5
1E1
330
6C
100
AcDbEntity
  8
Visible (ANSI)
100
AcDbCircle
 10
397.9757811876041
 20
612.1576885881258
 30
0.0
 40
31.875
100
AcDbArc
 50
0.2246899073332502
 51
44.77531009266704
  0
ARC
  5
1E2
330
6C
100
AcDbEntity
  8
Visible (ANSI)
100
AcDbCircle
 10
397.9757811876041
 20
612.1576885881258
 30
0.0
 40
30.37499999999996
100
AcDbArc
 50
0.2357857663885313
 51
44.76421423361102
  0
CIRCLE
  5
1E3
330
6C
100
AcDbEntity
  8
Visible (ANSI)
100
AcDbCircle
 10
397.9757811876041
 20
612.1576885881258
 30
0.0
 40
2.499999999999999
  0
ELLIPSE
  5
1E4
330
6C
100
AcDbEntity
  8
Visible (ANSI)
100
AcDbEllipse
 10
397.9757811876041
 20
614.6576885881257
 30
0.0
 11
-0.125
 21
-0.0000000000000003
 31
0.0
210
0.0
220
0.0
230
1.0
 40
0.1701288793327014
 41
2.997101436682638
 42
6.427676524090044
  0
ELLIPSE
  5
1E5
330
6C
100
AcDbEntity
  8
Visible (ANSI)
100
AcDbEllipse
 10
397.9757811876041
 20
642.5326885881258
 30
0.0
 11
-0.125
 21
0.0
 31
0.0
210
0.0
220
0.0
230
1.0
 40
0.0856890347290829
 41
3.141592653589764
 42
6.283185307179557
  0
LINE
  5
1E6
330
6C
100
AcDbEntity
  8
Visible (ANSI)
100
AcDbLine
 10
398.1007811876042
 20
644.0326885881257
 30
0.0
 11
397.8507811876042
 21
644.0326885881257
 31
0.0
  0
LINE
  5
1E7
330
6C
100
AcDbEntity
  8
Visible (ANSI)
100
AcDbLine
 10
398.1007811876041
 20
642.5326885881258
 30
0.0
 11
398.1007811876041
 21
640.6681256963277
 31
0.0
  0
LINE
  5
1E8
330
6C
100
AcDbEntity
  8
Visible (ANSI)
100
AcDbLine
 10
398.1007811876041
 20
640.4181232722573
 30
0.0
 11
398.1007811876041
 21
636.3744534658435
 31
0.0
  0
LINE
  5
1E9
330
6C
100
AcDbEntity
  8
Visible (ANSI)
100
AcDbLine
 10
398.1007811876041
 20
636.1244501007149
 30
0.0
 11
398.1007811876041
 21
632.0807602946501
 31
0.0
  0
LINE
  5
1EA
330
6C
100
AcDbEntity
  8
Visible (ANSI)
100
AcDbLine
 10
398.1007811876041
 20
631.830755311576
 30
0.0
 11
398.1007811876041
 21
627.7870289242596
 31
0.0
  0
LINE
  5
1EB
330
6C
100
AcDbEntity
  8
Visible (ANSI)
100
AcDbLine
 10
398.1007811876041
 20
627.5370207988577
 30
0.0
 11
398.1007811876041
 21
623.4932159468691
 31
0.0
  0
LINE
  5
1EC
330
6C
100
AcDbEntity
  8
Visible (ANSI)
100
AcDbLine
 10
398.1007811876041
 20
623.2432004044341
 30
0.0
 11
398.1007811876041
 21
619.1991720751238
 31
0.0
  0
LINE
  5
1ED
330
6C
100
AcDbEntity
  8
Visible (ANSI)
100
AcDbLine
 10
398.1007811876041
 20
618.9491312367613
 30
0.0
 11
398.1007811876041
 21
614.6576885881257
 31
0.0
  0
LINE
  5
1EE
330
6C
100
AcDbEntity
  8
Visible (ANSI)
100
AcDbLine
 10
397.8507811876042
 20
642.5326885881258
 30
0.0
 11
397.8507811876042
 21
640.6681256963277
 31
0.0
  0
LINE
  5
1EF
330
6C
100
AcDbEntity
  8
Visible (ANSI)
100
AcDbLine
 10
397.8507811876042
 20
640.4181232722573
 30
0.0
 11
397.8507811876042
 21
636.3744534658435
 31
0.0
  0
LINE
  5
1F0
330
6C
100
AcDbEntity
  8
Visible (ANSI)
100
AcDbLine
 10
397.8507811876042
 20
636.1244501007149
 30
0.0
 11
397.8507811876042
 21
632.0807602946501
 31
0.0
  0
LINE
  5
1F1
330
6C
100
AcDbEntity
  8
Visible (ANSI)
100
AcDbLine
 10
397.8507811876042
 20
631.830755311576
 30
0.0
 11
397.8507811876042
 21
627.7870289242596
 31
0.0
  0
LINE
  5
1F2
330
6C
100
AcDbEntity
  8
Visible (ANSI)
100
AcDbLine
 10
397.8507811876042
 20
627.5370207988577
 30
0.0
 11
397.8507811876042
 21
623.4932159468691
 31
0.0
  0
LINE
  5
1F3
330
6C
100
AcDbEntity
  8
Visible (ANSI)
100
AcDbLine
 10
397.8507811876042
 20
623.2432004044341
 30
0.0
 11
397.8507811876042
 21
619.1991720751238
 31
0.0
  0
LINE
  5
1F4
330
6C
100
AcDbEntity
  8
Visible (ANSI)
100
AcDbLine
 10
397.8507811876042
 20
618.9491312367613
 30
0.0
 11
397.8507811876042
 21
614.6576885881257
 31
0.0
  0
LINE
  5
1F5
330
6C
100
AcDbEntity
  8
Visible (ANSI)
100
AcDbLine
 10
398.1007811876042
 20
644.0326885881257
 30
0.0
 11
398.1007811876041
 21
642.5326885881258
 31
0.0
  0
LINE
  5
1F6
330
6C
100
AcDbEntity
  8
Visible (ANSI)
100
AcDbLine
 10
397.8507811876042
 20
644.0326885881257
 30
0.0
 11
397.8507811876042
 21
642.5326885881258
 31
0.0
  0
LINE
  5
1F7
330
6C
100
AcDbEntity
  8
Visible (ANSI)
100
AcDbLine
 10
394.6423021535786
 20
618.7237044907118
 30
0.0
 11
394.5126863280055
 21
618.5940886651387
 31
0.0
  0
LINE
  5
1F8
330
6C
100
AcDbEntity
  8
Visible (ANSI)
100
AcDbLine
 10
394.1496882274617
 20
618.2310905645949
 30
0.0
 11
394.5126863280054
 21
618.5940886651386
 31
0.0
  0
LINE
  5
1F9
330
6C
100
AcDbEntity
  8
Visible (ANSI)
100
AcDbLine
 10
394.1496882274617
 20
618.2310905645949
 30
0.0
 11
393.5553036134409
 21
618.8254751786159
 31
0.0
  0
LINE
  5
1FA
330
6C
100
AcDbEntity
  8
Visible (ANSI)
100
AcDbLine
 10
390.4414904627705
 20
614.8473843466989
 30
0.0
 11
388.0979774494984
 21
617.190897359971
 31
0.0
  0
LINE
  5
1FB
330
6C
100
AcDbEntity
  8
Visible (ANSI)
100
AcDbLine
 10
387.912320334042
 20
617.3765544754274
 30
0.0
 11
384.9514925222832
 21
620.3373822871862
 31
0.0
  0
LINE
  5
1FC
330
6C
100
AcDbEntity
  8
Visible (ANSI)
100
AcDbLine
 10
384.7702361846137
 20
620.5186386248557
 30
0.0
 11
381.8547587800189
 21
623.4341160294506
 31
0.0
  0
LINE
  5
1FD
330
6C
100
AcDbEntity
  8
Visible (ANSI)
100
AcDbLine
 10
381.6752748677804
 20
623.6135999416891
 30
0.0
 11
378.7801979171308
 21
626.5086768923387
 31
0.0
  0
LINE
  5
1FE
330
6C
100
AcDbEntity
  8
Visible (ANSI)
100
AcDbLine
 10
378.6016065820267
 20
626.6872682274428
 30
0.0
 11
375.7174969210731
 21
629.5713778883963
 31
0.0
  0
LINE
  5
1FF
330
6C
100
AcDbEntity
  8
Visible (ANSI)
100
AcDbLine
 10
375.5394186637685
 20
629.7494561457011
 30
0.0
 11
374.2121438354961
 21
631.0767309739733
 31
0.0
  0
LINE
  5
200
330
6C
100
AcDbEntity
  8
Visible (ANSI)
100
AcDbLine
 10
401.9953782438835
 20
618.3275740658678
 30
0.0
 11
401.8183197334181
 21
618.3750167507599
 31
0.0
  0
LINE
  5
201
330
6C
100
AcDbEntity
  8
Visible (ANSI)
100
AcDbLine
 10
401.3224551065499
 20
618.5078832770845
 30
0.0
 11
401.818319733418
 21
618.3750167507599
 31
0.0
  0
LINE
  5
202
330
6C
100
AcDbEntity
  8
Visible (ANSI)
100
AcDbLine
 10
401.3224551065499
 20
618.5078832770845
 30
0.0
 11
401.5400149749002
 21
619.3198277594555
 31
0.0
  0
LINE
  5
203
330
6C
100
AcDbEntity
  8
Visible (ANSI)
100
AcDbLine
 10
396.5379806805629
 20
620.0274236346157
 30
0.0
 11
397.3957659775199
 21
623.2287219448448
 31
0.0
  0
LINE
  5
204
330
6C
100
AcDbEntity
  8
Visible (ANSI)
100
AcDbLine
 10
397.4637211981703
 20
623.4823342809516
 30
0.0
 11
397.8507811876042
 21
624.9268618270955
 31
0.0
  0
LINE
  5
205
330
6C
100
AcDbEntity
  8
Visible (ANSI)
100
AcDbLine
 10
398.1007811876042
 20
625.8598745289877
 30
0.0
 11
398.5474593935056
 21
627.5269002880455
 31
0.0
  0
LINE
  5
206
330
6C
100
AcDbEntity
  8
Visible (ANSI)
100
AcDbLine
 10
398.6138038176895
 20
627.774501049899
 30
0.0
 11
399.6809426119307
 21
631.7571172487352
 31
0.0
  0
LINE
  5
207
330
6C
100
AcDbEntity
  8
Visible (ANSI)
100
AcDbLine
 10
399.7466382833806
 20
632.0022968324235
 30
0.0
 11
400.8063099932292
 21
635.9570454929216
 31
0.0
  0
LINE
  5
208
330
6C
100
AcDbEntity
  8
Visible (ANSI)
100
AcDbLine
 10
400.871678958773
 20
636.2010057935697
 30
0.0
 11
401.9273363619822
 21
640.1407728577325
 31
0.0
  0
LINE
  5
209
330
6C
100
AcDbEntity
  8
Visible (ANSI)
100
AcDbLine
 10
401.9925175280174
 20
640.3840322810722
 30
0.0
 11
402.4783338329686
 21
642.1971234142958
 31
0.0
  0
LINE
  5
20A
330
6C
100
AcDbEntity
  8
Visible (ANSI)
100
AcDbLine
 10
405.328857277909
 20
611.7615581632816
 30
0.0
 11
405.2814145930168
 21
611.938616673747
 31
0.0
  0
LINE
  5
20B
330
6C
100
AcDbEntity
  8
Visible (ANSI)
100
AcDbLine
 10
405.1485480666922
 20
612.4344813006151
 30
0.0
 11
405.1892208014208
 21
612.2826885881258
 31
0.0
  0
LINE
  5
20C
330
6C
100
AcDbEntity
  8
Visible (ANSI)
100
AcDbLine
 10
405.2562080995286
 20
612.0326885881257
 30
0.0
 11
405.2814145930168
 21
611.938616673747
 31
0.0
  0
LINE
  5
20D
330
6C
100
AcDbEntity
  8
Visible (ANSI)
100
AcDbLine
 10
405.1485480666924
 20
612.4344813006151
 30
0.0
 11
405.9604925490634
 21
612.6520411689654
 31
0.0
  0
LINE
  5
20E
330
6C
100
AcDbEntity
  8
Visible (ANSI)
100
AcDbLine
 10
404.0722714053965
 20
617.3377278760425
 30
0.0
 11
407.2735697156256
 21
618.1955131729995
 31
0.0
  0
LINE
  5
20F
330
6C
100
AcDbEntity
  8
Visible (ANSI)
100
AcDbLine
 10
407.5271820517324
 20
618.2634683936499
 30
0.0
 11
411.5717480588264
 21
619.3472065889851
 31
0.0
  0
LINE
  5
210
330
6C
100
AcDbEntity
  8
Visible (ANSI)
100
AcDbLine
 10
411.8193488206799
 20
619.4135510131691
 30
0.0
 11
415.801965019516
 21
620.4806898074102
 31
0.0
  0
LINE
  5
211
330
6C
100
AcDbEntity
  8
Visible (ANSI)
100
AcDbLine
 10
416.0471446032044
 20
620.5463854788602
 30
0.0
 11
420.0018932637026
 21
621.6060571887087
 31
0.0
  0
LINE
  5
212
330
6C
100
AcDbEntity
  8
Visible (ANSI)
100
AcDbLine
 10
420.2458535643506
 20
621.6714261542526
 30
0.0
 11
424.1856206285133
 21
622.7270835574618
 31
0.0
  0
LINE
  5
213
330
6C
100
AcDbEntity
  8
Visible (ANSI)
100
AcDbLine
 10
424.428880051853
 20
622.792264723497
 30
0.0
 11
426.2419711850767
 21
623.2780810284482
 31
0.0
  0
LINE
  5
214
330
6C
100
AcDbEntity
  8
Visible (ANSI)
100
AcDbLine
 10
401.3092602216296
 20
605.5916726855396
 30
0.0
 11
401.4388760472028
 21
605.7212885111128
 31
0.0
  0
LINE
  5
215
330
6C
100
AcDbEntity
  8
Visible (ANSI)
100
AcDbLine
 10
401.8018741477466
 20
606.0842866116565
 30
0.0
 11
401.4388760472028
 21
605.7212885111128
 31
0.0
  0
LINE
  5
216
330
6C
100
AcDbEntity
  8
Visible (ANSI)
100
AcDbLine
 10
401.8018741477464
 20
606.0842866116565
 30
0.0
 11
402.3962587617673
 21
605.4899019976357
 31
0.0
  0
LINE
  5
217
330
6C
100
AcDbEntity
  8
Visible (ANSI)
100
AcDbLine
 10
405.5100719124377
 20
609.4679928295525
 30
0.0
 11
407.8535849257098
 21
607.1244798162804
 31
0.0
  0
LINE
  5
218
330
6C
100
AcDbEntity
  8
Visible (ANSI)
100
AcDbLine
 10
408.0392420411662
 20
606.938822700824
 30
0.0
 11
411.000069852925
 21
603.9779948890652
 31
0.0
  0
LINE
  5
219
330
6C
100
AcDbEntity
  8
Visible (ANSI)
100
AcDbLine
 10
411.1813261905945
 20
603.7967385513957
 30
0.0
 11
414.0968035951893
 21
600.8812611468009
 31
0.0
  0
LINE
  5
21A
330
6C
100
AcDbEntity
  8
Visible (ANSI)
100
AcDbLine
 10
414.2762875074279
 20
600.7017772345624
 30
0.0
 11
417.1713644580774
 21
597.8067002839128
 31
0.0
  0
LINE
  5
21B
330
6C
100
AcDbEntity
  8
Visible (ANSI)
100
AcDbLine
 10
417.3499557931816
 20
597.6281089488086
 30
0.0
 11
420.2340654541352
 21
594.7439992878551
 31
0.0
  0
LINE
  5
21C
330
6C
100
AcDbEntity
  8
Visible (ANSI)
100
AcDbLine
 10
420.4121437114398
 20
594.5659210305505
 30
0.0
 11
421.7394185397122
 21
593.2386462022781
 31
0.0
  0
LINE
  5
21D
330
6C
100
AcDbEntity
  8
Visible (ANSI)
100
AcDbLine
 10
393.9561841313247
 20
605.9878031103838
 30
0.0
 11
394.1332426417901
 21
605.9403604254915
 31
0.0
  0
LINE
  5
21E
330
6C
100
AcDbEntity
  8
Visible (ANSI)
100
AcDbLine
 10
394.6291072686583
 20
605.8074938991669
 30
0.0
 11
394.1332426417901
 21
605.9403604254915
 31
0.0
  0
LINE
  5
21F
330
6C
100
AcDbEntity
  8
Visible (ANSI)
100
AcDbLine
 10
394.6291072686583
 20
605.8074938991669
 30
0.0
 11
394.4115474003081
 21
604.9955494167959
 31
0.0
  0
LINE
  5
220
330
6C
100
AcDbEntity
  8
Visible (ANSI)
100
AcDbLine
 10
399.4135816946453
 20
604.2879535416358
 30
0.0
 11
398.5557963976883
 21
601.0866552314066
 31
0.0
  0
LINE
  5
221
330
6C
100
AcDbEntity
  8
Visible (ANSI)
100
AcDbLine
 10
398.4878411770379
 20
600.8330428952998
 30
0.0
 11
398.1007811876041
 21
599.3885153491559
 31
0.0
  0
LINE
  5
222
330
6C
100
AcDbEntity
  8
Visible (ANSI)
100
AcDbLine
 10
397.8507811876042
 20
598.4555026472636
 30
0.0
 11
397.4041029817028
 21
596.7884768882059
 31
0.0
  0
LINE
  5
223
330
6C
100
AcDbEntity
  8
Visible (ANSI)
100
AcDbLine
 10
397.3377585575188
 20
596.5408761263524
 30
0.0
 11
396.2706197632775
 21
592.5582599275164
 31
0.0
  0
LINE
  5
224
330
6C
100
AcDbEntity
  8
Visible (ANSI)
100
AcDbLine
 10
396.2049240918276
 20
592.3130803438279
 30
0.0
 11
395.145252381979
 21
588.3583316833298
 31
0.0
  0
LINE
  5
225
330
6C
100
AcDbEntity
  8
Visible (ANSI)
100
AcDbLine
 10
395.0798834164352
 20
588.1143713826816
 30
0.0
 11
394.0242260132261
 21
584.1746043185191
 31
0.0
  0
LINE
  5
226
330
6C
100
AcDbEntity
  8
Visible (ANSI)
100
AcDbLine
 10
393.9590448471909
 20
583.9313448951791
 30
0.0
 11
393.4732285422396
 21
582.1182537619556
 31
0.0
  0
LINE
  5
227
330
6C
100
AcDbEntity
  8
Visible (ANSI)
100
AcDbLine
 10
394.6423021535786
 20
618.7237044907118
 30
0.0
 11
391.9213407261495
 21
621.444665918141
 31
0.0
  0
LINE
  5
228
330
6C
100
AcDbEntity
  8
Visible (ANSI)
100
AcDbLine
 10
391.7407708025609
 20
621.6252358417295
 30
0.0
 11
388.8376357153818
 21
624.5283709289087
 31
0.0
  0
LINE
  5
229
330
6C
100
AcDbEntity
  8
Visible (ANSI)
100
AcDbLine
 10
388.6589060428537
 20
624.7071006014367
 30
0.0
 11
385.77502150434
 21
627.5909851399505
 31
0.0
  0
LINE
  5
22A
330
6C
100
AcDbEntity
  8
Visible (ANSI)
100
AcDbLine
 10
385.5970547322817
 20
627.7689519120087
 30
0.0
 11
382.7220076080359
 21
630.6439990362546
 31
0.0
  0
LINE
  5
22B
330
6C
100
AcDbEntity
  8
Visible (ANSI)
100
AcDbLine
 10
382.5444298636988
 20
630.8215767805916
 30
0.0
 11
379.6741789245337
 21
633.6918277197568
 31
0.0
  0
LINE
  5
22C
330
6C
100
AcDbEntity
  8
Visible (ANSI)
100
AcDbLine
 10
379.4968262865065
 20
633.8691803577839
 30
0.0
 11
378.1745803771686
 21
635.1914262671218
 31
0.0
  0
LINE
  5
22D
330
6C
100
AcDbEntity
  8
Visible (ANSI)
100
AcDbLine
 10
401.9953782438835
 20
618.3275740658678
 30
0.0
 11
402.9913192490401
 21
622.0444764984534
 31
0.0
  0
LINE
  5
22E
330
6C
100
AcDbEntity
  8
Visible (ANSI)
100
AcDbLine
 10
403.0574124282329
 20
622.2911396012349
 30
0.0
 11
404.1200336207586
 21
626.2568958809395
 31
0.0
  0
LINE
  5
22F
330
6C
100
AcDbEntity
  8
Visible (ANSI)
100
AcDbLine
 10
404.1854532213139
 20
626.5010451540229
 30
0.0
 11
405.241028223991
 21
630.4405046952139
 31
0.0
  0
LINE
  5
230
330
6C
100
AcDbEntity
  8
Visible (ANSI)
100
AcDbLine
 10
405.3061685835939
 20
630.683611826875
 30
0.0
 11
406.3585088681453
 21
634.6109992356721
 31
0.0
  0
LINE
  5
231
330
6C
100
AcDbEntity
  8
Visible (ANSI)
100
AcDbLine
 10
406.4235068337194
 20
634.8535749455833
 30
0.0
 11
407.4740915926899
 21
638.7744106437191
 31
0.0
  0
LINE
  5
232
330
6C
100
AcDbEntity
  8
Visible (ANSI)
100
AcDbLine
 10
407.5390071636361
 20
639.0166788526924
 30
0.0
 11
408.0229827565038
 21
640.8229003548979
 31
0.0
  0
LINE
  5
233
330
6C
100
AcDbEntity
  8
Visible (ANSI)
100
AcDbLine
 10
405.3288572779091
 20
611.7615581632816
 30
0.0
 11
406.3407297989051
 21
612.0326885881257
 31
0.0
  0
LINE
  5
234
330
6C
100
AcDbEntity
  8
Visible (ANSI)
100
AcDbLine
 10
407.2737425007974
 20
612.2826885881258
 30
0.0
 11
409.0457597104948
 21
612.7574991684382
 31
0.0
  0
LINE
  5
235
330
6C
100
AcDbEntity
  8
Visible (ANSI)
100
AcDbLine
 10
409.2924228132762
 20
612.823592347631
 30
0.0
 11
413.2581790929808
 21
613.8862135401565
 31
0.0
  0
LINE
  5
236
330
6C
100
AcDbEntity
  8
Visible (ANSI)
100
AcDbLine
 10
413.5023283660642
 20
613.9516331407119
 30
0.0
 11
417.4417879072551
 21
615.0072081433891
 31
0.0
  0
LINE
  5
237
330
6C
100
AcDbEntity
  8
Visible (ANSI)
100
AcDbLine
 10
417.6848950389163
 20
615.0723485029918
 30
0.0
 11
421.6122824477135
 21
616.1246887875432
 31
0.0
  0
LINE
  5
238
330
6C
100
AcDbEntity
  8
Visible (ANSI)
100
AcDbLine
 10
421.8548581576246
 20
616.1896867531173
 30
0.0
 11
425.7756938557603
 21
617.2402715120879
 31
0.0
  0
LINE
  5
239
330
6C
100
AcDbEntity
  8
Visible (ANSI)
100
AcDbLine
 10
426.0179620647337
 20
617.3051870830342
 30
0.0
 11
427.8241835669393
 21
617.7891626759018
 31
0.0
  0
LINE
  5
23A
330
6C
100
AcDbEntity
  8
Visible (ANSI)
100
AcDbLine
 10
401.3092602216296
 20
605.5916726855396
 30
0.0
 11
404.0302216490587
 21
602.8707112581105
 31
0.0
  0
LINE
  5
23B
330
6C
100
AcDbEntity
  8
Visible (ANSI)
100
AcDbLine
 10
404.2107915726473
 20
602.6901413345219
 30
0.0
 11
407.1139266598264
 21
599.7870062473428
 31
0.0
  0
LINE
  5
23C
330
6C
100
AcDbEntity
  8
Visible (ANSI)
100
AcDbLine
 10
407.2926563323544
 20
599.6082765748147
 30
0.0
 11
410.1765408708683
 21
596.7243920363009
 31
0.0
  0
LINE
  5
23D
330
6C
100
AcDbEntity
  8
Visible (ANSI)
100
AcDbLine
 10
410.3545076429265
 20
596.5464252642427
 30
0.0
 11
413.2295547671724
 21
593.6713781399969
 31
0.0
  0
LINE
  5
23E
330
6C
100
AcDbEntity
  8
Visible (ANSI)
100
AcDbLine
 10
413.4071325115093
 20
593.4938003956598
 30
0.0
 11
416.2773834506745
 21
590.6235494564947
 31
0.0
  0
LINE
  5
23F
330
6C
100
AcDbEntity
  8
Visible (ANSI)
100
AcDbLine
 10
416.4547360887017
 20
590.4461968184675
 30
0.0
 11
417.7769819980396
 21
589.1239509091295
 31
0.0
  0
LINE
  5
240
330
6C
100
AcDbEntity
  8
Visible (ANSI)
100
AcDbLine
 10
393.9561841313247
 20
605.9878031103838
 30
0.0
 11
392.9602431261681
 21
602.270900677798
 31
0.0
  0
LINE
  5
241
330
6C
100
AcDbEntity
  8
Visible (ANSI)
100
AcDbLine
 10
392.8941499469752
 20
602.0242375750166
 30
0.0
 11
391.8315287544497
 21
598.058481295312
 31
0.0
  0
LINE
  5
242
330
6C
100
AcDbEntity
  8
Visible (ANSI)
100
AcDbLine
 10
391.7661091538944
 20
597.8143320222287
 30
0.0
 11
390.7105341512172
 21
593.8748724810376
 31
0.0
  0
LINE
  5
243
330
6C
100
AcDbEntity
  8
Visible (ANSI)
100
AcDbLine
 10
390.6453937916144
 20
593.6317653493764
 30
0.0
 11
389.593053507063
 21
589.7043779405793
 31
0.0
  0
LINE
  5
244
330
6C
100
AcDbEntity
  8
Visible (ANSI)
100
AcDbLine
 10
389.5280555414889
 20
589.4618022306682
 30
0.0
 11
388.4774707825183
 21
585.5409665325324
 31
0.0
  0
LINE
  5
245
330
6C
100
AcDbEntity
  8
Visible (ANSI)
100
AcDbLine
 10
388.4125552115722
 20
585.2986983235592
 30
0.0
 11
387.9285796187044
 21
583.4924768213535
 31
0.0
  0
LINE
  5
246
330
6C
100
AcDbEntity
  8
Visible (ANSI)
100
AcDbLine
 10
390.8030143085159
 20
611.8808958756362
 30
0.0
 11
389.9910698261448
 21
611.663336007286
 31
0.0
  0
LINE
  5
247
330
6C
100
AcDbEntity
  8
Visible (ANSI)
100
AcDbLine
 10
390.6227050972992
 20
612.5538190129698
 30
0.0
 11
390.6701477821914
 21
612.3767605025044
 31
0.0
  0
LINE
  5
248
330
6C
100
AcDbEntity
  8
Visible (ANSI)
100
AcDbLine
 10
390.8030143085159
 20
611.8808958756362
 30
0.0
 11
390.7623415737875
 21
612.0326885881256
 31
0.0
  0
LINE
  5
249
330
6C
100
AcDbEntity
  8
Visible (ANSI)
100
AcDbLine
 10
390.6953542756797
 20
612.2826885881257
 30
0.0
 11
390.6701477821917
 21
612.3767605025035
 31
0.0
  0
LINE
  5
24A
330
6C
100
AcDbEntity
  8
Visible (ANSI)
100
AcDbLine
 10
391.8792909698117
 20
606.9776493002088
 30
0.0
 11
388.6779926595826
 21
606.1198640032519
 31
0.0
  0
LINE
  5
24B
330
6C
100
AcDbEntity
  8
Visible (ANSI)
100
AcDbLine
 10
388.4243803234758
 20
606.0519087826016
 30
0.0
 11
384.3798143163818
 21
604.9681705872663
 31
0.0
  0
LINE
  5
24C
330
6C
100
AcDbEntity
  8
Visible (ANSI)
100
AcDbLine
 10
384.1322135545283
 20
604.9018261630824
 30
0.0
 11
380.1495973556923
 21
603.8346873688412
 31
0.0
  0
LINE
  5
24D
330
6C
100
AcDbEntity
  8
Visible (ANSI)
100
AcDbLine
 10
379.9044177720038
 20
603.7689916973912
 30
0.0
 11
375.9496691115057
 21
602.7093199875427
 31
0.0
  0
LINE
  5
24E
330
6C
100
AcDbEntity
  8
Visible (ANSI)
100
AcDbLine
 10
375.7057088108577
 20
602.6439510219988
 30
0.0
 11
371.7659417466949
 21
601.5882936187896
 31
0.0
  0
LINE
  5
24F
330
6C
100
AcDbEntity
  8
Visible (ANSI)
100
AcDbLine
 10
371.5226823233552
 20
601.5231124527545
 30
0.0
 11
369.7095911901316
 21
601.0372961478033
 31
0.0
  0
LINE
  5
250
330
6C
100
AcDbEntity
  8
Visible (ANSI)
100
AcDbLine
 10
390.6227050972992
 20
612.5538190129698
 30
0.0
 11
389.6108325763031
 21
612.2826885881258
 31
0.0
  0
LINE
  5
251
330
6C
100
AcDbEntity
  8
Visible (ANSI)
100
AcDbLine
 10
388.6778198744109
 20
612.0326885881257
 30
0.0
 11
386.9058026647134
 21
611.5578780078132
 31
0.0
  0
LINE
  5
252
330
6C
100
AcDbEntity
  8
Visible (ANSI)
100
AcDbLine
 10
386.659139561932
 20
611.4917848286204
 30
0.0
 11
382.6933832822274
 21
610.4291636360949
 31
0.0
  0
LINE
  5
253
330
6C
100
AcDbEntity
  8
Visible (ANSI)
100
AcDbLine
 10
382.449234009144
 20
610.3637440355396
 30
0.0
 11
378.509774467953
 21
609.3081690328624
 31
0.0
  0
LINE
  5
254
330
6C
100
AcDbEntity
  8
Visible (ANSI)
100
AcDbLine
 10
378.2666673362919
 20
609.2430286732596
 30
0.0
 11
374.3392799274947
 21
608.1906883887081
 31
0.0
  0
LINE
  5
255
330
6C
100
AcDbEntity
  8
Visible (ANSI)
100
AcDbLine
 10
374.0967042175836
 20
608.1256904231341
 30
0.0
 11
370.1758685194479
 21
607.0751056641634
 31
0.0
  0
LINE
  5
256
330
6C
100
AcDbEntity
  8
Visible (ANSI)
100
AcDbLine
 10
369.9336003104745
 20
607.0101900932173
 30
0.0
 11
368.1273788082689
 21
606.5262145003496
 31
0.0
  0
LINE
  5
257
330
6C
100
AcDbEntity
  8
Visible (ANSI)
100
AcDbLine
 10
429.7257811876041
 20
587.8451885881258
 30
0.0
 11
418.5893196696309
 21
587.8451885881258
 31
0.0
  0
LINE
  5
258
330
6C
100
AcDbEntity
  8
Visible (ANSI)
100
AcDbLine
 10
433.2257811876042
 20
643.9701885881257
 30
0.0
 11
433.225781187604
 21
587.8451885881258
 31
0.0
  0
LINE
  5
259
330
6C
100
AcDbEntity
  8
Visible (ANSI)
100
AcDbLine
 10
362.7257811876041
 20
643.9701885881257
 30
0.0
 11
395.9806699751652
 21
643.9701885881257
 31
0.0
  0
LINE
  5
25A
330
6C
100
AcDbEntity
  8
Visible (ANSI)
100
AcDbLine
 10
399.970892400043
 20
643.9701885881257
 30
0.0
 11
433.2257811876042
 21
643.9701885881257
 31
0.0
  0
LINE
  5
25B
330
6C
100
AcDbEntity
  8
Visible (ANSI)
100
AcDbLine
 10
362.7257811876041
 20
593.0951885881255
 30
0.0
 11
362.7257811876041
 21
643.9701885881257
 31
0.0
  0
LINE
  5
25C
330
6C
100
AcDbEntity
  8
Visible (ANSI)
100
AcDbLine
 10
377.3622427055773
 20
587.8451885881258
 30
0.0
 11
366.2257811876041
 21
587.8451885881258
 31
0.0
  0
CIRCLE
  5
25D
330
6C
100
AcDbEntity
  8
Visible (ANSI)
100
AcDbCircle
 10
397.9757811876041
 20
612.1576885881258
 30
0.0
 40
7.042592895920241
  0
CIRCLE
  5
25E
330
6C
100
AcDbEntity
  8
Visible (ANSI)
100
AcDbCircle
 10
397.9757811876041
 20
612.1576885881258
 30
0.0
 40
6.792592895920241
  0
CIRCLE
  5
25F
330
6C
100
AcDbEntity
  8
Visible (ANSI)
100
AcDbCircle
 10
397.9757811876041
 20
612.1576885881258
 30
0.0
 40
11.33621654260442
  0
CIRCLE
  5
260
330
6C
100
AcDbEntity
  8
Visible (ANSI)
100
AcDbCircle
 10
397.9757811876041
 20
612.1576885881258
 30
0.0
 40
11.08621654260442
  0
CIRCLE
  5
261
330
6C
100
AcDbEntity
  8
Visible (ANSI)
100
AcDbCircle
 10
397.9757811876041
 20
612.1576885881258
 30
0.0
 40
15.6298401892886
  0
CIRCLE
  5
262
330
6C
100
AcDbEntity
  8
Visible (ANSI)
100
AcDbCircle
 10
397.9757811876041
 20
612.1576885881258
 30
0.0
 40
15.3798401892886
  0
CIRCLE
  5
263
330
6C
100
AcDbEntity
  8
Visible (ANSI)
100
AcDbCircle
 10
397.9757811876041
 20
612.1576885881258
 30
0.0
 40
19.92346383597278
  0
CIRCLE
  5
264
330
6C
100
AcDbEntity
  8
Visible (ANSI)
100
AcDbCircle
 10
397.9757811876041
 20
612.1576885881258
 30
0.0
 40
19.67346383597277
  0
CIRCLE
  5
265
330
6C
100
AcDbEntity
  8
Visible (ANSI)
100
AcDbCircle
 10
397.9757811876041
 20
612.1576885881258
 30
0.0
 40
24.21708748265695
  0
CIRCLE
  5
266
330
6C
100
AcDbEntity
  8
Visible (ANSI)
100
AcDbCircle
 10
397.9757811876041
 20
612.1576885881258
 30
0.0
 40
23.96708748265696
  0
CIRCLE
  5
267
330
6C
100
AcDbEntity
  8
Visible (ANSI)
100
AcDbCircle
 10
397.9757811876041
 20
612.1576885881258
 30
0.0
 40
28.51071112934113
  0
CIRCLE
  5
268
330
6C
100
AcDbEntity
  8
Visible (ANSI)
100
AcDbCircle
 10
397.9757811876041
 20
612.1576885881258
 30
0.0
 40
28.26071112934114
  0
MTEXT
  5
269
330
6C
100
AcDbEntity
  8
Symbol (ANSI)
100
AcDbMText
 10
365.7911464586875
 20
500.5138646722989
 30
0.0
 40
12.49999981226883
 41
0.0
 71
     7
 72
     1
  1
Plan View
  7
Label Text (ANSI)
 73
     1
 44
1.0
  0
LINE
  5
26B
330
6C
100
AcDbEntity
  8
Visible (ANSI)
100
AcDbLine
 10
427.9757811874921
 20
260.0777645469411
 30
0.0
 11
427.9757811874921
 21
336.3277645469406
 31
0.0
  0
LINE
  5
26C
330
6C
100
AcDbEntity
  8
Visible (ANSI)
100
AcDbLine
 10
425.9757811874921
 20
336.3277645469408
 30
0.0
 11
425.9757811874921
 21
260.077764546941
 31
0.0
  0
LINE
  5
26D
330
6C
100
AcDbEntity
  8
Visible (ANSI)
100
AcDbLine
 10
423.9757811874921
 20
260.0777645469411
 30
0.0
 11
423.9757811874921
 21
336.3277645469406
 31
0.0
  0
LINE
  5
26E
330
6C
100
AcDbEntity
  8
Visible (ANSI)
100
AcDbLine
 10
421.9757811874922
 20
336.3277645469407
 30
0.0
 11
421.9757811874922
 21
260.077764546941
 31
0.0
  0
LINE
  5
26F
330
6C
100
AcDbEntity
  8
Visible (ANSI)
100
AcDbLine
 10
419.9757811874922
 20
260.077764546941
 30
0.0
 11
419.9757811874922
 21
336.3277645469406
 31
0.0
  0
LINE
  5
270
330
6C
100
AcDbEntity
  8
Visible (ANSI)
100
AcDbLine
 10
417.9757811874922
 20
336.3277645469407
 30
0.0
 11
417.9757811874922
 21
260.077764546941
 31
0.0
  0
LINE
  5
271
330
6C
100
AcDbEntity
  8
Visible (ANSI)
100
AcDbLine
 10
415.9757811874922
 20
260.077764546941
 30
0.0
 11
415.9757811874922
 21
336.3277645469406
 31
0.0
  0
LINE
  5
272
330
6C
100
AcDbEntity
  8
Visible (ANSI)
100
AcDbLine
 10
413.9757811874922
 20
336.3277645469407
 30
0.0
 11
413.9757811874922
 21
260.077764546941
 31
0.0
  0
LINE
  5
273
330
6C
100
AcDbEntity
  8
Visible (ANSI)
100
AcDbLine
 10
411.9757811874922
 20
260.077764546941
 30
0.0
 11
411.9757811874922
 21
336.3277645469405
 31
0.0
  0
LINE
  5
274
330
6C
100
AcDbEntity
  8
Visible (ANSI)
100
AcDbLine
 10
409.9757811874922
 20
336.3277645469407
 30
0.0
 11
409.9757811874922
 21
260.077764546941
 31
0.0
  0
LINE
  5
275
330
6C
100
AcDbEntity
  8
Visible (ANSI)
100
AcDbLine
 10
407.9757811874923
 20
260.077764546941
 30
0.0
 11
407.9757811874923
 21
336.3277645469405
 31
0.0
  0
LINE
  5
276
330
6C
100
AcDbEntity
  8
Visible (ANSI)
100
AcDbLine
 10
405.9757811874922
 20
336.3277645469407
 30
0.0
 11
405.9757811874922
 21
260.077764546941
 31
0.0
  0
LINE
  5
277
330
6C
100
AcDbEntity
  8
Visible (ANSI)
100
AcDbLine
 10
403.9757811874923
 20
260.077764546941
 30
0.0
 11
403.9757811874923
 21
336.3277645469405
 31
0.0
  0
LINE
  5
278
330
6C
100
AcDbEntity
  8
Visible (ANSI)
100
AcDbLine
 10
401.9757811874923
 20
336.3277645469407
 30
0.0
 11
401.9757811874923
 21
260.077764546941
 31
0.0
  0
LINE
  5
279
330
6C
100
AcDbEntity
  8
Visible (ANSI)
100
AcDbLine
 10
399.9757811874924
 20
260.077764546941
 30
0.0
 11
399.9757811874924
 21
336.3277645469405
 31
0.0
  0
LINE
  5
27A
330
6C
100
AcDbEntity
  8
Visible (ANSI)
100
AcDbLine
 10
397.9757811874923
 20
336.3277645469406
 30
0.0
 11
397.9757811874923
 21
260.077764546941
 31
0.0
  0
LINE
  5
27B
330
6C
100
AcDbEntity
  8
Visible (ANSI)
100
AcDbLine
 10
395.9757811874924
 20
260.077764546941
 30
0.0
 11
395.9757811874924
 21
336.3277645469405
 31
0.0
  0
LINE
  5
27C
330
6C
100
AcDbEntity
  8
Visible (ANSI)
100
AcDbLine
 10
393.9757811874924
 20
336.3277645469406
 30
0.0
 11
393.9757811874924
 21
260.077764546941
 31
0.0
  0
LINE
  5
27D
330
6C
100
AcDbEntity
  8
Visible (ANSI)
100
AcDbLine
 10
391.9757811874924
 20
260.077764546941
 30
0.0
 11
391.9757811874923
 21
336.3277645469405
 31
0.0
  0
LINE
  5
27E
330
6C
100
AcDbEntity
  8
Visible (ANSI)
100
AcDbLine
 10
389.9757811874924
 20
336.3277645469406
 30
0.0
 11
389.9757811874924
 21
260.077764546941
 31
0.0
  0
LINE
  5
27F
330
6C
100
AcDbEntity
  8
Visible (ANSI)
100
AcDbLine
 10
387.9757811874924
 20
260.077764546941
 30
0.0
 11
387.9757811874923
 21
336.3277645469405
 31
0.0
  0
LINE
  5
280
330
6C
100
AcDbEntity
  8
Visible (ANSI)
100
AcDbLine
 10
385.9757811874924
 20
336.3277645469406
 30
0.0
 11
385.9757811874924
 21
260.077764546941
 31
0.0
  0
LINE
  5
281
330
6C
100
AcDbEntity
  8
Visible (ANSI)
100
AcDbLine
 10
383.9757811874924
 20
260.077764546941
 30
0.0
 11
383.9757811874924
 21
336.3277645469405
 31
0.0
  0
LINE
  5
282
330
6C
100
AcDbEntity
  8
Visible (ANSI)
100
AcDbLine
 10
381.9757811874924
 20
336.3277645469406
 30
0.0
 11
381.9757811874924
 21
260.077764546941
 31
0.0
  0
LINE
  5
283
330
6C
100
AcDbEntity
  8
Visible (ANSI)
100
AcDbLine
 10
379.9757811874924
 20
260.077764546941
 30
0.0
 11
379.9757811874924
 21
336.3277645469405
 31
0.0
  0
LINE
  5
284
330
6C
100
AcDbEntity
  8
Visible (ANSI)
100
AcDbLine
 10
377.9757811874924
 20
336.3277645469406
 30
0.0
 11
377.9757811874924
 21
260.0777645469409
 31
0.0
  0
LINE
  5
285
330
6C
100
AcDbEntity
  8
Visible (ANSI)
100
AcDbLine
 10
375.9757811874925
 20
260.0777645469409
 30
0.0
 11
375.9757811874924
 21
336.3277645469405
 31
0.0
  0
LINE
  5
286
330
6C
100
AcDbEntity
  8
Visible (ANSI)
100
AcDbLine
 10
373.9757811874924
 20
336.3277645469405
 30
0.0
 11
373.9757811874924
 21
260.0777645469409
 31
0.0
  0
LINE
  5
287
330
6C
100
AcDbEntity
  8
Visible (ANSI)
100
AcDbLine
 10
371.9757811874924
 20
260.0777645469409
 30
0.0
 11
371.9757811874924
 21
336.3277645469405
 31
0.0
  0
LINE
  5
288
330
6C
100
AcDbEntity
  8
Visible (ANSI)
100
AcDbLine
 10
369.9757811874925
 20
336.3277645469405
 30
0.0
 11
369.9757811874925
 21
260.0777645469409
 31
0.0
  0
LINE
  5
289
330
6C
100
AcDbEntity
  8
Visible (ANSI)
100
AcDbLine
 10
367.9757811874925
 20
260.0777645469408
 30
0.0
 11
367.9757811874925
 21
336.3277645469405
 31
0.0
  0
LINE
  5
28A
330
6C
100
AcDbEntity
  8
Visible (ANSI)
100
AcDbLine
 10
361.163281187491
 20
344.2027645469545
 30
0.0
 11
355.9132811874909
 21
344.2027645469545
 31
0.0
  0
LINE
  5
28B
330
6C
100
AcDbEntity
  8
Visible (ANSI)
100
AcDbLine
 10
355.9132811874909
 20
352.2027645469545
 30
0.0
 11
361.163281187491
 21
352.2027645469545
 31
0.0
  0
LINE
  5
28C
330
6C
100
AcDbEntity
  8
Visible (ANSI)
100
AcDbLine
 10
355.9132811874909
 20
344.2027645469545
 30
0.0
 11
355.9132811874909
 21
352.2027645469545
 31
0.0
  0
LINE
  5
28D
330
6C
100
AcDbEntity
  8
Visible (ANSI)
100
AcDbLine
 10
361.163281187491
 20
344.2027645469545
 30
0.0
 11
361.163281187491
 21
352.2027645469545
 31
0.0
  0
LINE
  5
28E
330
6C
100
AcDbEntity
  8
Visible (ANSI)
100
AcDbLine
 10
360.788281187491
 20
289.3277645469546
 30
0.0
 11
356.288281187491
 21
289.3277645469546
 31
0.0
  0
LINE
  5
28F
330
6C
100
AcDbEntity
  8
Visible (ANSI)
100
AcDbLine
 10
356.788281187491
 20
283.3277645469546
 30
0.0
 11
360.288281187491
 21
283.3277645469546
 31
0.0
  0
LINE
  5
290
330
6C
100
AcDbEntity
  8
Visible (ANSI)
100
AcDbLine
 10
356.788281187491
 20
283.3277645469546
 30
0.0
 11
356.288281187491
 21
289.3277645469546
 31
0.0
  0
LINE
  5
291
330
6C
100
AcDbEntity
  8
Visible (ANSI)
100
AcDbLine
 10
360.288281187491
 20
283.3277645469546
 30
0.0
 11
360.788281187491
 21
289.3277645469546
 31
0.0
  0
LINE
  5
292
330
6C
100
AcDbEntity
  8
Visible (ANSI)
100
AcDbLine
 10
356.288281187491
 20
289.3277645469546
 30
0.0
 11
356.288281187491
 21
344.2027645469545
 31
0.0
  0
LINE
  5
293
330
6C
100
AcDbEntity
  8
Visible (ANSI)
100
AcDbLine
 10
360.788281187491
 20
289.3277645469546
 30
0.0
 11
360.788281187491
 21
344.2027645469545
 31
0.0
  0
SPLINE
  5
294
330
6C
100
AcDbEntity
  8
Visible (ANSI)
100
AcDbSpline
210
0.0
220
0.0
230
1.0
 70
     8
 71
     3
 72
    10
 73
     6
 74
     0
 42
0.0000000001
 43
0.0000000001
 40
-0.7986542096911339
 40
-0.7986542096911339
 40
-0.7986542096911339
 40
-0.7986542096911339
 40
-0.6388421714727365
 40
-0.6388421714727365
 40
0.0
 40
0.0
 40
0.0
 40
0.0
 10
351.8507806985376
 20
251.369267510268
 30
0.0
 10
351.8507808620853
 20
251.3692673992793
 30
0.0
 10
351.8504064901764
 20
251.3687007714917
 30
0.0
 10
351.8466545913752
 20
251.3630266088043
 30
0.0
 10
351.837695615037
 20
251.3494912936913
 30
0.0
 10
351.8234374374911
 20
251.3277645469545
 30
0.0
  0
LINE
  5
295
330
6C
100
AcDbEntity
  8
Visible (ANSI)
100
AcDbLine
 10
356.788281187491
 20
268.2505459211932
 30
0.0
 11
356.788281187491
 21
283.3277645469546
 31
0.0
  0
LINE
  5
296
330
6C
100
AcDbEntity
  8
Visible (ANSI)
100
AcDbLine
 10
360.288281187491
 20
268.2505459211932
 30
0.0
 11
360.288281187491
 21
283.3277645469546
 31
0.0
  0
ARC
  5
297
330
6C
100
AcDbEntity
  8
Visible (ANSI)
100
AcDbCircle
 10
352.5382811874911
 20
268.2505459211932
 30
0.0
 40
7.749999999999991
100
AcDbArc
 50
314.9999999999999
 51
0.0
  0
ARC
  5
298
330
6C
100
AcDbEntity
  8
Visible (ANSI)
100
AcDbCircle
 10
352.5382811874911
 20
268.2505459211932
 30
0.0
 40
4.249999999999986
100
AcDbArc
 50
314.9999999999993
 51
0.0
  0
LINE
  5
299
330
6C
100
AcDbEntity
  8
Visible (ANSI)
100
AcDbLine
 10
350.6207036332953
 20
260.3225607269118
 30
0.0
 11
355.5434850075339
 21
265.2453421011504
 31
0.0
  0
LINE
  5
29A
330
6C
100
AcDbEntity
  8
Visible (ANSI)
100
AcDbLine
 10
353.0955773674482
 20
257.8476869927589
 30
0.0
 11
358.0183587416868
 21
262.7704683669974
 31
0.0
  0
ARC
  5
29B
330
6C
100
AcDbEntity
  8
Visible (ANSI)
100
AcDbCircle
 10
356.1007811874911
 20
254.842483172716
 30
0.0
 40
7.74999999999999
100
AcDbArc
 50
134.9999999999998
 51
180.0
  0
ARC
  5
29C
330
6C
100
AcDbEntity
  8
Visible (ANSI)
100
AcDbCircle
 10
356.1007811874911
 20
254.842483172716
 30
0.0
 40
4.249999999999984
100
AcDbArc
 50
135.0
 51
180.0
  0
LINE
  5
29D
330
6C
100
AcDbEntity
  8
Visible (ANSI)
100
AcDbLine
 10
348.3507811874911
 20
251.3277645469546
 30
0.0
 11
348.3507811874911
 21
254.842483172716
 31
0.0
  0
LINE
  5
29E
330
6C
100
AcDbEntity
  8
Visible (ANSI)
100
AcDbLine
 10
351.8507811874911
 20
251.3692671690838
 30
0.0
 11
351.8507811874911
 21
254.842483172716
 31
0.0
  0
SPLINE
  5
29F
330
6C
100
AcDbEntity
  8
Visible (ANSI)
100
AcDbSpline
210
0.0
220
0.0
230
1.0
 70
     8
 71
     3
 72
    10
 73
     6
 74
     0
 42
0.0000000001
 43
0.0000000001
 40
-3.514908903879104
 40
-3.514908903879104
 40
-3.514908903879104
 40
-3.514908903879104
 40
-2.166744170901307
 40
-2.166744170901307
 40
0.0
 40
0.0
 40
0.0
 40
0.0
 10
352.1663975707631
 20
251.3277645469544
 30
0.0
 10
352.1162961049894
 20
251.2401572407375
 30
0.0
 10
352.0555955688486
 20
251.1305439486288
 30
0.0
 10
351.8904173009287
 20
250.8104032129963
 30
0.0
 10
351.7805616072868
 20
250.5765302644737
 30
0.0
 10
351.6856259111615
 20
250.3277645469542
 30
0.0
  0
LINE
  5
2A0
330
6C
100
AcDbEntity
  8
Visible (ANSI)
100
AcDbLine
 10
351.6856259111615
 20
250.3277645469542
 30
0.0
 11
347.9132811874911
 21
250.3277645469546
 31
0.0
  0
LINE
  5
2A1
330
6C
100
AcDbEntity
  8
Visible (ANSI)
100
AcDbLine
 10
347.9132811874911
 20
251.3277645469546
 30
0.0
 11
352.1663975707631
 21
251.3277645469544
 31
0.0
  0
LINE
  5
2A2
330
6C
100
AcDbEntity
  8
Visible (ANSI)
100
AcDbLine
 10
347.9132811874911
 20
251.3277645469546
 30
0.0
 11
347.9132811874911
 21
250.3277645469546
 31
0.0
  0
SPLINE
  5
2A3
330
6C
100
AcDbEntity
  8
Visible (ANSI)
100
AcDbSpline
210
0.0
220
0.0
230
1.0
 70
     8
 71
     3
 72
    16
 73
    12
 74
     0
 42
0.0000000001
 43
0.0000000001
 40
-11.91268969849272
 40
-11.91268969849272
 40
-11.91268969849272
 40
-11.91268969849272
 40
-11.31215858249456
 40
-11.31215858249456
 40
-7.398374523200155
 40
-7.398374523200155
 40
-3.526322209402161
 40
-3.526322209402161
 40
0.0
 40
0.0
 40
0.0549825314471541
 40
0.0549825314471541
 40
0.0549825314471541
 40
0.0549825314471541
 10
351.2296874374811
 20
250.3277645469354
 30
0.0
 10
351.2014053795427
 20
250.2745277319924
 30
0.0
 10
351.1732742792355
 20
250.2205711462787
 30
0.0
 10
350.9643676826406
 20
249.8117947545219
 30
0.0
 10
350.7765793497121
 20
249.3998247201522
 30
0.0
 10
350.4417340016277
 20
248.4597429985305
 30
0.0
 10
350.3100636143236
 20
247.9742173647063
 30
0.0
 10
350.1437268811674
 20
247.0226630168622
 30
0.0
 10
350.1020626501979
 20
246.562181418664
 30
0.0
 10
350.100790949525
 20
246.0921956403634
 30
0.0
 10
350.1007811874911
 20
246.0849801022621
 30
0.0
 10
350.1007811874911
 20
246.0777645469541
 30
0.0
  0
LINE
  5
2A4
330
6C
100
AcDbEntity
  8
Visible (ANSI)
100
AcDbLine
 10
348.3507811874911
 20
250.3277645469546
 30
0.0
 11
348.3507811874911
 21
246.0777645469546
 31
0.0
  0
LINE
  5
2A5
330
6C
100
AcDbEntity
  8
Visible (ANSI)
100
AcDbLine
 10
364.4757811874923
 20
347.4527645469406
 30
0.0
 11
431.4757811874907
 21
347.4527645469408
 31
0.0
  0
LINE
  5
2A6
330
6C
100
AcDbEntity
  8
Visible (ANSI)
100
AcDbLine
 10
431.4757811874907
 20
340.3277645469408
 30
0.0
 11
364.4757811874923
 21
340.3277645469407
 31
0.0
  0
LINE
  5
2A7
330
6C
100
AcDbEntity
  8
Visible (ANSI)
100
AcDbLine
 10
431.4757811874907
 20
347.4527645469408
 30
0.0
 11
431.4757811874907
 21
340.3277645469408
 31
0.0
  0
LINE
  5
2A8
330
6C
100
AcDbEntity
  8
Visible (ANSI)
100
AcDbLine
 10
364.4757811874924
 20
340.3277645469407
 30
0.0
 11
364.4757811874923
 21
347.4527645469406
 31
0.0
  0
LINE
  5
2A9
330
6C
100
AcDbEntity
  8
Visible (ANSI)
100
AcDbLine
 10
431.6007811874907
 20
259.0777645469407
 30
0.0
 11
364.3507811874928
 21
259.0777645469407
 31
0.0
  0
LINE
  5
2AA
330
6C
100
AcDbEntity
  8
Visible (ANSI)
100
AcDbLine
 10
364.3507811874928
 20
259.0777645469407
 30
0.0
 11
364.3507811874922
 21
339.5777645469404
 31
0.0
  0
LINE
  5
2AB
330
6C
100
AcDbEntity
  8
Visible (ANSI)
100
AcDbLine
 10
364.3507811874922
 20
339.5777645469404
 30
0.0
 11
431.6007811874905
 21
339.5777645469406
 31
0.0
  0
LINE
  5
2AC
330
6C
100
AcDbEntity
  8
Visible (ANSI)
100
AcDbLine
 10
431.6007811874905
 20
339.5777645469406
 30
0.0
 11
431.6007811874907
 21
259.0777645469407
 31
0.0
  0
LINE
  5
2AD
330
6C
100
AcDbEntity
  8
Visible (ANSI)
100
AcDbLine
 10
362.725781187491
 20
348.2027645469407
 30
0.0
 11
433.2257811874906
 21
348.2027645469408
 31
0.0
  0
LINE
  5
2AE
330
6C
100
AcDbEntity
  8
Visible (ANSI)
100
AcDbLine
 10
433.8507811874907
 20
240.8277645469407
 30
0.0
 11
362.1007811874911
 21
240.8277645469406
 31
0.0
  0
LINE
  5
2AF
330
6C
100
AcDbEntity
  8
Visible (ANSI)
100
AcDbLine
 10
431.4757811874907
 20
259.077764546941
 30
0.0
 11
431.4757811874907
 21
240.8277645469409
 31
0.0
  0
LINE
  5
2B0
330
6C
100
AcDbEntity
  8
Visible (ANSI)
100
AcDbLine
 10
364.4757811874919
 20
240.8277645469408
 30
0.0
 11
364.4757811874919
 21
259.077764546941
 31
0.0
  0
LINE
  5
2B1
330
6C
100
AcDbEntity
  8
Visible (ANSI)
100
AcDbLine
 10
433.2257811874907
 20
240.8277645469409
 30
0.0
 11
433.2257811874906
 21
348.2027645469408
 31
0.0
  0
LINE
  5
2B2
330
6C
100
AcDbEntity
  8
Visible (ANSI)
100
AcDbLine
 10
362.725781187491
 20
348.2027645469407
 30
0.0
 11
362.7257811874911
 21
240.8277645469408
 31
0.0
  0
LINE
  5
2B3
330
6C
100
AcDbEntity
  8
Visible (ANSI)
100
AcDbLine
 10
429.9757811874906
 20
336.3277645469405
 30
0.0
 11
429.9757811874908
 21
260.0777645469407
 31
0.0
  0
LINE
  5
2B4
330
6C
100
AcDbEntity
  8
Visible (ANSI)
100
AcDbLine
 10
365.9757811874923
 20
336.3277645469404
 30
0.0
 11
429.9757811874906
 21
336.3277645469405
 31
0.0
  0
LINE
  5
2B5
330
6C
100
AcDbEntity
  8
Visible (ANSI)
100
AcDbLine
 10
365.9757811874928
 20
260.0777645469407
 30
0.0
 11
365.9757811874923
 21
336.3277645469404
 31
0.0
  0
LINE
  5
2B6
330
6C
100
AcDbEntity
  8
Visible (ANSI)
100
AcDbLine
 10
429.9757811874908
 20
260.0777645469407
 30
0.0
 11
365.9757811874928
 21
260.0777645469407
 31
0.0
  0
LINE
  5
2B7
330
6C
100
AcDbEntity
  8
Visible (ANSI)
100
AcDbLine
 10
362.1007811874911
 20
240.0777645469406
 30
0.0
 11
362.1007811874911
 21
240.8277645469406
 31
0.0
  0
LINE
  5
2B8
330
6C
100
AcDbEntity
  8
Visible (ANSI)
100
AcDbLine
 10
433.8507811874907
 20
240.0777645469406
 30
0.0
 11
433.8507811874907
 21
240.8277645469407
 31
0.0
  0
LINE
  5
2B9
330
6C
100
AcDbEntity
  8
Visible (ANSI)
100
AcDbLine
 10
362.1007811874911
 20
240.0777645469406
 30
0.0
 11
433.8507811874907
 21
240.0777645469406
 31
0.0
  0
CIRCLE
  5
2BA
330
6C
100
AcDbEntity
  8
Visible (ANSI)
100
AcDbCircle
 10
354.1007811874911
 20
246.0777645469508
 30
0.0
 40
3.312499999999993
  0
ARC
  5
2BB
330
6C
100
AcDbEntity
  8
Visible (ANSI)
100
AcDbCircle
 10
354.1007811874911
 20
246.0777645469546
 30
0.0
 40
5.74999999999999
100
AcDbArc
 50
180.0
 51
113.0356841059413
  0
LINE
  5
2BC
330
6C
100
AcDbEntity
  8
Visible (ANSI)
100
AcDbLine
 10
362.7257811874911
 20
243.8277645469615
 30
0.0
 11
359.3922838096202
 21
243.8277645469615
 31
0.0
  0
LINE
  5
2BD
330
6C
100
AcDbEntity
  8
Visible (ANSI)
100
AcDbLine
 10
362.7257811874911
 20
248.3277645469615
 30
0.0
 11
359.3922838096202
 21
248.3277645469615
 31
0.0
  0
LINE
  5
2BE
330
6C
100
AcDbEntity
  8
Visible (ANSI)
100
AcDbLine
 10
431.4757811874909
 20
391.5777645469408
 30
0.0
 11
431.4757811874909
 21
355.9527645469407
 31
0.0
  0
LINE
  5
2BF
330
6C
100
AcDbEntity
  8
Visible (ANSI)
100
AcDbLine
 10
364.475781187491
 20
391.5777645469407
 30
0.0
 11
431.4757811874909
 21
391.5777645469408
 31
0.0
  0
LINE
  5
2C0
330
6C
100
AcDbEntity
  8
Visible (ANSI)
100
AcDbLine
 10
364.475781187491
 20
355.9527645469407
 30
0.0
 11
364.475781187491
 21
391.5777645469407
 31
0.0
  0
LINE
  5
2C1
330
6C
100
AcDbEntity
  8
Visible (ANSI)
100
AcDbLine
 10
431.4757811874909
 20
355.9527645469407
 30
0.0
 11
364.475781187491
 21
355.9527645469407
 31
0.0
  0
LINE
  5
2C2
330
6C
100
AcDbEntity
  8
Visible (ANSI)
100
AcDbLine
 10
364.475781187491
 20
393.2027645469407
 30
0.0
 11
364.4757811874909
 21
415.5777645469407
 31
0.0
  0
LINE
  5
2C3
330
6C
100
AcDbEntity
  8
Visible (ANSI)
100
AcDbLine
 10
431.4757811874909
 20
393.2027645469407
 30
0.0
 11
364.475781187491
 21
393.2027645469407
 31
0.0
  0
LINE
  5
2C4
330
6C
100
AcDbEntity
  8
Visible (ANSI)
100
AcDbLine
 10
431.4757811874909
 20
415.5777645469407
 30
0.0
 11
431.4757811874909
 21
393.2027645469407
 31
0.0
  0
LINE
  5
2C5
330
6C
100
AcDbEntity
  8
Visible (ANSI)
100
AcDbLine
 10
364.4757811874909
 20
415.5777645469407
 30
0.0
 11
431.4757811874909
 21
415.5777645469407
 31
0.0
  0
LINE
  5
2C6
330
6C
100
AcDbEntity
  8
Visible (ANSI)
100
AcDbLine
 10
431.4757811874909
 20
354.4527645469407
 30
0.0
 11
431.475781187491
 21
348.9527645469408
 31
0.0
  0
LINE
  5
2C7
330
6C
100
AcDbEntity
  8
Visible (ANSI)
100
AcDbLine
 10
364.475781187491
 20
354.4527645469407
 30
0.0
 11
431.4757811874909
 21
354.4527645469407
 31
0.0
  0
LINE
  5
2C8
330
6C
100
AcDbEntity
  8
Visible (ANSI)
100
AcDbLine
 10
364.475781187491
 20
348.9527645469407
 30
0.0
 11
364.475781187491
 21
354.4527645469407
 31
0.0
  0
LINE
  5
2C9
330
6C
100
AcDbEntity
  8
Visible (ANSI)
100
AcDbLine
 10
431.4757811874909
 20
348.9527645469408
 30
0.0
 11
364.475781187491
 21
348.9527645469407
 31
0.0
  0
LINE
  5
2CA
330
6C
100
AcDbEntity
  8
Visible (ANSI)
100
AcDbLine
 10
356.288281187491
 20
398.3277645469545
 30
0.0
 11
360.788281187491
 21
398.3277645469545
 31
0.0
  0
LINE
  5
2CB
330
6C
100
AcDbEntity
  8
Visible (ANSI)
100
AcDbLine
 10
356.288281187491
 20
398.3277645469545
 30
0.0
 11
355.889843687491
 21
400.5777645469545
 31
0.0
  0
LINE
  5
2CC
330
6C
100
AcDbEntity
  8
Visible (ANSI)
100
AcDbLine
 10
360.788281187491
 20
398.3277645469545
 30
0.0
 11
361.1867186874909
 21
400.5777645469545
 31
0.0
  0
LINE
  5
2CD
330
6C
100
AcDbEntity
  8
Visible (ANSI)
100
AcDbLine
 10
354.3507811874909
 20
408.3277645469412
 30
0.0
 11
352.3507811874909
 21
410.3277645469412
 31
0.0
  0
LINE
  5
2CE
330
6C
100
AcDbEntity
  8
Visible (ANSI)
100
AcDbLine
 10
354.3507811874909
 20
408.3277645469412
 30
0.0
 11
362.7257811874909
 21
408.3277645469412
 31
0.0
  0
LINE
  5
2CF
330
6C
100
AcDbEntity
  8
Visible (ANSI)
100
AcDbLine
 10
352.3507811874909
 20
416.3277645469412
 30
0.0
 11
352.3507811874909
 21
410.3277645469412
 31
0.0
  0
LINE
  5
2D0
330
6C
100
AcDbEntity
  8
Visible (ANSI)
100
AcDbLine
 10
352.3507811874909
 20
416.3277645469412
 30
0.0
 11
362.7257811874909
 21
416.3277645469412
 31
0.0
  0
LINE
  5
2D1
330
6C
100
AcDbEntity
  8
Visible (ANSI)
100
AcDbLine
 10
362.725781187491
 20
348.2027645469407
 30
0.0
 11
362.7257811874909
 21
416.3277645469407
 31
0.0
  0
LINE
  5
2D2
330
6C
100
AcDbEntity
  8
Visible (ANSI)
100
AcDbLine
 10
433.2257811874909
 20
348.2027645469407
 30
0.0
 11
433.2257811874909
 21
416.3277645469407
 31
0.0
  0
LINE
  5
2D3
330
6C
100
AcDbEntity
  8
Visible (ANSI)
100
AcDbLine
 10
433.2257811874909
 20
416.3277645469407
 30
0.0
 11
362.7257811874909
 21
416.3277645469407
 31
0.0
  0
LINE
  5
2D4
330
6C
100
AcDbEntity
  8
Visible (ANSI)
100
AcDbLine
 10
362.725781187491
 20
348.2027645469407
 30
0.0
 11
433.2257811874909
 21
348.2027645469408
 31
0.0
  0
LINE
  5
2D5
330
6C
100
AcDbEntity
  8
Visible (ANSI)
100
AcDbLine
 10
348.725781187491
 20
358.0777645469467
 30
0.0
 11
348.725781187491
 21
362.5777645469467
 31
0.0
  0
LINE
  5
2D6
330
6C
100
AcDbEntity
  8
Visible (ANSI)
100
AcDbLine
 10
348.725781187491
 20
400.5777645469467
 30
0.0
 11
348.725781187491
 21
405.0777645469467
 31
0.0
  0
LINE
  5
2D7
330
6C
100
AcDbEntity
  8
Visible (ANSI)
100
AcDbLine
 10
362.725781187491
 20
358.0777645469468
 30
0.0
 11
348.725781187491
 21
358.0777645469468
 31
0.0
  0
LINE
  5
2D8
330
6C
100
AcDbEntity
  8
Visible (ANSI)
100
AcDbLine
 10
362.725781187491
 20
362.5777645469467
 30
0.0
 11
348.725781187491
 21
362.5777645469467
 31
0.0
  0
LINE
  5
2D9
330
6C
100
AcDbEntity
  8
Visible (ANSI)
100
AcDbLine
 10
362.725781187491
 20
400.5777645469467
 30
0.0
 11
348.725781187491
 21
400.5777645469467
 31
0.0
  0
LINE
  5
2DA
330
6C
100
AcDbEntity
  8
Visible (ANSI)
100
AcDbLine
 10
362.725781187491
 20
405.0777645469467
 30
0.0
 11
348.725781187491
 21
405.0777645469467
 31
0.0
  0
LINE
  5
2DB
330
6C
100
AcDbEntity
  8
Visible (ANSI)
100
AcDbLine
 10
356.288281187491
 20
352.2027645469546
 30
0.0
 11
356.288281187491
 21
358.0777645469545
 31
0.0
  0
LINE
  5
2DC
330
6C
100
AcDbEntity
  8
Visible (ANSI)
100
AcDbLine
 10
356.288281187491
 20
362.5777645469545
 30
0.0
 11
356.288281187491
 21
398.3277645469545
 31
0.0
  0
LINE
  5
2DD
330
6C
100
AcDbEntity
  8
Visible (ANSI)
100
AcDbLine
 10
360.788281187491
 20
352.2027645469546
 30
0.0
 11
360.788281187491
 21
358.0777645469545
 31
0.0
  0
LINE
  5
2DE
330
6C
100
AcDbEntity
  8
Visible (ANSI)
100
AcDbLine
 10
360.788281187491
 20
362.5777645469545
 30
0.0
 11
360.788281187491
 21
398.3277645469545
 31
0.0
  0
LINE
  5
2DF
330
6C
100
AcDbEntity
  8
Visible (ANSI)
100
AcDbLine
 10
361.850781187491
 20
408.3277645469544
 30
0.0
 11
361.850781187491
 21
405.0777645469544
 31
0.0
  0
LINE
  5
2E0
330
6C
100
AcDbEntity
  8
Visible (ANSI)
100
AcDbLine
 10
355.2257811874909
 20
408.3277645469544
 30
0.0
 11
355.2257811874909
 21
405.0777645469544
 31
0.0
  0
LINE
  5
2E1
330
6C
100
AcDbEntity
  8
Visible (ANSI)
100
AcDbLine
 10
400.4727191022885
 20
422.2475283131919
 30
0.0
 11
400.4970472974076
 21
422.3884422745302
 31
0.0
  0
SPLINE
  5
2E2
330
6C
100
AcDbEntity
  8
Visible (ANSI)
100
AcDbSpline
210
0.0
220
0.0
230
1.0
 70
     8
 71
     3
 72
    10
 73
     6
 74
     0
 42
0.0000000001
 43
0.0000000001
 40
-0.1250028004332486
 40
-0.1250028004332486
 40
-0.1250028004332486
 40
-0.1250028004332486
 40
-0.1218855853352694
 40
-0.1218855853352694
 40
-0.045584025192288
 40
-0.045584025192288
 40
-0.045584025192288
 40
-0.045584025192288
 10
400.4731387615839
 20
422.2158010973723
 30
0.0
 10
400.4731310102052
 20
422.2162017243888
 30
0.0
 10
400.4731233351762
 20
422.2166032120703
 30
0.0
 10
400.472929794687
 20
422.2268531731554
 30
0.0
 10
400.4727922304185
 20
422.23722058229
 30
0.0
 10
400.4727191022887
 20
422.2475283131919
 30
0.0
  0
LINE
  5
2E3
330
6C
100
AcDbEntity
  8
Visible (ANSI)
100
AcDbLine
 10
428.350781187491
 20
417.4527645469614
 30
0.0
 11
428.3614923168322
 21
417.5777645469614
 31
0.0
  0
LINE
  5
2E4
330
6C
100
AcDbEntity
  8
Visible (ANSI)
100
AcDbLine
 10
428.3507811874909
 20
417.4527645469614
 30
0.0
 11
428.3400700581498
 21
417.3277645469615
 31
0.0
  0
LINE
  5
2E5
330
6C
100
AcDbEntity
  8
Visible (ANSI)
100
AcDbLine
 10
429.850781187491
 20
417.3277645469615
 30
0.0
 11
429.850781187491
 21
417.5777645469614
 31
0.0
  0
ELLIPSE
  5
2E6
330
6C
100
AcDbEntity
  8
Visible (ANSI)
100
AcDbEllipse
 10
399.7435481404573
 20
422.2652645469608
 30
0.0
 11
-0.0296488066056146
 21
-0.1214328961478496
 31
0.0
210
0.0
220
0.0
230
0.9999999999999998
 40
0.6967984516403615
 41
5.413065670359695
 42
6.283185307180124
  0
ELLIPSE
  5
2E7
330
6C
100
AcDbEntity
  8
Visible (ANSI)
100
AcDbEllipse
 10
399.7435481404573
 20
422.2652645469609
 30
0.0
 11
0.0296488066056033
 21
0.1214328961478753
 31
0.0
210
0.0
220
0.0
230
1.0
 40
0.6967984516403801
 41
0.0
 42
1.883802957521041
  0
SPLINE
  5
2E8
330
6C
100
AcDbEntity
  8
Visible (ANSI)
100
AcDbSpline
210
0.0
220
0.0
230
1.0
 70
     8
 71
     3
 72
    10
 73
     6
 74
     0
 42
0.0000000001
 43
0.0000000001
 40
-0.1597689612252887
 40
-0.1597689612252887
 40
-0.1597689612252887
 40
-0.1597689612252887
 40
-0.1218855853352709
 40
-0.1218855853352709
 40
-0.0455840251923163
 40
-0.0455840251923163
 40
-0.0455840251923163
 40
-0.0455840251923163
 10
399.6651274427454
 20
422.2027645469609
 30
0.0
 10
399.663231823939
 20
422.2073490361256
 30
0.0
 10
399.6615319657621
 20
422.212116215209
 30
0.0
 10
399.6570776037815
 20
422.2268531731549
 30
0.0
 10
399.6550111483983
 20
422.2372205822895
 30
0.0
 10
399.6539156406619
 20
422.2475283131914
 30
0.0
  0
ELLIPSE
  5
2E9
330
6C
100
AcDbEntity
  8
Visible (ANSI)
100
AcDbEllipse
 10
419.4541496660323
 20
417.4527645469551
 30
0.0
 11
-0.0149856337786135
 21
-0.1245565523693717
 31
0.0
210
0.0
220
0.0
230
1.0
 40
0.7019893815731609
 41
3.225850360498782
 42
4.796646687293799
  0
ELLIPSE
  5
2EA
330
6C
100
AcDbEntity
  8
Visible (ANSI)
100
AcDbEllipse
 10
419.4541496660323
 20
417.4527645469551
 30
0.0
 11
-0.0149856337785847
 21
-0.1245565523693769
 31
0.0
210
0.0
220
0.0
230
1.0
 40
0.7019893815731609
 41
4.796646687293634
 42
6.367443014089083
  0
ELLIPSE
  5
2EB
330
6C
100
AcDbEntity
  8
Visible (ANSI)
100
AcDbEllipse
 10
420.5148098378121
 20
417.4527645469547
 30
0.0
 11
0.0
 21
0.125
 31
0.0
210
0.0
220
0.0
230
1.0
 40
0.7071067811865478
 41
0.0
 42
6.283185307179586
  0
ELLIPSE
  5
2EC
330
6C
100
AcDbEntity
  8
Visible (ANSI)
100
AcDbEllipse
 10
397.975781187491
 20
422.2652645469607
 30
0.0
 11
0.1249999999999943
 21
-0.0000000000000112
 31
0.0
210
0.0
220
0.0
230
1.0
 40
0.9854218205504176
 41
0.0000000000000926
 42
3.141592653589885
  0
CIRCLE
  5
2ED
330
6C
100
AcDbEntity
  8
Visible (ANSI)
100
AcDbCircle
 10
397.975781187491
 20
417.4527645469519
 30
0.0
 40
0.125
  0
ELLIPSE
  5
2EE
330
6C
100
AcDbEntity
  8
Visible (ANSI)
100
AcDbEllipse
 10
396.2080142345247
 20
422.2652645469608
 30
0.0
 11
0.0296488066055575
 21
-0.1214328961478529
 31
0.0
210
0.0
220
0.0
230
1.0
 40
0.6967984516403356
 41
0.0000000000013794
 42
0.8701196368211032
  0
ELLIPSE
  5
2EF
330
6C
100
AcDbEntity
  8
Visible (ANSI)
100
AcDbEllipse
 10
396.2080142345246
 20
422.2652645469609
 30
0.0
 11
-0.029648806605627
 21
0.121432896147875
 31
0.0
210
0.0
220
0.0
230
0.9999999999999996
 40
0.6967984516403895
 41
4.399382349657219
 42
6.283185307179568
  0
SPLINE
  5
2F0
330
6C
100
AcDbEntity
  8
Visible (ANSI)
100
AcDbSpline
210
0.0
220
0.0
230
1.0
 70
     8
 71
     3
 72
    10
 73
     6
 74
     0
 42
0.0000000001
 43
0.0000000001
 40
1.007858426954773
 40
1.007858426954773
 40
1.007858426954773
 40
1.007858426954773
 40
1.084159987097782
 40
1.084159987097782
 40
1.122043362987838
 40
1.122043362987838
 40
1.122043362987838
 40
1.122043362987838
 10
396.29764673432
 20
422.2475283131914
 30
0.0
 10
396.2965512265837
 20
422.2372205822895
 30
0.0
 10
396.2944847712005
 20
422.2268531731549
 30
0.0
 10
396.2900304092199
 20
422.212116215209
 30
0.0
 10
396.288330551043
 20
422.2073490361256
 30
0.0
 10
396.2864349322366
 20
422.2027645469609
 30
0.0
  0
ELLIPSE
  5
2F1
330
6C
100
AcDbEntity
  8
Visible (ANSI)
100
AcDbEllipse
 10
376.4974127089496
 20
417.4527645469551
 30
0.0
 11
0.0149856337786136
 21
-0.1245565523693717
 31
0.0
210
0.0
220
0.0
230
1.0
 40
0.7019893815731604
 41
1.486538619885786
 42
3.057334946680804
  0
ELLIPSE
  5
2F2
330
6C
100
AcDbEntity
  8
Visible (ANSI)
100
AcDbEllipse
 10
376.4974127089496
 20
417.4527645469551
 30
0.0
 11
0.0149856337785848
 21
-0.1245565523693769
 31
0.0
210
0.0
220
0.0
230
1.0
 40
0.7019893815731604
 41
6.198927600270089
 42
7.769723927065538
  0
ELLIPSE
  5
2F3
330
6C
100
AcDbEntity
  8
Visible (ANSI)
100
AcDbEllipse
 10
375.4367525371697
 20
417.4527645469547
 30
0.0
 11
0.0
 21
0.125
 31
0.0
210
0.0
220
0.0
230
1.0
 40
0.7071067811865472
 41
0.0
 42
6.283185307179586
  0
LINE
  5
2F4
330
6C
100
AcDbEntity
  8
Visible (ANSI)
100
AcDbLine
 10
395.4545150775743
 20
422.3884422745302
 30
0.0
 11
395.4788432726933
 21
422.2475283131919
 31
0.0
  0
SPLINE
  5
2F5
330
6C
100
AcDbEntity
  8
Visible (ANSI)
100
AcDbSpline
210
0.0
220
0.0
230
1.0
 70
     8
 71
     3
 72
    10
 73
     6
 74
     0
 42
0.0000000001
 43
0.0000000001
 40
1.007858426954796
 40
1.007858426954796
 40
1.007858426954796
 40
1.007858426954796
 40
1.084159987097775
 40
1.084159987097775
 40
1.087277202195639
 40
1.087277202195639
 40
1.087277202195639
 40
1.087277202195639
 10
395.4788432726933
 20
422.2475283131919
 30
0.0
 10
395.4787701445633
 20
422.23722058229
 30
0.0
 10
395.4786325802949
 20
422.2268531731554
 30
0.0
 10
395.4784390398057
 20
422.2166032120703
 30
0.0
 10
395.4784313647766
 20
422.2162017243888
 30
0.0
 10
395.478423613398
 20
422.2158010973723
 30
0.0
  0
LINE
  5
2F6
330
6C
100
AcDbEntity
  8
Visible (ANSI)
100
AcDbLine
 10
367.5900700581498
 20
417.5777645469614
 30
0.0
 11
367.600781187491
 21
417.4527645469614
 31
0.0
  0
LINE
  5
2F7
330
6C
100
AcDbEntity
  8
Visible (ANSI)
100
AcDbLine
 10
367.6114923168321
 20
417.3277645469615
 30
0.0
 11
367.600781187491
 21
417.4527645469614
 31
0.0
  0
LINE
  5
2F8
330
6C
100
AcDbEntity
  8
Visible (ANSI)
100
AcDbLine
 10
366.100781187491
 20
417.5777645469614
 30
0.0
 11
366.100781187491
 21
417.3277645469615
 31
0.0
  0
LINE
  5
2F9
330
6C
100
AcDbEntity
  8
Visible (ANSI)
100
AcDbLine
 10
428.3400700581498
 20
417.3277645469615
 30
0.0
 11
424.8813069807567
 21
417.9249052576324
 31
0.0
  0
LINE
  5
2FA
330
6C
100
AcDbEntity
  8
Visible (ANSI)
100
AcDbLine
 10
423.4332550327049
 20
418.1749052576324
 30
0.0
 11
420.5876833340728
 21
418.6661810890106
 31
0.0
  0
LINE
  5
2FB
330
6C
100
AcDbEntity
  8
Visible (ANSI)
100
AcDbLine
 10
419.1396313860209
 20
418.9161810890105
 30
0.0
 11
416.2940596873886
 21
419.4074569203888
 31
0.0
  0
LINE
  5
2FC
330
6C
100
AcDbEntity
  8
Visible (ANSI)
100
AcDbLine
 10
414.8460077393367
 20
419.6574569203888
 30
0.0
 11
412.0004360407044
 21
420.148732751767
 31
0.0
  0
LINE
  5
2FD
330
6C
100
AcDbEntity
  8
Visible (ANSI)
100
AcDbLine
 10
410.5523840926525
 20
420.398732751767
 30
0.0
 11
407.7068123940202
 21
420.8900085831452
 31
0.0
  0
LINE
  5
2FE
330
6C
100
AcDbEntity
  8
Visible (ANSI)
100
AcDbLine
 10
406.2587604459683
 20
421.1400085831453
 30
0.0
 11
403.413188747336
 21
421.6312844145234
 31
0.0
  0
LINE
  5
2FF
330
6C
100
AcDbEntity
  8
Visible (ANSI)
100
AcDbLine
 10
401.9651367992841
 20
421.8812844145234
 30
0.0
 11
401.5488931025034
 21
421.9531471155371
 31
0.0
  0
LINE
  5
300
330
6C
100
AcDbEntity
  8
Visible (ANSI)
100
AcDbLine
 10
428.3614923168321
 20
417.5777645469613
 30
0.0
 11
426.350781187491
 21
417.9249052576324
 31
0.0
  0
LINE
  5
301
330
6C
100
AcDbEntity
  8
Visible (ANSI)
100
AcDbLine
 10
424.902729239439
 20
418.1749052576324
 30
0.0
 11
422.0571575408071
 21
418.6661810890106
 31
0.0
  0
LINE
  5
302
330
6C
100
AcDbEntity
  8
Visible (ANSI)
100
AcDbLine
 10
420.6091055927551
 20
418.9161810890105
 30
0.0
 11
417.7635338941228
 21
419.4074569203888
 31
0.0
  0
LINE
  5
303
330
6C
100
AcDbEntity
  8
Visible (ANSI)
100
AcDbLine
 10
416.3154819460709
 20
419.6574569203888
 30
0.0
 11
413.4699102474386
 21
420.148732751767
 31
0.0
  0
LINE
  5
304
330
6C
100
AcDbEntity
  8
Visible (ANSI)
100
AcDbLine
 10
412.0218582993867
 20
420.398732751767
 30
0.0
 11
409.1762866007544
 21
420.8900085831452
 31
0.0
  0
LINE
  5
305
330
6C
100
AcDbEntity
  8
Visible (ANSI)
100
AcDbLine
 10
407.7282346527026
 20
421.1400085831453
 30
0.0
 11
404.8826629540703
 21
421.6312844145234
 31
0.0
  0
LINE
  5
306
330
6C
100
AcDbEntity
  8
Visible (ANSI)
100
AcDbLine
 10
403.4346110060183
 20
421.8812844145234
 30
0.0
 11
400.4970472974076
 21
422.3884422745302
 31
0.0
  0
LINE
  5
307
330
6C
100
AcDbEntity
  8
Visible (ANSI)
100
AcDbLine
 10
429.850781187491
 20
417.5777645469613
 30
0.0
 11
428.3614923168321
 21
417.5777645469613
 31
0.0
  0
LINE
  5
308
330
6C
100
AcDbEntity
  8
Visible (ANSI)
100
AcDbLine
 10
419.4318586361672
 20
417.3295351911447
 30
0.0
 11
416.9933958536905
 21
417.9249052576267
 31
0.0
  0
LINE
  5
309
330
6C
100
AcDbEntity
  8
Visible (ANSI)
100
AcDbLine
 10
415.9694685017126
 20
418.174905257627
 30
0.0
 11
413.9573454572574
 21
418.6661810890058
 31
0.0
  0
LINE
  5
30A
330
6C
100
AcDbEntity
  8
Visible (ANSI)
100
AcDbLine
 10
412.9334181052795
 20
418.9161810890061
 30
0.0
 11
410.9212950608241
 21
419.4074569203849
 31
0.0
  0
LINE
  5
30B
330
6C
100
AcDbEntity
  8
Visible (ANSI)
100
AcDbLine
 10
409.8973677088461
 20
419.6574569203852
 30
0.0
 11
407.8852446643908
 21
420.148732751764
 31
0.0
  0
LINE
  5
30C
330
6C
100
AcDbEntity
  8
Visible (ANSI)
100
AcDbLine
 10
406.8613173124128
 20
420.3987327517642
 30
0.0
 11
404.8491942679574
 21
420.8900085831431
 31
0.0
  0
LINE
  5
30D
330
6C
100
AcDbEntity
  8
Visible (ANSI)
100
AcDbLine
 10
403.8252669159795
 20
421.1400085831434
 30
0.0
 11
401.8131438715242
 21
421.6312844145222
 31
0.0
  0
LINE
  5
30E
330
6C
100
AcDbEntity
  8
Visible (ANSI)
100
AcDbLine
 10
400.7892165195462
 20
421.8812844145226
 30
0.0
 11
399.7138993338518
 21
422.1438316508129
 31
0.0
  0
LINE
  5
30F
330
6C
100
AcDbEntity
  8
Visible (ANSI)
100
AcDbLine
 10
419.4691886518318
 20
417.577764546955
 30
0.0
 11
418.0474011772675
 21
417.9249052576264
 31
0.0
  0
LINE
  5
310
330
6C
100
AcDbEntity
  8
Visible (ANSI)
100
AcDbLine
 10
417.0234738252895
 20
418.1749052576267
 30
0.0
 11
415.0113507808343
 21
418.6661810890055
 31
0.0
  0
LINE
  5
311
330
6C
100
AcDbEntity
  8
Visible (ANSI)
100
AcDbLine
 10
413.9874234288565
 20
418.9161810890058
 30
0.0
 11
411.975300384401
 21
419.4074569203847
 31
0.0
  0
LINE
  5
312
330
6C
100
AcDbEntity
  8
Visible (ANSI)
100
AcDbLine
 10
410.9513730324231
 20
419.6574569203849
 30
0.0
 11
408.9392499879678
 21
420.1487327517638
 31
0.0
  0
LINE
  5
313
330
6C
100
AcDbEntity
  8
Visible (ANSI)
100
AcDbLine
 10
407.9153226359898
 20
420.3987327517641
 30
0.0
 11
405.9031995915345
 21
420.8900085831428
 31
0.0
  0
LINE
  5
314
330
6C
100
AcDbEntity
  8
Visible (ANSI)
100
AcDbLine
 10
404.8792722395566
 20
421.1400085831431
 30
0.0
 11
402.8671491951012
 21
421.6312844145219
 31
0.0
  0
LINE
  5
315
330
6C
100
AcDbEntity
  8
Visible (ANSI)
100
AcDbLine
 10
401.8432218431232
 20
421.8812844145223
 30
0.0
 11
399.7731969470629
 21
422.3866974431087
 31
0.0
  0
LINE
  5
316
330
6C
100
AcDbEntity
  8
Visible (ANSI)
100
AcDbLine
 10
420.5148098378121
 20
417.5777645469547
 30
0.0
 11
419.4617235782236
 21
417.577764546955
 31
0.0
  0
LINE
  5
317
330
6C
100
AcDbEntity
  8
Visible (ANSI)
100
AcDbLine
 10
397.8507811874909
 20
417.4527645469524
 30
0.0
 11
397.8507811874909
 21
417.9249052576242
 31
0.0
  0
LINE
  5
318
330
6C
100
AcDbEntity
  8
Visible (ANSI)
100
AcDbLine
 10
397.8507811874909
 20
418.1749052576246
 30
0.0
 11
397.8507811874909
 21
418.6661810890036
 31
0.0
  0
LINE
  5
319
330
6C
100
AcDbEntity
  8
Visible (ANSI)
100
AcDbLine
 10
397.8507811874909
 20
418.916181089004
 30
0.0
 11
397.8507811874909
 21
419.4074569203831
 31
0.0
  0
LINE
  5
31A
330
6C
100
AcDbEntity
  8
Visible (ANSI)
100
AcDbLine
 10
397.8507811874909
 20
419.6574569203836
 30
0.0
 11
397.8507811874909
 21
420.1487327517626
 31
0.0
  0
LINE
  5
31B
330
6C
100
AcDbEntity
  8
Visible (ANSI)
100
AcDbLine
 10
397.8507811874909
 20
420.398732751763
 30
0.0
 11
397.8507811874909
 21
420.8900085831421
 31
0.0
  0
LINE
  5
31C
330
6C
100
AcDbEntity
  8
Visible (ANSI)
100
AcDbLine
 10
397.8507811874909
 20
421.1400085831425
 30
0.0
 11
397.8507811874909
 21
421.6312844145216
 31
0.0
  0
LINE
  5
31D
330
6C
100
AcDbEntity
  8
Visible (ANSI)
100
AcDbLine
 10
397.8507811874909
 20
421.881284414522
 30
0.0
 11
397.8507811874909
 21
422.2652645469606
 31
0.0
  0
LINE
  5
31E
330
6C
100
AcDbEntity
  8
Visible (ANSI)
100
AcDbLine
 10
398.100781187491
 20
417.4527645469524
 30
0.0
 11
398.100781187491
 21
417.9249052576242
 31
0.0
  0
LINE
  5
31F
330
6C
100
AcDbEntity
  8
Visible (ANSI)
100
AcDbLine
 10
398.100781187491
 20
418.1749052576246
 30
0.0
 11
398.100781187491
 21
418.6661810890036
 31
0.0
  0
LINE
  5
320
330
6C
100
AcDbEntity
  8
Visible (ANSI)
100
AcDbLine
 10
398.100781187491
 20
418.916181089004
 30
0.0
 11
398.100781187491
 21
419.4074569203831
 31
0.0
  0
LINE
  5
321
330
6C
100
AcDbEntity
  8
Visible (ANSI)
100
AcDbLine
 10
398.100781187491
 20
419.6574569203836
 30
0.0
 11
398.100781187491
 21
420.1487327517626
 31
0.0
  0
LINE
  5
322
330
6C
100
AcDbEntity
  8
Visible (ANSI)
100
AcDbLine
 10
398.100781187491
 20
420.398732751763
 30
0.0
 11
398.100781187491
 21
420.8900085831421
 31
0.0
  0
LINE
  5
323
330
6C
100
AcDbEntity
  8
Visible (ANSI)
100
AcDbLine
 10
398.100781187491
 20
421.1400085831425
 30
0.0
 11
398.100781187491
 21
421.6312844145216
 31
0.0
  0
LINE
  5
324
330
6C
100
AcDbEntity
  8
Visible (ANSI)
100
AcDbLine
 10
398.100781187491
 20
421.881284414522
 30
0.0
 11
398.100781187491
 21
422.2652645469606
 31
0.0
  0
LINE
  5
325
330
6C
100
AcDbEntity
  8
Visible (ANSI)
100
AcDbLine
 10
376.48237372315
 20
417.577764546955
 30
0.0
 11
377.9041611977144
 21
417.9249052576264
 31
0.0
  0
LINE
  5
326
330
6C
100
AcDbEntity
  8
Visible (ANSI)
100
AcDbLine
 10
378.9280885496923
 20
418.1749052576267
 30
0.0
 11
380.9402115941475
 21
418.6661810890055
 31
0.0
  0
LINE
  5
327
330
6C
100
AcDbEntity
  8
Visible (ANSI)
100
AcDbLine
 10
381.9641389461255
 20
418.9161810890058
 30
0.0
 11
383.9762619905808
 21
419.4074569203847
 31
0.0
  0
LINE
  5
328
330
6C
100
AcDbEntity
  8
Visible (ANSI)
100
AcDbLine
 10
385.0001893425587
 20
419.6574569203849
 30
0.0
 11
387.0123123870142
 21
420.1487327517638
 31
0.0
  0
LINE
  5
329
330
6C
100
AcDbEntity
  8
Visible (ANSI)
100
AcDbLine
 10
388.036239738992
 20
420.3987327517641
 30
0.0
 11
390.0483627834475
 21
420.8900085831428
 31
0.0
  0
LINE
  5
32A
330
6C
100
AcDbEntity
  8
Visible (ANSI)
100
AcDbLine
 10
391.0722901354254
 20
421.1400085831431
 30
0.0
 11
393.0844131798807
 21
421.6312844145219
 31
0.0
  0
LINE
  5
32B
330
6C
100
AcDbEntity
  8
Visible (ANSI)
100
AcDbLine
 10
394.1083405318586
 20
421.8812844145223
 30
0.0
 11
396.1783654279191
 21
422.3866974431087
 31
0.0
  0
LINE
  5
32C
330
6C
100
AcDbEntity
  8
Visible (ANSI)
100
AcDbLine
 10
376.5197037388147
 20
417.3295351911447
 30
0.0
 11
378.9581665212914
 21
417.9249052576267
 31
0.0
  0
LINE
  5
32D
330
6C
100
AcDbEntity
  8
Visible (ANSI)
100
AcDbLine
 10
379.9820938732693
 20
418.174905257627
 30
0.0
 11
381.9942169177246
 21
418.6661810890058
 31
0.0
  0
LINE
  5
32E
330
6C
100
AcDbEntity
  8
Visible (ANSI)
100
AcDbLine
 10
383.0181442697024
 20
418.9161810890061
 30
0.0
 11
385.0302673141579
 21
419.4074569203849
 31
0.0
  0
LINE
  5
32F
330
6C
100
AcDbEntity
  8
Visible (ANSI)
100
AcDbLine
 10
386.0541946661357
 20
419.6574569203852
 30
0.0
 11
388.0663177105912
 21
420.148732751764
 31
0.0
  0
LINE
  5
330
330
6C
100
AcDbEntity
  8
Visible (ANSI)
100
AcDbLine
 10
389.0902450625691
 20
420.3987327517642
 30
0.0
 11
391.1023681070245
 21
420.8900085831431
 31
0.0
  0
LINE
  5
331
330
6C
100
AcDbEntity
  8
Visible (ANSI)
100
AcDbLine
 10
392.1262954590024
 20
421.1400085831434
 30
0.0
 11
394.1384185034578
 21
421.6312844145222
 31
0.0
  0
LINE
  5
332
330
6C
100
AcDbEntity
  8
Visible (ANSI)
100
AcDbLine
 10
395.1623458554357
 20
421.8812844145226
 30
0.0
 11
396.2376630411302
 21
422.1438316508129
 31
0.0
  0
LINE
  5
333
330
6C
100
AcDbEntity
  8
Visible (ANSI)
100
AcDbLine
 10
375.4367525371697
 20
417.5777645469547
 30
0.0
 11
376.4898387967584
 21
417.577764546955
 31
0.0
  0
LINE
  5
334
330
6C
100
AcDbEntity
  8
Visible (ANSI)
100
AcDbLine
 10
367.5900700581498
 20
417.5777645469613
 30
0.0
 11
369.600781187491
 21
417.9249052576324
 31
0.0
  0
LINE
  5
335
330
6C
100
AcDbEntity
  8
Visible (ANSI)
100
AcDbLine
 10
371.0488331355429
 20
418.1749052576324
 30
0.0
 11
373.8944048341749
 21
418.6661810890106
 31
0.0
  0
LINE
  5
336
330
6C
100
AcDbEntity
  8
Visible (ANSI)
100
AcDbLine
 10
375.3424567822268
 20
418.9161810890105
 30
0.0
 11
378.1880284808591
 21
419.4074569203888
 31
0.0
  0
LINE
  5
337
330
6C
100
AcDbEntity
  8
Visible (ANSI)
100
AcDbLine
 10
379.636080428911
 20
419.6574569203887
 30
0.0
 11
382.4816521275433
 21
420.148732751767
 31
0.0
  0
LINE
  5
338
330
6C
100
AcDbEntity
  8
Visible (ANSI)
100
AcDbLine
 10
383.9297040755952
 20
420.398732751767
 30
0.0
 11
386.7752757742275
 21
420.8900085831452
 31
0.0
  0
LINE
  5
339
330
6C
100
AcDbEntity
  8
Visible (ANSI)
100
AcDbLine
 10
388.2233277222794
 20
421.1400085831451
 30
0.0
 11
391.0688994209117
 21
421.6312844145234
 31
0.0
  0
LINE
  5
33A
330
6C
100
AcDbEntity
  8
Visible (ANSI)
100
AcDbLine
 10
392.5169513689636
 20
421.8812844145234
 30
0.0
 11
395.4545150775744
 21
422.3884422745302
 31
0.0
  0
LINE
  5
33B
330
6C
100
AcDbEntity
  8
Visible (ANSI)
100
AcDbLine
 10
367.6114923168321
 20
417.3277645469615
 30
0.0
 11
371.0702553942252
 21
417.9249052576324
 31
0.0
  0
LINE
  5
33C
330
6C
100
AcDbEntity
  8
Visible (ANSI)
100
AcDbLine
 10
372.5183073422771
 20
418.1749052576324
 30
0.0
 11
375.3638790409091
 21
418.6661810890106
 31
0.0
  0
LINE
  5
33D
330
6C
100
AcDbEntity
  8
Visible (ANSI)
100
AcDbLine
 10
376.811930988961
 20
418.9161810890105
 30
0.0
 11
379.6575026875933
 21
419.4074569203888
 31
0.0
  0
LINE
  5
33E
330
6C
100
AcDbEntity
  8
Visible (ANSI)
100
AcDbLine
 10
381.1055546356452
 20
419.6574569203887
 30
0.0
 11
383.9511263342775
 21
420.148732751767
 31
0.0
  0
LINE
  5
33F
330
6C
100
AcDbEntity
  8
Visible (ANSI)
100
AcDbLine
 10
385.3991782823294
 20
420.398732751767
 30
0.0
 11
388.2447499809617
 21
420.8900085831452
 31
0.0
  0
LINE
  5
340
330
6C
100
AcDbEntity
  8
Visible (ANSI)
100
AcDbLine
 10
389.6928019290136
 20
421.1400085831453
 30
0.0
 11
392.5383736276458
 21
421.6312844145234
 31
0.0
  0
LINE
  5
341
330
6C
100
AcDbEntity
  8
Visible (ANSI)
100
AcDbLine
 10
393.9864255756978
 20
421.8812844145234
 30
0.0
 11
394.4026692724786
 21
421.9531471155371
 31
0.0
  0
LINE
  5
342
330
6C
100
AcDbEntity
  8
Visible (ANSI)
100
AcDbLine
 10
366.100781187491
 20
417.5777645469613
 30
0.0
 11
367.5900700581498
 21
417.5777645469613
 31
0.0
  0
LINE
  5
343
330
6C
100
AcDbEntity
  8
Visible (ANSI)
100
AcDbLine
 10
399.6651274427454
 20
422.2027645469609
 30
0.0
 11
398.100781187491
 21
422.2027645469607
 31
0.0
  0
LINE
  5
344
330
6C
100
AcDbEntity
  8
Visible (ANSI)
100
AcDbLine
 10
397.8507811874909
 20
422.2027645469607
 30
0.0
 11
396.2864349322366
 21
422.2027645469609
 31
0.0
  0
LINE
  5
345
330
6C
100
AcDbEntity
  8
Visible (ANSI)
100
AcDbLine
 10
375.4367525371697
 20
417.3277645469546
 30
0.0
 11
366.100781187491
 21
417.3277645469615
 31
0.0
  0
LINE
  5
346
330
6C
100
AcDbEntity
  8
Visible (ANSI)
100
AcDbLine
 10
397.975781187491
 20
417.3277645469519
 30
0.0
 11
375.4367525371697
 21
417.3277645469546
 31
0.0
  0
LINE
  5
347
330
6C
100
AcDbEntity
  8
Visible (ANSI)
100
AcDbLine
 10
420.5148098378121
 20
417.3277645469546
 30
0.0
 11
397.975781187491
 21
417.327764546952
 31
0.0
  0
LINE
  5
348
330
6C
100
AcDbEntity
  8
Visible (ANSI)
100
AcDbLine
 10
429.850781187491
 20
417.3277645469615
 30
0.0
 11
420.5148098378121
 21
417.3277645469546
 31
0.0
  0
LINE
  5
349
330
6C
100
AcDbEntity
  8
Visible (ANSI)
100
AcDbLine
 10
429.850781187491
 20
417.2027645469614
 30
0.0
 11
366.100781187491
 21
417.2027645469614
 31
0.0
  0
LINE
  5
34A
330
6C
100
AcDbEntity
  8
Visible (ANSI)
100
AcDbLine
 10
395.9369934107308
 20
422.327764546961
 30
0.0
 11
395.475781187491
 21
422.3277645469615
 31
0.0
  0
LINE
  5
34B
330
6C
100
AcDbEntity
  8
Visible (ANSI)
100
AcDbLine
 10
397.8680671301067
 20
422.3277645469607
 30
0.0
 11
396.2765496390905
 21
422.3277645469608
 31
0.0
  0
LINE
  5
34C
330
6C
100
AcDbEntity
  8
Visible (ANSI)
100
AcDbLine
 10
399.6750127358915
 20
422.3277645469608
 30
0.0
 11
398.0834952448752
 21
422.3277645469607
 31
0.0
  0
LINE
  5
34D
330
6C
100
AcDbEntity
  8
Visible (ANSI)
100
AcDbLine
 10
400.4757811874909
 20
422.3277645469615
 30
0.0
 11
400.0145689642512
 21
422.327764546961
 31
0.0
  0
LINE
  5
34E
330
6C
100
AcDbEntity
  8
Visible (ANSI)
100
AcDbLine
 10
367.475781187491
 20
416.3277645469614
 30
0.0
 11
367.475781187491
 21
417.2027645469614
 31
0.0
  0
LINE
  5
34F
330
6C
100
AcDbEntity
  8
Visible (ANSI)
100
AcDbLine
 10
428.4757811874909
 20
416.3277645469614
 30
0.0
 11
428.4757811874909
 21
417.2027645469614
 31
0.0
  0
LINE
  5
350
330
6C
100
AcDbEntity
  8
Visible (ANSI)
100
AcDbLine
 10
366.100781187491
 20
417.2027645469614
 30
0.0
 11
366.100781187491
 21
417.3277645469615
 31
0.0
  0
LINE
  5
351
330
6C
100
AcDbEntity
  8
Visible (ANSI)
100
AcDbLine
 10
429.850781187491
 20
417.2027645469614
 30
0.0
 11
429.8507811874909
 21
417.3277645469615
 31
0.0
  0
LINE
  5
352
330
6C
100
AcDbEntity
  8
Visible (ANSI)
100
AcDbLine
 10
395.475781187491
 20
422.2652645469613
 30
0.0
 11
395.475781187491
 21
422.3277645469615
 31
0.0
  0
LINE
  5
353
330
6C
100
AcDbEntity
  8
Visible (ANSI)
100
AcDbLine
 10
400.4757811874909
 20
422.2652645469613
 30
0.0
 11
400.4757811874909
 21
422.3277645469615
 31
0.0
  0
ARC
  5
354
330
6C
100
AcDbEntity
  8
Visible (ANSI)
100
AcDbCircle
 10
404.8933740834112
 20
421.7562844145233
 30
0.0
 40
0.125
100
AcDbArc
 50
270.0
 51
90.0
  0
ARC
  5
355
330
6C
100
AcDbEntity
  8
Visible (ANSI)
100
AcDbCircle
 10
391.0581882915707
 20
421.7562844145233
 30
0.0
 40
0.125
100
AcDbArc
 50
90.0
 51
270.0
  0
LINE
  5
356
330
6C
100
AcDbEntity
  8
Visible (ANSI)
100
AcDbLine
 10
404.8933740834112
 20
421.8812844145234
 30
0.0
 11
391.0581882915707
 21
421.8812844145234
 31
0.0
  0
LINE
  5
357
330
6C
100
AcDbEntity
  8
Visible (ANSI)
100
AcDbLine
 10
391.0581882915707
 20
421.6312844145234
 30
0.0
 11
404.8933740834112
 21
421.6312844145234
 31
0.0
  0
ARC
  5
358
330
6C
100
AcDbEntity
  8
Visible (ANSI)
100
AcDbCircle
 10
409.1869977300953
 20
421.0150085831452
 30
0.0
 40
0.125
100
AcDbArc
 50
270.0
 51
90.0
  0
ARC
  5
359
330
6C
100
AcDbEntity
  8
Visible (ANSI)
100
AcDbCircle
 10
386.7645646448866
 20
421.0150085831452
 30
0.0
 40
0.125
100
AcDbArc
 50
90.0
 51
270.0
  0
LINE
  5
35A
330
6C
100
AcDbEntity
  8
Visible (ANSI)
100
AcDbLine
 10
409.1869977300953
 20
421.1400085831453
 30
0.0
 11
386.7645646448866
 21
421.1400085831453
 31
0.0
  0
LINE
  5
35B
330
6C
100
AcDbEntity
  8
Visible (ANSI)
100
AcDbLine
 10
386.7645646448866
 20
420.8900085831452
 30
0.0
 11
409.1869977300953
 21
420.8900085831452
 31
0.0
  0
ARC
  5
35C
330
6C
100
AcDbEntity
  8
Visible (ANSI)
100
AcDbCircle
 10
413.4806213767795
 20
420.2737327517669
 30
0.0
 40
0.125
100
AcDbArc
 50
270.0
 51
90.0
  0
ARC
  5
35D
330
6C
100
AcDbEntity
  8
Visible (ANSI)
100
AcDbCircle
 10
382.4709409982024
 20
420.2737327517669
 30
0.0
 40
0.125
100
AcDbArc
 50
90.0
 51
270.0
  0
LINE
  5
35E
330
6C
100
AcDbEntity
  8
Visible (ANSI)
100
AcDbLine
 10
413.4806213767796
 20
420.398732751767
 30
0.0
 11
382.4709409982024
 21
420.398732751767
 31
0.0
  0
LINE
  5
35F
330
6C
100
AcDbEntity
  8
Visible (ANSI)
100
AcDbLine
 10
382.4709409982024
 20
420.148732751767
 30
0.0
 11
413.4806213767796
 21
420.148732751767
 31
0.0
  0
ARC
  5
360
330
6C
100
AcDbEntity
  8
Visible (ANSI)
100
AcDbCircle
 10
417.7742450234637
 20
419.5324569203888
 30
0.0
 40
0.125
100
AcDbArc
 50
270.0
 51
90.0
  0
ARC
  5
361
330
6C
100
AcDbEntity
  8
Visible (ANSI)
100
AcDbCircle
 10
378.1773173515182
 20
419.5324569203888
 30
0.0
 40
0.125
100
AcDbArc
 50
90.0
 51
270.0
  0
LINE
  5
362
330
6C
100
AcDbEntity
  8
Visible (ANSI)
100
AcDbLine
 10
417.7742450234637
 20
419.6574569203888
 30
0.0
 11
378.1773173515182
 21
419.6574569203888
 31
0.0
  0
LINE
  5
363
330
6C
100
AcDbEntity
  8
Visible (ANSI)
100
AcDbLine
 10
378.1773173515182
 20
419.4074569203888
 30
0.0
 11
417.7742450234637
 21
419.4074569203888
 31
0.0
  0
ARC
  5
364
330
6C
100
AcDbEntity
  8
Visible (ANSI)
100
AcDbCircle
 10
422.0678686701479
 20
418.7911810890105
 30
0.0
 40
0.125
100
AcDbArc
 50
270.0
 51
90.0
  0
ARC
  5
365
330
6C
100
AcDbEntity
  8
Visible (ANSI)
100
AcDbCircle
 10
373.883693704834
 20
418.7911810890105
 30
0.0
 40
0.125
100
AcDbArc
 50
90.0
 51
270.0
  0
LINE
  5
366
330
6C
100
AcDbEntity
  8
Visible (ANSI)
100
AcDbLine
 10
422.0678686701479
 20
418.9161810890105
 30
0.0
 11
373.8836937048341
 21
418.9161810890105
 31
0.0
  0
LINE
  5
367
330
6C
100
AcDbEntity
  8
Visible (ANSI)
100
AcDbLine
 10
373.8836937048341
 20
418.6661810890106
 30
0.0
 11
422.0678686701479
 21
418.6661810890106
 31
0.0
  0
ARC
  5
368
330
6C
100
AcDbEntity
  8
Visible (ANSI)
100
AcDbCircle
 10
426.361492316832
 20
418.0499052576323
 30
0.0
 40
0.125
100
AcDbArc
 50
270.0
 51
90.0
  0
ARC
  5
369
330
6C
100
AcDbEntity
  8
Visible (ANSI)
100
AcDbCircle
 10
369.5900700581498
 20
418.0499052576323
 30
0.0
 40
0.125
100
AcDbArc
 50
90.0
 51
270.0
  0
LINE
  5
36A
330
6C
100
AcDbEntity
  8
Visible (ANSI)
100
AcDbLine
 10
426.3614923168321
 20
418.1749052576324
 30
0.0
 11
369.5900700581498
 21
418.1749052576324
 31
0.0
  0
LINE
  5
36B
330
6C
100
AcDbEntity
  8
Visible (ANSI)
100
AcDbLine
 10
369.5900700581498
 20
417.9249052576324
 30
0.0
 11
426.3614923168321
 21
417.9249052576324
 31
0.0
  0
MTEXT
  5
36C
330
6C
100
AcDbEntity
  8
Symbol (ANSI)
100
AcDbMText
 10
348.4618140626074
 20
216.424926476103
 30
0.0
 40
12.49999981226883
 41
0.0
 71
     7
 72
     1
  1
Air Inlet Face
  7
Label Text (ANSI)
 73
     1
 44
1.0
  0
ARC
  5
36D
330
6C
100
AcDbEntity
  8
Visible (ANSI)
100
AcDbCircle
 10
104.1986040939584
 20
283.0777645469654
 30
0.0
 40
0.2500000000000008
100
AcDbArc
 50
274.7801918471812
 51
85.21980815278222
  0
LINE
  5
36E
330
6C
100
AcDbEntity
  8
Visible (ANSI)
100
AcDbLine
 10
101.240270760625
 20
282.5795036826704
 30
0.0
 11
104.2194374272917
 21
282.8286341148175
 31
0.0
  0
LINE
  5
36F
330
6C
100
AcDbEntity
  8
Visible (ANSI)
100
AcDbLine
 10
104.2194374272918
 20
283.3268949791134
 30
0.0
 11
101.2402707606252
 21
283.5760254112622
 31
0.0
  0
ARC
  5
370
330
6C
100
AcDbEntity
  8
Visible (ANSI)
100
AcDbCircle
 10
101.1986040939584
 20
283.0777645469664
 30
0.0
 40
0.5000000000000017
100
AcDbArc
 50
85.21980815278451
 51
274.7801918471812
  0
CIRCLE
  5
371
330
6C
100
AcDbEntity
  8
Visible (ANSI)
100
AcDbCircle
 10
105.8236040939488
 20
250.077764546965
 30
0.0
 40
1.749999999999998
  0
CIRCLE
  5
372
330
6C
100
AcDbEntity
  8
Visible (ANSI)
100
AcDbCircle
 10
88.0736040939468
 20
243.0777645469703
 30
0.0
 40
1.187499999999998
  0
CIRCLE
  5
373
330
6C
100
AcDbEntity
  8
Visible (ANSI)
100
AcDbCircle
 10
93.82360409395451
 20
269.0777645469685
 30
0.0
 40
0.9499999999999989
  0
LINE
  5
374
330
6C
100
AcDbEntity
  8
Visible (ANSI)
100
AcDbLine
 10
141.9486040939752
 20
344.2027645469541
 30
0.0
 11
136.6986040939752
 21
344.2027645469557
 31
0.0
  0
LINE
  5
375
330
6C
100
AcDbEntity
  8
Visible (ANSI)
100
AcDbLine
 10
136.6986040939775
 20
352.2027645469557
 30
0.0
 11
141.9486040939775
 21
352.2027645469541
 31
0.0
  0
LINE
  5
376
330
6C
100
AcDbEntity
  8
Visible (ANSI)
100
AcDbLine
 10
136.6986040939752
 20
344.2027645469557
 30
0.0
 11
136.6986040939775
 21
352.2027645469557
 31
0.0
  0
LINE
  5
377
330
6C
100
AcDbEntity
  8
Visible (ANSI)
100
AcDbLine
 10
141.9486040939752
 20
344.2027645469541
 30
0.0
 11
141.9486040939775
 21
352.2027645469541
 31
0.0
  0
LINE
  5
378
330
6C
100
AcDbEntity
  8
Visible (ANSI)
100
AcDbLine
 10
141.5736040939588
 20
289.3277645469543
 30
0.0
 11
137.0736040939589
 21
289.3277645469557
 31
0.0
  0
LINE
  5
379
330
6C
100
AcDbEntity
  8
Visible (ANSI)
100
AcDbLine
 10
137.5736040939571
 20
283.3277645469555
 30
0.0
 11
141.0736040939571
 21
283.3277645469545
 31
0.0
  0
LINE
  5
37A
330
6C
100
AcDbEntity
  8
Visible (ANSI)
100
AcDbLine
 10
137.5736040939571
 20
283.3277645469555
 30
0.0
 11
137.0736040939589
 21
289.3277645469557
 31
0.0
  0
LINE
  5
37B
330
6C
100
AcDbEntity
  8
Visible (ANSI)
100
AcDbLine
 10
141.0736040939571
 20
283.3277645469545
 30
0.0
 11
141.5736040939588
 21
289.3277645469543
 31
0.0
  0
LINE
  5
37C
330
6C
100
AcDbEntity
  8
Visible (ANSI)
100
AcDbLine
 10
137.0736040939589
 20
289.3277645469557
 30
0.0
 11
137.0736040939752
 21
344.2027645469556
 31
0.0
  0
LINE
  5
37D
330
6C
100
AcDbEntity
  8
Visible (ANSI)
100
AcDbLine
 10
141.5736040939588
 20
289.3277645469543
 30
0.0
 11
141.5736040939751
 21
344.2027645469543
 31
0.0
  0
LINE
  5
37E
330
6C
100
AcDbEntity
  8
Visible (ANSI)
100
AcDbLine
 10
141.0736040939435
 20
242.0777645469545
 30
0.0
 11
141.0736040939435
 21
246.0777645469546
 31
0.0
  0
LINE
  5
37F
330
6C
100
AcDbEntity
  8
Visible (ANSI)
100
AcDbLine
 10
137.5736040939435
 20
242.0777645469556
 30
0.0
 11
137.5736040939435
 21
246.0777645469556
 31
0.0
  0
LINE
  5
380
330
6C
100
AcDbEntity
  8
Visible (ANSI)
100
AcDbLine
 10
135.2611040939439
 20
243.3277645469563
 30
0.0
 11
135.2611040939455
 21
248.8277645469562
 31
0.0
  0
LINE
  5
381
330
6C
100
AcDbEntity
  8
Visible (ANSI)
100
AcDbLine
 10
143.5736040939439
 20
243.5152645469538
 30
0.0
 11
143.5736040939455
 21
248.6402645469538
 31
0.0
  0
LINE
  5
382
330
6C
100
AcDbEntity
  8
Visible (ANSI)
100
AcDbLine
 10
154.1986040939442
 20
244.7652645469506
 30
0.0
 11
154.198604093945
 21
247.3902645469506
 31
0.0
  0
ARC
  5
383
330
6C
100
AcDbEntity
  8
Visible (ANSI)
100
AcDbCircle
 10
139.3236040939435
 20
242.077764546955
 30
0.0
 40
1.749999999999997
100
AcDbArc
 50
180.0
 51
0.0
  0
LINE
  5
384
330
6C
100
AcDbEntity
  8
Visible (ANSI)
100
AcDbLine
 10
135.2611040939455
 20
248.8277645469562
 30
0.0
 11
137.5736040939455
 21
248.8277645469556
 31
0.0
  0
LINE
  5
385
330
6C
100
AcDbEntity
  8
Visible (ANSI)
100
AcDbLine
 10
135.2611040939439
 20
243.3277645469563
 30
0.0
 11
137.5736040939439
 21
243.3277645469555
 31
0.0
  0
LINE
  5
386
330
6C
100
AcDbEntity
  8
Visible (ANSI)
100
AcDbLine
 10
141.0736040939454
 20
248.6402645469545
 30
0.0
 11
143.5736040939454
 21
248.6402645469538
 31
0.0
  0
LINE
  5
387
330
6C
100
AcDbEntity
  8
Visible (ANSI)
100
AcDbLine
 10
141.0736040939439
 20
243.5152645469545
 30
0.0
 11
143.5736040939439
 21
243.5152645469538
 31
0.0
  0
LINE
  5
388
330
6C
100
AcDbEntity
  8
Visible (ANSI)
100
AcDbLine
 10
143.5736040939454
 20
248.6402645469538
 30
0.0
 11
144.0307108751321
 21
249.0973713281402
 31
0.0
  0
LINE
  5
389
330
6C
100
AcDbEntity
  8
Visible (ANSI)
100
AcDbLine
 10
143.5736040939439
 20
243.5152645469538
 30
0.0
 11
144.0307108751303
 21
243.0581577657671
 31
0.0
  0
ARC
  5
38A
330
6C
100
AcDbEntity
  8
Visible (ANSI)
100
AcDbCircle
 10
144.7378176563171
 20
243.7652645469534
 30
0.0
 40
1.00000000000004
100
AcDbArc
 50
224.999999999983
 51
269.999999999983
  0
ARC
  5
38B
330
6C
100
AcDbEntity
  8
Visible (ANSI)
100
AcDbCircle
 10
144.7378176563185
 20
248.3902645469534
 30
0.0
 40
1.000000000000038
100
AcDbArc
 50
89.99999999998298
 51
134.999999999983
  0
LINE
  5
38C
330
6C
100
AcDbEntity
  8
Visible (ANSI)
100
AcDbLine
 10
144.7378176563187
 20
249.3902645469534
 30
0.0
 11
152.1986040939456
 21
249.3902645469512
 31
0.0
  0
LINE
  5
38D
330
6C
100
AcDbEntity
  8
Visible (ANSI)
100
AcDbLine
 10
144.7378176563168
 20
242.7652645469535
 30
0.0
 11
152.1986040939436
 21
242.7652645469513
 31
0.0
  0
ARC
  5
38E
330
6C
100
AcDbEntity
  8
Visible (ANSI)
100
AcDbCircle
 10
152.1986040939443
 20
244.7652645469512
 30
0.0
 40
1.999999999999998
100
AcDbArc
 50
269.999999999983
 51
0.0
  0
ARC
  5
38F
330
6C
100
AcDbEntity
  8
Visible (ANSI)
100
AcDbCircle
 10
152.198604093945
 20
247.3902645469512
 30
0.0
 40
1.999999999999998
100
AcDbArc
 50
0.0
 51
89.99999999998298
  0
LINE
  5
390
330
6C
100
AcDbEntity
  8
Visible (ANSI)
100
AcDbLine
 10
141.5111040939448
 20
250.3277645469544
 30
0.0
 11
137.1361040939448
 21
250.3277645469557
 31
0.0
  0
LINE
  5
391
330
6C
100
AcDbEntity
  8
Visible (ANSI)
100
AcDbLine
 10
137.1361040939451
 20
251.3277645469557
 30
0.0
 11
141.511104093945
 21
251.3277645469544
 31
0.0
  0
LINE
  5
392
330
6C
100
AcDbEntity
  8
Visible (ANSI)
100
AcDbLine
 10
141.511104093945
 20
251.3277645469544
 30
0.0
 11
141.5111040939448
 21
250.3277645469544
 31
0.0
  0
LINE
  5
393
330
6C
100
AcDbEntity
  8
Visible (ANSI)
100
AcDbLine
 10
137.1361040939451
 20
251.3277645469557
 30
0.0
 11
137.1361040939448
 21
250.3277645469557
 31
0.0
  0
ARC
  5
394
330
6C
100
AcDbEntity
  8
Visible (ANSI)
100
AcDbCircle
 10
116.3236040939463
 20
246.0777645469619
 30
0.0
 40
2.249999999999997
100
AcDbArc
 50
89.99999999998307
 51
269.9999999999831
  0
LINE
  5
395
330
6C
100
AcDbEntity
  8
Visible (ANSI)
100
AcDbLine
 10
121.3236040939454
 20
248.3277645469604
 30
0.0
 11
135.2611040939454
 21
248.3277645469562
 31
0.0
  0
LINE
  5
396
330
6C
100
AcDbEntity
  8
Visible (ANSI)
100
AcDbLine
 10
121.3236040939441
 20
243.8277645469604
 30
0.0
 11
135.2611040939441
 21
243.8277645469562
 31
0.0
  0
LINE
  5
397
330
6C
100
AcDbEntity
  8
Visible (ANSI)
100
AcDbLine
 10
121.3236040939454
 20
248.3277645469604
 30
0.0
 11
116.3236040939469
 21
248.3277645469618
 31
0.0
  0
LINE
  5
398
330
6C
100
AcDbEntity
  8
Visible (ANSI)
100
AcDbLine
 10
116.3236040939456
 20
243.8277645469619
 30
0.0
 11
121.3236040939441
 21
243.8277645469604
 31
0.0
  0
LINE
  5
399
330
6C
100
AcDbEntity
  8
Visible (ANSI)
100
AcDbLine
 10
185.9486040939513
 20
259.0777645469414
 30
0.0
 11
186.5736040939513
 21
259.0777645469412
 31
0.0
  0
LINE
  5
39A
330
6C
100
AcDbEntity
  8
Visible (ANSI)
100
AcDbLine
 10
186.5736040939513
 20
259.0777645469412
 30
0.0
 11
186.5736040939752
 21
339.5777645469408
 31
0.0
  0
LINE
  5
39B
330
6C
100
AcDbEntity
  8
Visible (ANSI)
100
AcDbLine
 10
185.9486040939752
 20
339.577764546941
 30
0.0
 11
186.5736040939752
 21
339.5777645469408
 31
0.0
  0
LINE
  5
39C
330
6C
100
AcDbEntity
  8
Visible (ANSI)
100
AcDbLine
 10
85.44860409397788
 20
348.2027645469709
 30
0.0
 11
136.6986040939776
 21
348.2027645469557
 31
0.0
  0
LINE
  5
39D
330
6C
100
AcDbEntity
  8
Visible (ANSI)
100
AcDbLine
 10
141.9486040939776
 20
348.2027645469541
 30
0.0
 11
185.9486040939773
 21
348.2027645469411
 31
0.0
  0
LINE
  5
39E
330
6C
100
AcDbEntity
  8
Visible (ANSI)
100
AcDbLine
 10
185.9486040939773
 20
348.2027645469411
 30
0.0
 11
185.9486040939455
 21
240.8277645469412
 31
0.0
  0
LINE
  5
39F
330
6C
100
AcDbEntity
  8
Visible (ANSI)
100
AcDbLine
 10
85.44860409394599
 20
240.8277645469711
 30
0.0
 11
85.44860409397788
 21
348.2027645469709
 31
0.0
  0
LINE
  5
3A0
330
6C
100
AcDbEntity
  8
Visible (ANSI)
100
AcDbLine
 10
86.19860409397469
 20
337.4527645469707
 30
0.0
 11
123.4486040939745
 21
337.4527645469596
 31
0.0
  0
LINE
  5
3A1
330
6C
100
AcDbEntity
  8
Visible (ANSI)
100
AcDbLine
 10
86.1986040939656
 20
306.8277645469708
 30
0.0
 11
86.19860409397469
 21
337.4527645469707
 31
0.0
  0
LINE
  5
3A2
330
6C
100
AcDbEntity
  8
Visible (ANSI)
100
AcDbLine
 10
123.4486040939654
 20
306.8277645469597
 30
0.0
 11
86.1986040939656
 21
306.8277645469708
 31
0.0
  0
LINE
  5
3A3
330
6C
100
AcDbEntity
  8
Visible (ANSI)
100
AcDbLine
 10
123.4486040939745
 20
337.4527645469596
 30
0.0
 11
123.4486040939654
 21
306.8277645469597
 31
0.0
  0
LINE
  5
3A4
330
6C
100
AcDbEntity
  8
Visible (ANSI)
100
AcDbLine
 10
86.19860409395151
 20
259.3277645469708
 30
0.0
 11
137.5736040939512
 21
259.3277645469556
 31
0.0
  0
LINE
  5
3A5
330
6C
100
AcDbEntity
  8
Visible (ANSI)
100
AcDbLine
 10
141.0736040939512
 20
259.3277645469545
 30
0.0
 11
185.1986040939509
 21
259.3277645469414
 31
0.0
  0
LINE
  5
3A6
330
6C
100
AcDbEntity
  8
Visible (ANSI)
100
AcDbLine
 10
86.198604093946
 20
240.8277645469708
 30
0.0
 11
86.19860409395151
 21
259.3277645469708
 31
0.0
  0
LINE
  5
3A7
330
6C
100
AcDbEntity
  8
Visible (ANSI)
100
AcDbLine
 10
185.1986040939509
 20
259.3277645469414
 30
0.0
 11
185.1986040939454
 21
240.8277645469415
 31
0.0
  0
LINE
  5
3A8
330
6C
100
AcDbEntity
  8
Visible (ANSI)
100
AcDbLine
 10
174.8236040939515
 20
260.8277645469446
 30
0.0
 11
141.0736040939516
 21
260.8277645469545
 31
0.0
  0
LINE
  5
3A9
330
6C
100
AcDbEntity
  8
Visible (ANSI)
100
AcDbLine
 10
174.8236040939742
 20
337.4527645469444
 30
0.0
 11
174.8236040939515
 21
260.8277645469446
 31
0.0
  0
LINE
  5
3AA
330
6C
100
AcDbEntity
  8
Visible (ANSI)
100
AcDbLine
 10
141.5736040939744
 20
337.4527645469543
 30
0.0
 11
174.8236040939742
 21
337.4527645469444
 31
0.0
  0
LINE
  5
3AB
330
6C
100
AcDbEntity
  8
Visible (ANSI)
100
AcDbLine
 10
185.1986040939746
 20
338.9527645469414
 30
0.0
 11
141.5736040939748
 21
338.9527645469544
 31
0.0
  0
LINE
  5
3AC
330
6C
100
AcDbEntity
  8
Visible (ANSI)
100
AcDbLine
 10
137.0736040939748
 20
338.9527645469556
 30
0.0
 11
86.19860409397514
 21
338.9527645469708
 31
0.0
  0
LINE
  5
3AD
330
6C
100
AcDbEntity
  8
Visible (ANSI)
100
AcDbLine
 10
185.1986040939771
 20
347.4527645469414
 30
0.0
 11
185.1986040939746
 21
338.9527645469414
 31
0.0
  0
LINE
  5
3AE
330
6C
100
AcDbEntity
  8
Visible (ANSI)
100
AcDbLine
 10
86.19860409397764
 20
347.4527645469708
 30
0.0
 11
136.6986040939774
 21
347.4527645469557
 31
0.0
  0
LINE
  5
3AF
330
6C
100
AcDbEntity
  8
Visible (ANSI)
100
AcDbLine
 10
141.9486040939773
 20
347.4527645469542
 30
0.0
 11
185.1986040939771
 21
347.4527645469414
 31
0.0
  0
LINE
  5
3B0
330
6C
100
AcDbEntity
  8
Visible (ANSI)
100
AcDbLine
 10
86.19860409397514
 20
338.9527645469708
 30
0.0
 11
86.19860409397764
 21
347.4527645469708
 31
0.0
  0
LINE
  5
3B1
330
6C
100
AcDbEntity
  8
Visible (ANSI)
100
AcDbLine
 10
137.4486040939516
 20
260.8277645469556
 30
0.0
 11
124.9486040939517
 21
260.8277645469593
 31
0.0
  0
LINE
  5
3B2
330
6C
100
AcDbEntity
  8
Visible (ANSI)
100
AcDbLine
 10
137.4486040939588
 20
284.8277645469556
 30
0.0
 11
137.4486040939516
 21
260.8277645469556
 31
0.0
  0
LINE
  5
3B3
330
6C
100
AcDbEntity
  8
Visible (ANSI)
100
AcDbLine
 10
124.9486040939745
 20
337.4527645469592
 30
0.0
 11
137.0736040939744
 21
337.4527645469556
 31
0.0
  0
LINE
  5
3B4
330
6C
100
AcDbEntity
  8
Visible (ANSI)
100
AcDbLine
 10
124.9486040939517
 20
260.8277645469593
 30
0.0
 11
124.9486040939745
 21
337.4527645469592
 31
0.0
  0
LINE
  5
3B5
330
6C
100
AcDbEntity
  8
Visible (ANSI)
100
AcDbLine
 10
176.3236040939742
 20
337.452764546944
 30
0.0
 11
185.1986040939742
 21
337.4527645469413
 31
0.0
  0
LINE
  5
3B6
330
6C
100
AcDbEntity
  8
Visible (ANSI)
100
AcDbLine
 10
176.3236040939514
 20
260.8277645469441
 30
0.0
 11
176.3236040939742
 21
337.452764546944
 31
0.0
  0
LINE
  5
3B7
330
6C
100
AcDbEntity
  8
Visible (ANSI)
100
AcDbLine
 10
185.1986040939514
 20
260.8277645469414
 30
0.0
 11
176.3236040939514
 21
260.8277645469441
 31
0.0
  0
LINE
  5
3B8
330
6C
100
AcDbEntity
  8
Visible (ANSI)
100
AcDbLine
 10
185.1986040939742
 20
337.4527645469413
 30
0.0
 11
185.1986040939514
 21
260.8277645469414
 31
0.0
  0
LINE
  5
3B9
330
6C
100
AcDbEntity
  8
Visible (ANSI)
100
AcDbLine
 10
86.19860409396514
 20
305.3277645469707
 30
0.0
 11
98.94860409396509
 21
305.327764546967
 31
0.0
  0
LINE
  5
3BA
330
6C
100
AcDbEntity
  8
Visible (ANSI)
100
AcDbLine
 10
86.19860409395196
 20
260.8277645469708
 30
0.0
 11
86.19860409396514
 21
305.3277645469707
 31
0.0
  0
LINE
  5
3BB
330
6C
100
AcDbEntity
  8
Visible (ANSI)
100
AcDbLine
 10
98.94860409395187
 20
260.827764546967
 30
0.0
 11
86.19860409395196
 21
260.8277645469708
 31
0.0
  0
LINE
  5
3BC
330
6C
100
AcDbEntity
  8
Visible (ANSI)
100
AcDbLine
 10
98.94860409396509
 20
305.327764546967
 30
0.0
 11
98.94860409395187
 21
260.827764546967
 31
0.0
  0
LINE
  5
3BD
330
6C
100
AcDbEntity
  8
Visible (ANSI)
100
AcDbLine
 10
124.1986040939515
 20
260.0777645469595
 30
0.0
 11
99.69860409395165
 21
260.0777645469668
 31
0.0
  0
LINE
  5
3BE
330
6C
100
AcDbEntity
  8
Visible (ANSI)
100
AcDbLine
 10
124.1986040939651
 20
306.0777645469595
 30
0.0
 11
124.1986040939515
 21
260.0777645469595
 31
0.0
  0
LINE
  5
3BF
330
6C
100
AcDbEntity
  8
Visible (ANSI)
100
AcDbLine
 10
99.69860409396531
 20
306.0777645469668
 30
0.0
 11
124.1986040939651
 21
306.0777645469595
 31
0.0
  0
LINE
  5
3C0
330
6C
100
AcDbEntity
  8
Visible (ANSI)
100
AcDbLine
 10
99.69860409395165
 20
260.0777645469668
 30
0.0
 11
99.69860409396531
 21
306.0777645469668
 31
0.0
  0
LINE
  5
3C1
330
6C
100
AcDbEntity
  8
Visible (ANSI)
100
AcDbLine
 10
186.5736040939452
 20
240.827764546941
 30
0.0
 11
140.5483489653371
 21
240.8277645469547
 31
0.0
  0
LINE
  5
3C2
330
6C
100
AcDbEntity
  8
Visible (ANSI)
100
AcDbLine
 10
138.0988592225539
 20
240.8277645469554
 30
0.0
 11
84.82360409394582
 21
240.8277645469712
 31
0.0
  0
LINE
  5
3C3
330
6C
100
AcDbEntity
  8
Visible (ANSI)
100
AcDbLine
 10
84.82360409394559
 20
240.0777645469712
 30
0.0
 11
84.82360409394582
 21
240.8277645469712
 31
0.0
  0
LINE
  5
3C4
330
6C
100
AcDbEntity
  8
Visible (ANSI)
100
AcDbLine
 10
84.82360409394559
 20
240.0777645469712
 30
0.0
 11
186.5736040939451
 21
240.077764546941
 31
0.0
  0
LINE
  5
3C5
330
6C
100
AcDbEntity
  8
Visible (ANSI)
100
AcDbLine
 10
186.5736040939451
 20
240.077764546941
 30
0.0
 11
186.5736040939452
 21
240.827764546941
 31
0.0
  0
LINE
  5
3C6
330
6C
100
AcDbEntity
  8
Visible (ANSI)
100
AcDbLine
 10
137.5736040939526
 20
268.2505459211941
 30
0.0
 11
137.5736040939571
 21
283.3277645469555
 31
0.0
  0
LINE
  5
3C7
330
6C
100
AcDbEntity
  8
Visible (ANSI)
100
AcDbLine
 10
141.0736040939526
 20
268.2505459211931
 30
0.0
 11
141.0736040939571
 21
283.3277645469545
 31
0.0
  0
LINE
  5
3C8
330
6C
100
AcDbEntity
  8
Visible (ANSI)
100
AcDbLine
 10
141.0736040939508
 20
264.0079052340738
 30
0.0
 11
141.0736040939526
 21
268.2505459211931
 31
0.0
  0
LINE
  5
3C9
330
6C
100
AcDbEntity
  8
Visible (ANSI)
100
AcDbLine
 10
137.5736040939526
 20
268.2505459211941
 30
0.0
 11
137.5736040939508
 21
264.0079052340748
 31
0.0
  0
LINE
  5
3CA
330
6C
100
AcDbEntity
  8
Visible (ANSI)
100
AcDbLine
 10
137.5736040939479
 20
259.0851238598363
 30
0.0
 11
137.5736040939508
 21
264.0079052340748
 31
0.0
  0
LINE
  5
3CB
330
6C
100
AcDbEntity
  8
Visible (ANSI)
100
AcDbLine
 10
141.0736040939479
 20
259.0851238598352
 30
0.0
 11
141.0736040939508
 21
264.0079052340738
 31
0.0
  0
LINE
  5
3CC
330
6C
100
AcDbEntity
  8
Visible (ANSI)
100
AcDbLine
 10
137.5736040939479
 20
259.0851238598363
 30
0.0
 11
137.5736040939461
 21
254.842483172717
 31
0.0
  0
LINE
  5
3CD
330
6C
100
AcDbEntity
  8
Visible (ANSI)
100
AcDbLine
 10
141.0736040939461
 20
254.842483172716
 30
0.0
 11
141.0736040939479
 21
259.0851238598353
 31
0.0
  0
LINE
  5
3CE
330
6C
100
AcDbEntity
  8
Visible (ANSI)
100
AcDbLine
 10
137.5736040939451
 20
251.3277645469556
 30
0.0
 11
137.5736040939461
 21
254.842483172717
 31
0.0
  0
LINE
  5
3CF
330
6C
100
AcDbEntity
  8
Visible (ANSI)
100
AcDbLine
 10
141.073604093945
 20
251.3277645469545
 30
0.0
 11
141.0736040939461
 21
254.842483172716
 31
0.0
  0
LINE
  5
3D0
330
6C
100
AcDbEntity
  8
Visible (ANSI)
100
AcDbLine
 10
141.0736040939448
 20
250.3277645469546
 30
0.0
 11
141.0736040939435
 21
246.0777645469546
 31
0.0
  0
LINE
  5
3D1
330
6C
100
AcDbEntity
  8
Visible (ANSI)
100
AcDbLine
 10
137.5736040939448
 20
250.3277645469556
 30
0.0
 11
137.5736040939435
 21
246.0777645469556
 31
0.0
  0
LINE
  5
3D2
330
6C
100
AcDbEntity
  8
Visible (ANSI)
100
AcDbLine
 10
144.8236040939775
 20
348.9527645469533
 30
0.0
 11
141.9486040939778
 21
348.9527645469542
 31
0.0
  0
LINE
  5
3D3
330
6C
100
AcDbEntity
  8
Visible (ANSI)
100
AcDbLine
 10
144.8236040939949
 20
407.5777645469534
 30
0.0
 11
144.8236040939775
 21
348.9527645469533
 31
0.0
  0
LINE
  5
3D4
330
6C
100
AcDbEntity
  8
Visible (ANSI)
100
AcDbLine
 10
142.636104093995
 20
407.577764546954
 30
0.0
 11
144.8236040939949
 21
407.5777645469534
 31
0.0
  0
LINE
  5
3D5
330
6C
100
AcDbEntity
  8
Visible (ANSI)
100
AcDbLine
 10
185.1986040939775
 20
348.9527645469413
 30
0.0
 11
145.5736040939775
 21
348.952764546953
 31
0.0
  0
LINE
  5
3D6
330
6C
100
AcDbEntity
  8
Visible (ANSI)
100
AcDbLine
 10
185.1986040939788
 20
353.2027645469414
 30
0.0
 11
185.1986040939775
 21
348.9527645469413
 31
0.0
  0
LINE
  5
3D7
330
6C
100
AcDbEntity
  8
Visible (ANSI)
100
AcDbLine
 10
145.5736040939787
 20
353.2027645469531
 30
0.0
 11
185.1986040939788
 21
353.2027645469414
 31
0.0
  0
LINE
  5
3D8
330
6C
100
AcDbEntity
  8
Visible (ANSI)
100
AcDbLine
 10
145.5736040939775
 20
348.952764546953
 30
0.0
 11
145.5736040939787
 21
353.2027645469531
 31
0.0
  0
LINE
  5
3D9
330
6C
100
AcDbEntity
  8
Visible (ANSI)
100
AcDbLine
 10
142.6361040939928
 20
404.3277645469538
 30
0.0
 11
136.0111040939928
 21
404.3277645469558
 31
0.0
  0
LINE
  5
3DA
330
6C
100
AcDbEntity
  8
Visible (ANSI)
100
AcDbLine
 10
137.073604093991
 20
398.3277645469556
 30
0.0
 11
141.573604093991
 21
398.3277645469542
 31
0.0
  0
LINE
  5
3DB
330
6C
100
AcDbEntity
  8
Visible (ANSI)
100
AcDbLine
 10
137.073604093991
 20
398.3277645469556
 30
0.0
 11
136.0111040939928
 21
404.3277645469558
 31
0.0
  0
LINE
  5
3DC
330
6C
100
AcDbEntity
  8
Visible (ANSI)
100
AcDbLine
 10
141.573604093991
 20
398.3277645469542
 30
0.0
 11
142.6361040939928
 21
404.3277645469538
 31
0.0
  0
LINE
  5
3DD
330
6C
100
AcDbEntity
  8
Visible (ANSI)
100
AcDbLine
 10
184.0736040939926
 20
408.3277645469416
 30
0.0
 11
184.0736040939926
 21
410.3277645469416
 31
0.0
  0
LINE
  5
3DE
330
6C
100
AcDbEntity
  8
Visible (ANSI)
100
AcDbLine
 10
184.0736040939926
 20
410.3277645469416
 30
0.0
 11
135.0736040939927
 21
410.3277645469561
 31
0.0
  0
LINE
  5
3DF
330
6C
100
AcDbEntity
  8
Visible (ANSI)
100
AcDbLine
 10
135.0736040939927
 20
410.3277645469561
 30
0.0
 11
135.0736040939927
 21
408.3277645469562
 31
0.0
  0
LINE
  5
3E0
330
6C
100
AcDbEntity
  8
Visible (ANSI)
100
AcDbLine
 10
135.0736040939927
 20
408.3277645469562
 30
0.0
 11
184.0736040939926
 21
408.3277645469416
 31
0.0
  0
LINE
  5
3E1
330
6C
100
AcDbEntity
  8
Visible (ANSI)
100
AcDbLine
 10
135.0736040939945
 20
416.3277645469561
 30
0.0
 11
135.0736040939927
 21
410.3277645469561
 31
0.0
  0
LINE
  5
3E2
330
6C
100
AcDbEntity
  8
Visible (ANSI)
100
AcDbLine
 10
184.0736040939944
 20
416.3277645469417
 30
0.0
 11
184.0736040939926
 21
410.3277645469416
 31
0.0
  0
LINE
  5
3E3
330
6C
100
AcDbEntity
  8
Visible (ANSI)
100
AcDbLine
 10
135.0736040939945
 20
416.3277645469561
 30
0.0
 11
184.0736040939944
 21
416.3277645469416
 31
0.0
  0
LINE
  5
3E4
330
6C
100
AcDbEntity
  8
Visible (ANSI)
100
AcDbLine
 10
141.9486040939776
 20
348.2027645469542
 30
0.0
 11
185.9486040939773
 21
348.2027645469411
 31
0.0
  0
LINE
  5
3E5
330
6C
100
AcDbEntity
  8
Visible (ANSI)
100
AcDbLine
 10
185.9486040939773
 20
348.2027645469411
 30
0.0
 11
185.9486040939975
 21
416.3277645469411
 31
0.0
  0
LINE
  5
3E6
330
6C
100
AcDbEntity
  8
Visible (ANSI)
100
AcDbLine
 10
185.9486040939975
 20
416.3277645469411
 30
0.0
 11
184.0736040939975
 21
416.3277645469417
 31
0.0
  0
CIRCLE
  5
3E7
330
6C
100
AcDbEntity
  8
Visible (ANSI)
100
AcDbCircle
 10
165.4486040939767
 20
360.3277645469471
 30
0.0
 40
2.250000000000002
  0
CIRCLE
  5
3E8
330
6C
100
AcDbEntity
  8
Visible (ANSI)
100
AcDbCircle
 10
165.4486040939893
 20
402.8277645469471
 30
0.0
 40
2.250000000000002
  0
LINE
  5
3E9
330
6C
100
AcDbEntity
  8
Visible (ANSI)
100
AcDbLine
 10
137.0736040939773
 20
352.2027645469557
 30
0.0
 11
137.073604093991
 21
398.3277645469556
 31
0.0
  0
LINE
  5
3EA
330
6C
100
AcDbEntity
  8
Visible (ANSI)
100
AcDbLine
 10
141.5736040939773
 20
352.2027645469544
 30
0.0
 11
141.573604093991
 21
398.3277645469542
 31
0.0
  0
LINE
  5
3EB
330
6C
100
AcDbEntity
  8
Visible (ANSI)
100
AcDbLine
 10
142.636104093994
 20
408.3277645469538
 30
0.0
 11
142.6361040939928
 21
404.3277645469538
 31
0.0
  0
LINE
  5
3EC
330
6C
100
AcDbEntity
  8
Visible (ANSI)
100
AcDbLine
 10
136.011104093994
 20
408.3277645469558
 30
0.0
 11
136.0111040939928
 21
404.3277645469558
 31
0.0
  0
LINE
  5
3ED
330
6C
100
AcDbEntity
  8
Visible (ANSI)
100
AcDbLine
 10
137.0736040939797
 20
355.9527645469556
 30
0.0
 11
84.94860409397956
 21
355.9527645469711
 31
0.0
  0
LINE
  5
3EE
330
6C
100
AcDbEntity
  8
Visible (ANSI)
100
AcDbLine
 10
84.94860409397956
 20
355.9527645469711
 30
0.0
 11
84.94860409399223
 21
398.5777645469711
 31
0.0
  0
LINE
  5
3EF
330
6C
100
AcDbEntity
  8
Visible (ANSI)
100
AcDbLine
 10
84.94860409399223
 20
398.5777645469711
 30
0.0
 11
137.029333260659
 21
398.5777645469556
 31
0.0
  0
LINE
  5
3F0
330
6C
100
AcDbEntity
  8
Visible (ANSI)
100
AcDbLine
 10
136.6986040939778
 20
348.9527645469558
 30
0.0
 11
84.9486040939775
 21
348.9527645469711
 31
0.0
  0
LINE
  5
3F1
330
6C
100
AcDbEntity
  8
Visible (ANSI)
100
AcDbLine
 10
84.9486040939775
 20
348.9527645469711
 30
0.0
 11
84.94860409397913
 21
354.4527645469711
 31
0.0
  0
LINE
  5
3F2
330
6C
100
AcDbEntity
  8
Visible (ANSI)
100
AcDbLine
 10
84.94860409397913
 20
354.4527645469711
 30
0.0
 11
137.0736040939792
 21
354.4527645469556
 31
0.0
  0
LINE
  5
3F3
330
6C
100
AcDbEntity
  8
Visible (ANSI)
100
AcDbLine
 10
118.5080420088073
 20
422.2475283131916
 30
0.0
 11
118.5323702039263
 21
422.3884422745299
 31
0.0
  0
SPLINE
  5
3F4
330
6C
100
AcDbEntity
  8
Visible (ANSI)
100
AcDbSpline
210
0.0
220
0.0
230
1.0
 70
     8
 71
     3
 72
    10
 73
     6
 74
     0
 42
0.0000000001
 43
0.0000000001
 40
-0.1250028004332357
 40
-0.1250028004332357
 40
-0.1250028004332357
 40
-0.1250028004332357
 40
-0.1218855853352692
 40
-0.1218855853352692
 40
-0.0455840251923431
 40
-0.0455840251923431
 40
-0.0455840251923431
 40
-0.0455840251923431
 10
118.5084616681026
 20
422.215801097372
 30
0.0
 10
118.508453916724
 20
422.2162017243886
 30
0.0
 10
118.5084462416949
 20
422.2166032120701
 30
0.0
 10
118.5082527012057
 20
422.226853173155
 30
0.0
 10
118.5081151369373
 20
422.2372205822898
 30
0.0
 10
118.5080420088073
 20
422.2475283131917
 30
0.0
  0
LINE
  5
3F5
330
6C
100
AcDbEntity
  8
Visible (ANSI)
100
AcDbLine
 10
146.3861040940082
 20
417.4527645469528
 30
0.0
 11
146.3968152233494
 21
417.5777645469528
 31
0.0
  0
LINE
  5
3F6
330
6C
100
AcDbEntity
  8
Visible (ANSI)
100
AcDbLine
 10
146.3861040940082
 20
417.4527645469529
 30
0.0
 11
146.3753929646671
 21
417.3277645469528
 31
0.0
  0
LINE
  5
3F7
330
6C
100
AcDbEntity
  8
Visible (ANSI)
100
AcDbLine
 10
147.8861040940082
 20
417.3277645469523
 30
0.0
 11
147.8861040940083
 21
417.5777645469524
 31
0.0
  0
ELLIPSE
  5
3F8
330
6C
100
AcDbEntity
  8
Visible (ANSI)
100
AcDbEllipse
 10
117.7788710469755
 20
422.2652645469612
 30
0.0
 11
-0.029648806605617
 21
-0.1214328961478458
 31
0.0
210
0.0
220
0.0
230
1.0
 40
0.6967984516405971
 41
5.413065670359249
 42
6.283185307179576
  0
ELLIPSE
  5
3F9
330
6C
100
AcDbEntity
  8
Visible (ANSI)
100
AcDbEllipse
 10
117.7788710469755
 20
422.2652645469613
 30
0.0
 11
0.0296488066056341
 21
0.1214328961478777
 31
0.0
210
0.0
220
0.0
230
1.0
 40
0.6967984516406395
 41
0.0000000000000307
 42
1.883802957521296
  0
SPLINE
  5
3FA
330
6C
100
AcDbEntity
  8
Visible (ANSI)
100
AcDbSpline
210
0.0
220
0.0
230
1.0
 70
     8
 71
     3
 72
    10
 73
     6
 74
     0
 42
0.0000000001
 43
0.0000000001
 40
-0.1597689612252813
 40
-0.1597689612252813
 40
-0.1597689612252813
 40
-0.1597689612252813
 40
-0.1218855853352676
 40
-0.1218855853352676
 40
-0.0455840251922905
 40
-0.0455840251922905
 40
-0.0455840251922905
 40
-0.0455840251922905
 10
117.7004503492635
 20
422.2027645469613
 30
0.0
 10
117.6985547304571
 20
422.2073490361261
 30
0.0
 10
117.6968548722802
 20
422.2121162152094
 30
0.0
 10
117.6924005102996
 20
422.2268531731554
 30
0.0
 10
117.6903340549164
 20
422.23722058229
 30
0.0
 10
117.68923854718
 20
422.2475283131919
 30
0.0
  0
ELLIPSE
  5
3FB
330
6C
100
AcDbEntity
  8
Visible (ANSI)
100
AcDbEllipse
 10
137.4894725725433
 20
417.4527645469554
 30
0.0
 11
-0.0149856337786189
 21
-0.1245565523693711
 31
0.0
210
0.0
220
0.0
230
0.9999999999999998
 40
0.701989381573394
 41
3.225850360498814
 42
4.796646687293857
  0
ELLIPSE
  5
3FC
330
6C
100
AcDbEntity
  8
Visible (ANSI)
100
AcDbEllipse
 10
137.4894725725433
 20
417.4527645469554
 30
0.0
 11
-0.0149856337785901
 21
-0.1245565523693763
 31
0.0
210
0.0
220
0.0
230
1.0
 40
0.7019893815733944
 41
4.796646687292573
 42
6.367443014088324
  0
ELLIPSE
  5
3FD
330
6C
100
AcDbEntity
  8
Visible (ANSI)
100
AcDbEllipse
 10
138.5501327443228
 20
417.4527645469551
 30
0.0
 11
0.0000000000000371
 21
0.125
 31
0.0
210
0.0
220
0.0
230
1.0
 40
0.7071067811867576
 41
0.0
 42
6.283185307179586
  0
ELLIPSE
  5
3FE
330
6C
100
AcDbEntity
  8
Visible (ANSI)
100
AcDbEllipse
 10
116.011104094009
 20
422.2652645469619
 30
0.0
 11
0.1249999999999947
 21
-0.0000000000000483
 31
0.0
210
0.0
220
0.0
230
1.0
 40
0.9854218205504682
 41
0.0
 42
3.141592653589567
  0
CIRCLE
  5
3FF
330
6C
100
AcDbEntity
  8
Visible (ANSI)
100
AcDbCircle
 10
116.0111040939988
 20
417.4527645469618
 30
0.0
 40
0.125
  0
ELLIPSE
  5
400
330
6C
100
AcDbEntity
  8
Visible (ANSI)
100
AcDbEllipse
 10
114.2433371410428
 20
422.2652645469623
 30
0.0
 11
0.0296488066055854
 21
-0.1214328961479289
 31
0.0
210
0.0
220
0.0
230
1.0
 40
0.6967984516402349
 41
0.0
 42
0.87011963681908
  0
ELLIPSE
  5
401
330
6C
100
AcDbEntity
  8
Visible (ANSI)
100
AcDbEllipse
 10
114.2433371410428
 20
422.2652645469623
 30
0.0
 11
-0.0296488066055462
 21
0.1214328961478926
 31
0.0
210
0.0
220
0.0
230
1.0
 40
0.6967984516402316
 41
4.39938234965831
 42
6.283185307179737
  0
SPLINE
  5
402
330
6C
100
AcDbEntity
  8
Visible (ANSI)
100
AcDbSpline
210
0.0
220
0.0
230
1.0
 70
     8
 71
     3
 72
    10
 73
     6
 74
     0
 42
0.0000000001
 43
0.0000000001
 40
1.007858426954856
 40
1.007858426954856
 40
1.007858426954856
 40
1.007858426954856
 40
1.08415998709778
 40
1.08415998709778
 40
1.122043362987826
 40
1.122043362987826
 40
1.122043362987826
 40
1.122043362987826
 10
114.3329696408382
 20
422.2475283131929
 30
0.0
 10
114.3318741331018
 20
422.237220582291
 30
0.0
 10
114.3298076777186
 20
422.2268531731563
 30
0.0
 10
114.325353315738
 20
422.2121162152105
 30
0.0
 10
114.3236534575611
 20
422.2073490361271
 30
0.0
 10
114.3217578387548
 20
422.2027645469624
 30
0.0
  0
ELLIPSE
  5
403
330
6C
100
AcDbEntity
  8
Visible (ANSI)
100
AcDbEllipse
 10
94.53273561546053
 20
417.4527645469682
 30
0.0
 11
0.0149856337785364
 21
-0.1245565523693809
 31
0.0
210
0.0
220
0.0
230
1.0
 40
0.7019893815729774
 41
1.486538619886246
 42
3.057334946680822
  0
ELLIPSE
  5
404
330
6C
100
AcDbEntity
  8
Visible (ANSI)
100
AcDbEllipse
 10
94.53273561546053
 20
417.4527645469682
 30
0.0
 11
0.0149856337785076
 21
-0.1245565523693862
 31
0.0
210
0.0
220
0.0
230
1.0
 40
0.701989381572977
 41
6.198927600270945
 42
7.769723927066556
  0
ELLIPSE
  5
405
330
6C
100
AcDbEntity
  8
Visible (ANSI)
100
AcDbEllipse
 10
93.47207544368039
 20
417.4527645469685
 30
0.0
 11
0.0000000000000371
 21
0.125
 31
0.0
210
0.0
220
0.0
230
1.0
 40
0.7071067811863375
 41
0.0
 42
6.283185307179586
  0
LINE
  5
406
330
6C
100
AcDbEntity
  8
Visible (ANSI)
100
AcDbLine
 10
146.3753929646671
 20
417.3277645469528
 30
0.0
 11
142.9166298872742
 21
417.9249052576248
 31
0.0
  0
LINE
  5
407
330
6C
100
AcDbEntity
  8
Visible (ANSI)
100
AcDbLine
 10
141.4685779392224
 20
418.1749052576252
 30
0.0
 11
138.6230062405905
 21
418.6661810890043
 31
0.0
  0
LINE
  5
408
330
6C
100
AcDbEntity
  8
Visible (ANSI)
100
AcDbLine
 10
137.1749542925386
 20
418.9161810890047
 30
0.0
 11
134.3293825939065
 21
419.4074569203838
 31
0.0
  0
LINE
  5
409
330
6C
100
AcDbEntity
  8
Visible (ANSI)
100
AcDbLine
 10
132.8813306458547
 20
419.6574569203842
 30
0.0
 11
130.0357589472225
 21
420.1487327517632
 31
0.0
  0
LINE
  5
40A
330
6C
100
AcDbEntity
  8
Visible (ANSI)
100
AcDbLine
 10
128.5877069991707
 20
420.3987327517636
 30
0.0
 11
125.7421353005386
 21
420.8900085831428
 31
0.0
  0
LINE
  5
40B
330
6C
100
AcDbEntity
  8
Visible (ANSI)
100
AcDbLine
 10
124.2940833524867
 20
421.1400085831431
 30
0.0
 11
121.4485116538546
 21
421.6312844145222
 31
0.0
  0
LINE
  5
40C
330
6C
100
AcDbEntity
  8
Visible (ANSI)
100
AcDbLine
 10
120.0004597058027
 20
421.8812844145226
 30
0.0
 11
119.584216009022
 21
421.9531471155365
 31
0.0
  0
LINE
  5
40D
330
6C
100
AcDbEntity
  8
Visible (ANSI)
100
AcDbLine
 10
146.3968152233494
 20
417.5777645469528
 30
0.0
 11
144.3861040940084
 21
417.9249052576244
 31
0.0
  0
LINE
  5
40E
330
6C
100
AcDbEntity
  8
Visible (ANSI)
100
AcDbLine
 10
142.9380521459566
 20
418.1749052576249
 30
0.0
 11
140.0924804473247
 21
418.6661810890038
 31
0.0
  0
LINE
  5
40F
330
6C
100
AcDbEntity
  8
Visible (ANSI)
100
AcDbLine
 10
138.6444284992729
 20
418.9161810890042
 30
0.0
 11
135.7988568006408
 21
419.4074569203833
 31
0.0
  0
LINE
  5
410
330
6C
100
AcDbEntity
  8
Visible (ANSI)
100
AcDbLine
 10
134.3508048525889
 20
419.6574569203837
 30
0.0
 11
131.5052331539568
 21
420.1487327517628
 31
0.0
  0
LINE
  5
411
330
6C
100
AcDbEntity
  8
Visible (ANSI)
100
AcDbLine
 10
130.0571812059049
 20
420.3987327517633
 30
0.0
 11
127.2116095072728
 21
420.8900085831423
 31
0.0
  0
LINE
  5
412
330
6C
100
AcDbEntity
  8
Visible (ANSI)
100
AcDbLine
 10
125.7635575592209
 20
421.1400085831427
 30
0.0
 11
122.9179858605888
 21
421.6312844145218
 31
0.0
  0
LINE
  5
413
330
6C
100
AcDbEntity
  8
Visible (ANSI)
100
AcDbLine
 10
121.4699339125369
 20
421.8812844145222
 30
0.0
 11
118.5323702039263
 21
422.3884422745299
 31
0.0
  0
LINE
  5
414
330
6C
100
AcDbEntity
  8
Visible (ANSI)
100
AcDbLine
 10
147.8861040940083
 20
417.5777645469524
 30
0.0
 11
146.3968152233494
 21
417.5777645469528
 31
0.0
  0
LINE
  5
415
330
6C
100
AcDbEntity
  8
Visible (ANSI)
100
AcDbLine
 10
137.4671815426781
 20
417.3295351911451
 30
0.0
 11
135.0287187602023
 21
417.9249052576271
 31
0.0
  0
LINE
  5
416
330
6C
100
AcDbEntity
  8
Visible (ANSI)
100
AcDbLine
 10
134.0047914082248
 20
418.1749052576274
 30
0.0
 11
131.9926683637703
 21
418.6661810890062
 31
0.0
  0
LINE
  5
417
330
6C
100
AcDbEntity
  8
Visible (ANSI)
100
AcDbLine
 10
130.9687410117928
 20
418.9161810890066
 30
0.0
 11
128.9566179673381
 21
419.4074569203853
 31
0.0
  0
LINE
  5
418
330
6C
100
AcDbEntity
  8
Visible (ANSI)
100
AcDbLine
 10
127.9326906153606
 20
419.6574569203857
 30
0.0
 11
125.9205675709059
 21
420.1487327517645
 31
0.0
  0
LINE
  5
419
330
6C
100
AcDbEntity
  8
Visible (ANSI)
100
AcDbLine
 10
124.8966402189284
 20
420.3987327517648
 30
0.0
 11
122.8845171744737
 21
420.8900085831436
 31
0.0
  0
LINE
  5
41A
330
6C
100
AcDbEntity
  8
Visible (ANSI)
100
AcDbLine
 10
121.8605898224962
 20
421.1400085831439
 30
0.0
 11
119.8484667780415
 21
421.6312844145226
 31
0.0
  0
LINE
  5
41B
330
6C
100
AcDbEntity
  8
Visible (ANSI)
100
AcDbLine
 10
118.824539426064
 20
421.8812844145229
 30
0.0
 11
117.7492222403699
 21
422.1438316508134
 31
0.0
  0
LINE
  5
41C
330
6C
100
AcDbEntity
  8
Visible (ANSI)
100
AcDbLine
 10
137.5045115583428
 20
417.5777645469555
 30
0.0
 11
136.082724083779
 21
417.9249052576269
 31
0.0
  0
LINE
  5
41D
330
6C
100
AcDbEntity
  8
Visible (ANSI)
100
AcDbLine
 10
135.0587967318015
 20
418.1749052576272
 30
0.0
 11
133.046673687347
 21
418.6661810890059
 31
0.0
  0
LINE
  5
41E
330
6C
100
AcDbEntity
  8
Visible (ANSI)
100
AcDbLine
 10
132.0227463353695
 20
418.9161810890062
 30
0.0
 11
130.0106232909148
 21
419.407456920385
 31
0.0
  0
LINE
  5
41F
330
6C
100
AcDbEntity
  8
Visible (ANSI)
100
AcDbLine
 10
128.9866959389373
 20
419.6574569203853
 30
0.0
 11
126.9745728944826
 21
420.1487327517641
 31
0.0
  0
LINE
  5
420
330
6C
100
AcDbEntity
  8
Visible (ANSI)
100
AcDbLine
 10
125.9506455425051
 20
420.3987327517644
 30
0.0
 11
123.9385224980505
 21
420.8900085831432
 31
0.0
  0
LINE
  5
421
330
6C
100
AcDbEntity
  8
Visible (ANSI)
100
AcDbLine
 10
122.9145951460729
 20
421.1400085831435
 30
0.0
 11
120.9024721016183
 21
421.6312844145224
 31
0.0
  0
LINE
  5
422
330
6C
100
AcDbEntity
  8
Visible (ANSI)
100
AcDbLine
 10
119.8785447496407
 20
421.8812844145226
 30
0.0
 11
117.8085198535812
 21
422.3866974431092
 31
0.0
  0
LINE
  5
423
330
6C
100
AcDbEntity
  8
Visible (ANSI)
100
AcDbLine
 10
138.5501327443228
 20
417.577764546955
 30
0.0
 11
137.4970464847346
 21
417.5777645469555
 31
0.0
  0
LINE
  5
424
330
6C
100
AcDbEntity
  8
Visible (ANSI)
100
AcDbLine
 10
115.8861040939992
 20
417.4527645469618
 30
0.0
 11
115.8861040940002
 21
417.9249052576329
 31
0.0
  0
LINE
  5
425
330
6C
100
AcDbEntity
  8
Visible (ANSI)
100
AcDbLine
 10
115.8861040940007
 20
418.1749052576329
 30
0.0
 11
115.8861040940017
 21
418.6661810890109
 31
0.0
  0
LINE
  5
426
330
6C
100
AcDbEntity
  8
Visible (ANSI)
100
AcDbLine
 10
115.8861040940022
 20
418.916181089011
 30
0.0
 11
115.8861040940032
 21
419.4074569203892
 31
0.0
  0
LINE
  5
427
330
6C
100
AcDbEntity
  8
Visible (ANSI)
100
AcDbLine
 10
115.8861040940037
 20
419.6574569203892
 30
0.0
 11
115.8861040940047
 21
420.1487327517674
 31
0.0
  0
LINE
  5
428
330
6C
100
AcDbEntity
  8
Visible (ANSI)
100
AcDbLine
 10
115.8861040940052
 20
420.3987327517674
 30
0.0
 11
115.8861040940062
 21
420.8900085831457
 31
0.0
  0
LINE
  5
429
330
6C
100
AcDbEntity
  8
Visible (ANSI)
100
AcDbLine
 10
115.8861040940067
 20
421.1400085831456
 30
0.0
 11
115.8861040940077
 21
421.6312844145239
 31
0.0
  0
LINE
  5
42A
330
6C
100
AcDbEntity
  8
Visible (ANSI)
100
AcDbLine
 10
115.8861040940082
 20
421.8812844145238
 30
0.0
 11
115.8861040940089
 21
422.2652645469619
 31
0.0
  0
LINE
  5
42B
330
6C
100
AcDbEntity
  8
Visible (ANSI)
100
AcDbLine
 10
116.1361040939992
 20
417.4527645469618
 30
0.0
 11
116.1361040940002
 21
417.9249052576328
 31
0.0
  0
LINE
  5
42C
330
6C
100
AcDbEntity
  8
Visible (ANSI)
100
AcDbLine
 10
116.1361040940007
 20
418.1749052576328
 30
0.0
 11
116.1361040940017
 21
418.6661810890109
 31
0.0
  0
LINE
  5
42D
330
6C
100
AcDbEntity
  8
Visible (ANSI)
100
AcDbLine
 10
116.1361040940022
 20
418.916181089011
 30
0.0
 11
116.1361040940032
 21
419.4074569203892
 31
0.0
  0
LINE
  5
42E
330
6C
100
AcDbEntity
  8
Visible (ANSI)
100
AcDbLine
 10
116.1361040940037
 20
419.6574569203892
 30
0.0
 11
116.1361040940047
 21
420.1487327517673
 31
0.0
  0
LINE
  5
42F
330
6C
100
AcDbEntity
  8
Visible (ANSI)
100
AcDbLine
 10
116.1361040940052
 20
420.3987327517673
 30
0.0
 11
116.1361040940062
 21
420.8900085831456
 31
0.0
  0
LINE
  5
430
330
6C
100
AcDbEntity
  8
Visible (ANSI)
100
AcDbLine
 10
116.1361040940067
 20
421.1400085831455
 30
0.0
 11
116.1361040940077
 21
421.6312844145238
 31
0.0
  0
LINE
  5
431
330
6C
100
AcDbEntity
  8
Visible (ANSI)
100
AcDbLine
 10
116.1361040940082
 20
421.8812844145237
 30
0.0
 11
116.1361040940089
 21
422.2652645469617
 31
0.0
  0
LINE
  5
432
330
6C
100
AcDbEntity
  8
Visible (ANSI)
100
AcDbLine
 10
94.51769662966103
 20
417.5777645469682
 30
0.0
 11
95.93948410422591
 21
417.9249052576388
 31
0.0
  0
LINE
  5
433
330
6C
100
AcDbEntity
  8
Visible (ANSI)
100
AcDbLine
 10
96.9634114562042
 20
418.1749052576384
 30
0.0
 11
98.97553450066016
 21
418.666181089016
 31
0.0
  0
LINE
  5
434
330
6C
100
AcDbEntity
  8
Visible (ANSI)
100
AcDbLine
 10
99.99946185263844
 20
418.9161810890158
 30
0.0
 11
102.0115848970946
 21
419.4074569203933
 31
0.0
  0
LINE
  5
435
330
6C
100
AcDbEntity
  8
Visible (ANSI)
100
AcDbLine
 10
103.0355122490728
 20
419.6574569203931
 30
0.0
 11
105.047635293529
 21
420.1487327517707
 31
0.0
  0
LINE
  5
436
330
6C
100
AcDbEntity
  8
Visible (ANSI)
100
AcDbLine
 10
106.0715626455073
 20
420.3987327517703
 30
0.0
 11
108.0836856899634
 21
420.890008583148
 31
0.0
  0
LINE
  5
437
330
6C
100
AcDbEntity
  8
Visible (ANSI)
100
AcDbLine
 10
109.1076130419417
 20
421.1400085831477
 30
0.0
 11
111.1197360863979
 21
421.6312844145252
 31
0.0
  0
LINE
  5
438
330
6C
100
AcDbEntity
  8
Visible (ANSI)
100
AcDbLine
 10
112.1436634383761
 20
421.881284414525
 30
0.0
 11
114.2136883344372
 21
422.3866974431102
 31
0.0
  0
LINE
  5
439
330
6C
100
AcDbEntity
  8
Visible (ANSI)
100
AcDbLine
 10
94.55502664532565
 20
417.3295351911579
 30
0.0
 11
96.99348942780321
 21
417.9249052576385
 31
0.0
  0
LINE
  5
43A
330
6C
100
AcDbEntity
  8
Visible (ANSI)
100
AcDbLine
 10
98.01741677978149
 20
418.1749052576382
 30
0.0
 11
100.0295398242374
 21
418.6661810890157
 31
0.0
  0
LINE
  5
43B
330
6C
100
AcDbEntity
  8
Visible (ANSI)
100
AcDbLine
 10
101.0534671762157
 20
418.9161810890154
 30
0.0
 11
103.0655902206718
 21
419.407456920393
 31
0.0
  0
LINE
  5
43C
330
6C
100
AcDbEntity
  8
Visible (ANSI)
100
AcDbLine
 10
104.0895175726501
 20
419.6574569203927
 30
0.0
 11
106.1016406171063
 21
420.1487327517703
 31
0.0
  0
LINE
  5
43D
330
6C
100
AcDbEntity
  8
Visible (ANSI)
100
AcDbLine
 10
107.1255679690846
 20
420.39873275177
 30
0.0
 11
109.1376910135407
 21
420.8900085831476
 31
0.0
  0
LINE
  5
43E
330
6C
100
AcDbEntity
  8
Visible (ANSI)
100
AcDbLine
 10
110.161618365519
 20
421.1400085831473
 30
0.0
 11
112.1737414099752
 21
421.6312844145249
 31
0.0
  0
LINE
  5
43F
330
6C
100
AcDbEntity
  8
Visible (ANSI)
100
AcDbLine
 10
113.1976687619534
 20
421.8812844145246
 30
0.0
 11
114.2729859476484
 21
422.1438316508144
 31
0.0
  0
LINE
  5
440
330
6C
100
AcDbEntity
  8
Visible (ANSI)
100
AcDbLine
 10
93.47207544368043
 20
417.5777645469685
 30
0.0
 11
94.52516170326928
 21
417.5777645469682
 31
0.0
  0
LINE
  5
441
330
6C
100
AcDbEntity
  8
Visible (ANSI)
100
AcDbLine
 10
117.7004503492635
 20
422.2027645469613
 30
0.0
 11
116.1361040940089
 21
422.2027645469617
 31
0.0
  0
LINE
  5
442
330
6C
100
AcDbEntity
  8
Visible (ANSI)
100
AcDbLine
 10
115.8861040940089
 20
422.2027645469619
 30
0.0
 11
114.3217578387548
 21
422.2027645469624
 31
0.0
  0
LINE
  5
443
330
6C
100
AcDbEntity
  8
Visible (ANSI)
100
AcDbLine
 10
93.47207544368037
 20
417.3277645469686
 30
0.0
 11
84.13610409400826
 21
417.3277645469712
 31
0.0
  0
LINE
  5
444
330
6C
100
AcDbEntity
  8
Visible (ANSI)
100
AcDbLine
 10
116.0111040939987
 20
417.3277645469618
 30
0.0
 11
93.47207544368037
 21
417.3277645469686
 31
0.0
  0
LINE
  5
445
330
6C
100
AcDbEntity
  8
Visible (ANSI)
100
AcDbLine
 10
138.5501327443227
 20
417.3277645469552
 30
0.0
 11
116.0111040939987
 21
417.3277645469618
 31
0.0
  0
LINE
  5
446
330
6C
100
AcDbEntity
  8
Visible (ANSI)
100
AcDbLine
 10
147.8861040940082
 20
417.3277645469524
 30
0.0
 11
138.5501327443227
 21
417.3277645469552
 31
0.0
  0
LINE
  5
447
330
6C
100
AcDbEntity
  8
Visible (ANSI)
100
AcDbLine
 10
147.8861040940081
 20
417.2027645469523
 30
0.0
 11
84.13610409400822
 21
417.2027645469713
 31
0.0
  0
LINE
  5
448
330
6C
100
AcDbEntity
  8
Visible (ANSI)
100
AcDbLine
 10
113.972316317249
 20
422.3277645469624
 30
0.0
 11
113.5111040940097
 21
422.3277645469626
 31
0.0
  0
LINE
  5
449
330
6C
100
AcDbEntity
  8
Visible (ANSI)
100
AcDbLine
 10
115.9033900366248
 20
422.3277645469618
 30
0.0
 11
114.3118725456087
 21
422.3277645469623
 31
0.0
  0
LINE
  5
44A
330
6C
100
AcDbEntity
  8
Visible (ANSI)
100
AcDbLine
 10
117.7103356424097
 20
422.3277645469614
 30
0.0
 11
116.1188181513931
 21
422.3277645469618
 31
0.0
  0
LINE
  5
44B
330
6C
100
AcDbEntity
  8
Visible (ANSI)
100
AcDbLine
 10
118.5111040940097
 20
422.3277645469611
 30
0.0
 11
118.0498918707695
 21
422.3277645469612
 31
0.0
  0
LINE
  5
44C
330
6C
100
AcDbEntity
  8
Visible (ANSI)
100
AcDbLine
 10
85.51110409400514
 20
406.8277645469708
 30
0.0
 11
85.51110409400823
 21
417.2027645469709
 31
0.0
  0
LINE
  5
44D
330
6C
100
AcDbEntity
  8
Visible (ANSI)
100
AcDbLine
 10
146.5111040940079
 20
416.3277645469527
 30
0.0
 11
146.5111040940082
 21
417.2027645469528
 31
0.0
  0
LINE
  5
44E
330
6C
100
AcDbEntity
  8
Visible (ANSI)
100
AcDbLine
 10
84.13610409400822
 20
417.2027645469714
 30
0.0
 11
84.13610409400826
 21
417.3277645469712
 31
0.0
  0
LINE
  5
44F
330
6C
100
AcDbEntity
  8
Visible (ANSI)
100
AcDbLine
 10
147.8861040940082
 20
417.2027645469523
 30
0.0
 11
147.8861040940082
 21
417.3277645469524
 31
0.0
  0
LINE
  5
450
330
6C
100
AcDbEntity
  8
Visible (ANSI)
100
AcDbLine
 10
113.5111040940097
 20
422.2652645469626
 30
0.0
 11
113.5111040940097
 21
422.3277645469626
 31
0.0
  0
LINE
  5
451
330
6C
100
AcDbEntity
  8
Visible (ANSI)
100
AcDbLine
 10
118.5111040940097
 20
422.2652645469611
 30
0.0
 11
118.5111040940097
 21
422.3277645469611
 31
0.0
  0
LINE
  5
452
330
6C
100
AcDbEntity
  8
Visible (ANSI)
100
AcDbLine
 10
113.4898379840931
 20
422.3884422745314
 30
0.0
 11
113.514166179212
 21
422.2475283131932
 31
0.0
  0
SPLINE
  5
453
330
6C
100
AcDbEntity
  8
Visible (ANSI)
100
AcDbSpline
210
0.0
220
0.0
230
1.0
 70
     8
 71
     3
 72
    10
 73
     6
 74
     0
 42
0.0000000001
 43
0.0000000001
 40
1.007858426954796
 40
1.007858426954796
 40
1.007858426954796
 40
1.007858426954796
 40
1.084159987097776
 40
1.084159987097776
 40
1.087277202195676
 40
1.087277202195676
 40
1.087277202195676
 40
1.087277202195676
 10
113.514166179212
 20
422.2475283131932
 30
0.0
 10
113.514093051082
 20
422.2372205822912
 30
0.0
 10
113.5139554868136
 20
422.2268531731566
 30
0.0
 10
113.5137619463244
 20
422.2166032120716
 30
0.0
 10
113.5137542712953
 20
422.2162017243901
 30
0.0
 10
113.5137465199167
 20
422.2158010973735
 30
0.0
  0
LINE
  5
454
330
6C
100
AcDbEntity
  8
Visible (ANSI)
100
AcDbLine
 10
85.62539296466718
 20
417.5777645469708
 30
0.0
 11
85.63610409400824
 21
417.4527645469708
 31
0.0
  0
LINE
  5
455
330
6C
100
AcDbEntity
  8
Visible (ANSI)
100
AcDbLine
 10
85.64681522334938
 20
417.3277645469708
 30
0.0
 11
85.63610409400826
 21
417.4527645469709
 31
0.0
  0
LINE
  5
456
330
6C
100
AcDbEntity
  8
Visible (ANSI)
100
AcDbLine
 10
84.13610409400831
 20
417.5777645469713
 30
0.0
 11
84.13610409400824
 21
417.3277645469712
 31
0.0
  0
LINE
  5
457
330
6C
100
AcDbEntity
  8
Visible (ANSI)
100
AcDbLine
 10
85.62539296466718
 20
417.5777645469708
 30
0.0
 11
87.63610409400838
 21
417.9249052576412
 31
0.0
  0
LINE
  5
458
330
6C
100
AcDbEntity
  8
Visible (ANSI)
100
AcDbLine
 10
89.08415604206039
 20
418.1749052576408
 30
0.0
 11
91.92972774069254
 21
418.6661810890181
 31
0.0
  0
LINE
  5
459
330
6C
100
AcDbEntity
  8
Visible (ANSI)
100
AcDbLine
 10
93.37777968874455
 20
418.9161810890176
 30
0.0
 11
96.22335138737696
 21
419.4074569203951
 31
0.0
  0
LINE
  5
45A
330
6C
100
AcDbEntity
  8
Visible (ANSI)
100
AcDbLine
 10
97.67140333542897
 20
419.6574569203946
 30
0.0
 11
100.5169750340614
 21
420.148732751772
 31
0.0
  0
LINE
  5
45B
330
6C
100
AcDbEntity
  8
Visible (ANSI)
100
AcDbLine
 10
101.9650269821134
 20
420.3987327517715
 30
0.0
 11
104.8105986807458
 21
420.890008583149
 31
0.0
  0
LINE
  5
45C
330
6C
100
AcDbEntity
  8
Visible (ANSI)
100
AcDbLine
 10
106.2586506287978
 20
421.1400085831485
 30
0.0
 11
109.1042223274302
 21
421.6312844145258
 31
0.0
  0
LINE
  5
45D
330
6C
100
AcDbEntity
  8
Visible (ANSI)
100
AcDbLine
 10
110.5522742754822
 20
421.8812844145254
 30
0.0
 11
113.4898379840931
 21
422.3884422745314
 31
0.0
  0
LINE
  5
45E
330
6C
100
AcDbEntity
  8
Visible (ANSI)
100
AcDbLine
 10
85.64681522334936
 20
417.3277645469709
 30
0.0
 11
89.10557830074258
 21
417.9249052576408
 31
0.0
  0
LINE
  5
45F
330
6C
100
AcDbEntity
  8
Visible (ANSI)
100
AcDbLine
 10
90.5536302487946
 20
418.1749052576403
 30
0.0
 11
93.39920194742676
 21
418.6661810890177
 31
0.0
  0
LINE
  5
460
330
6C
100
AcDbEntity
  8
Visible (ANSI)
100
AcDbLine
 10
94.84725389547874
 20
418.9161810890173
 30
0.0
 11
97.69282559411117
 21
419.4074569203946
 31
0.0
  0
LINE
  5
461
330
6C
100
AcDbEntity
  8
Visible (ANSI)
100
AcDbLine
 10
99.14087754216318
 20
419.6574569203942
 30
0.0
 11
101.9864492407956
 21
420.1487327517716
 31
0.0
  0
LINE
  5
462
330
6C
100
AcDbEntity
  8
Visible (ANSI)
100
AcDbLine
 10
103.4345011888476
 20
420.3987327517711
 30
0.0
 11
106.28007288748
 21
420.8900085831485
 31
0.0
  0
LINE
  5
463
330
6C
100
AcDbEntity
  8
Visible (ANSI)
100
AcDbLine
 10
107.728124835532
 20
421.1400085831481
 30
0.0
 11
110.5736965341644
 21
421.6312844145255
 31
0.0
  0
LINE
  5
464
330
6C
100
AcDbEntity
  8
Visible (ANSI)
100
AcDbLine
 10
112.0217484822164
 20
421.881284414525
 30
0.0
 11
112.4379921789971
 21
421.9531471155386
 31
0.0
  0
LINE
  5
465
330
6C
100
AcDbEntity
  8
Visible (ANSI)
100
AcDbLine
 10
84.13610409400833
 20
417.5777645469713
 30
0.0
 11
85.62539296466718
 21
417.5777645469708
 31
0.0
  0
LINE
  5
466
330
6C
100
AcDbEntity
  8
Visible (ANSI)
100
AcDbLine
 10
136.0111040939948
 20
406.8277645469558
 30
0.0
 11
84.19860409399467
 21
406.8277645469713
 31
0.0
  0
LINE
  5
467
330
6C
100
AcDbEntity
  8
Visible (ANSI)
100
AcDbLine
 10
84.19860409397728
 20
348.2027645469713
 30
0.0
 11
84.19860409399467
 21
406.8277645469713
 31
0.0
  0
LINE
  5
468
330
6C
100
AcDbEntity
  8
Visible (ANSI)
100
AcDbLine
 10
84.19860409397728
 20
348.2027645469713
 30
0.0
 11
136.6986040939776
 21
348.2027645469557
 31
0.0
  0
ARC
  5
469
330
6C
100
AcDbEntity
  8
Visible (ANSI)
100
AcDbCircle
 10
122.9286969899298
 20
421.7562844145218
 30
0.0
 40
0.125
100
AcDbArc
 50
269.999999999984
 51
89.99999999998392
  0
ARC
  5
46A
330
6C
100
AcDbEntity
  8
Visible (ANSI)
100
AcDbCircle
 10
109.0935111980893
 20
421.7562844145259
 30
0.0
 40
0.125
100
AcDbArc
 50
89.99999999998397
 51
269.999999999984
  0
LINE
  5
46B
330
6C
100
AcDbEntity
  8
Visible (ANSI)
100
AcDbLine
 10
122.9286969899298
 20
421.8812844145218
 30
0.0
 11
109.0935111980893
 21
421.8812844145259
 31
0.0
  0
LINE
  5
46C
330
6C
100
AcDbEntity
  8
Visible (ANSI)
100
AcDbLine
 10
109.0935111980893
 20
421.6312844145258
 30
0.0
 11
122.9286969899297
 21
421.6312844145218
 31
0.0
  0
ARC
  5
46D
330
6C
100
AcDbEntity
  8
Visible (ANSI)
100
AcDbCircle
 10
127.2223206366138
 20
421.0150085831422
 30
0.0
 40
0.125
100
AcDbArc
 50
269.999999999984
 51
89.99999999998392
  0
ARC
  5
46E
330
6C
100
AcDbEntity
  8
Visible (ANSI)
100
AcDbCircle
 10
104.7998875514049
 20
421.0150085831489
 30
0.0
 40
0.125
100
AcDbArc
 50
89.99999999998397
 51
269.999999999984
  0
LINE
  5
46F
330
6C
100
AcDbEntity
  8
Visible (ANSI)
100
AcDbLine
 10
127.2223206366138
 20
421.1400085831423
 30
0.0
 11
104.7998875514049
 21
421.140008583149
 31
0.0
  0
LINE
  5
470
330
6C
100
AcDbEntity
  8
Visible (ANSI)
100
AcDbLine
 10
104.7998875514049
 20
420.890008583149
 30
0.0
 11
127.2223206366137
 21
420.8900085831422
 31
0.0
  0
ARC
  5
471
330
6C
100
AcDbEntity
  8
Visible (ANSI)
100
AcDbCircle
 10
131.5159442832977
 20
420.2737327517628
 30
0.0
 40
0.125
100
AcDbArc
 50
269.999999999984
 51
89.99999999998392
  0
ARC
  5
472
330
6C
100
AcDbEntity
  8
Visible (ANSI)
100
AcDbCircle
 10
100.5062639047205
 20
420.273732751772
 30
0.0
 40
0.125
100
AcDbArc
 50
89.99999999998397
 51
269.999999999984
  0
LINE
  5
473
330
6C
100
AcDbEntity
  8
Visible (ANSI)
100
AcDbLine
 10
131.5159442832977
 20
420.3987327517627
 30
0.0
 11
100.5062639047205
 21
420.3987327517721
 31
0.0
  0
LINE
  5
474
330
6C
100
AcDbEntity
  8
Visible (ANSI)
100
AcDbLine
 10
100.5062639047205
 20
420.148732751772
 30
0.0
 11
131.5159442832976
 21
420.1487327517628
 31
0.0
  0
ARC
  5
475
330
6C
100
AcDbEntity
  8
Visible (ANSI)
100
AcDbCircle
 10
135.8095679299817
 20
419.5324569203833
 30
0.0
 40
0.125
100
AcDbArc
 50
269.999999999984
 51
89.99999999998392
  0
ARC
  5
476
330
6C
100
AcDbEntity
  8
Visible (ANSI)
100
AcDbCircle
 10
96.21264025803613
 20
419.532456920395
 30
0.0
 40
0.125
100
AcDbArc
 50
89.99999999998397
 51
269.999999999984
  0
LINE
  5
477
330
6C
100
AcDbEntity
  8
Visible (ANSI)
100
AcDbLine
 10
135.8095679299817
 20
419.6574569203833
 30
0.0
 11
96.21264025803617
 21
419.6574569203951
 31
0.0
  0
LINE
  5
478
330
6C
100
AcDbEntity
  8
Visible (ANSI)
100
AcDbLine
 10
96.21264025803609
 20
419.4074569203951
 30
0.0
 11
135.8095679299816
 21
419.4074569203833
 31
0.0
  0
ARC
  5
479
330
6C
100
AcDbEntity
  8
Visible (ANSI)
100
AcDbCircle
 10
140.1031915766656
 20
418.7911810890038
 30
0.0
 40
0.125
100
AcDbArc
 50
269.999999999984
 51
89.99999999998392
  0
ARC
  5
47A
330
6C
100
AcDbEntity
  8
Visible (ANSI)
100
AcDbCircle
 10
91.91901661135172
 20
418.7911810890181
 30
0.0
 40
0.125
100
AcDbArc
 50
89.99999999998397
 51
269.999999999984
  0
LINE
  5
47B
330
6C
100
AcDbEntity
  8
Visible (ANSI)
100
AcDbLine
 10
140.1031915766656
 20
418.9161810890039
 30
0.0
 11
91.91901661135176
 21
418.9161810890182
 31
0.0
  0
LINE
  5
47C
330
6C
100
AcDbEntity
  8
Visible (ANSI)
100
AcDbLine
 10
91.91901661135169
 20
418.6661810890181
 30
0.0
 11
140.1031915766656
 21
418.6661810890038
 31
0.0
  0
ARC
  5
47D
330
6C
100
AcDbEntity
  8
Visible (ANSI)
100
AcDbCircle
 10
144.3968152233496
 20
418.0499052576243
 30
0.0
 40
0.125
100
AcDbArc
 50
269.999999999984
 51
89.99999999998392
  0
ARC
  5
47E
330
6C
100
AcDbEntity
  8
Visible (ANSI)
100
AcDbCircle
 10
87.62539296466732
 20
418.0499052576412
 30
0.0
 40
0.125
100
AcDbArc
 50
89.99999999998397
 51
269.999999999984
  0
LINE
  5
47F
330
6C
100
AcDbEntity
  8
Visible (ANSI)
100
AcDbLine
 10
144.3968152233496
 20
418.1749052576243
 30
0.0
 11
87.62539296466737
 21
418.1749052576412
 31
0.0
  0
LINE
  5
480
330
6C
100
AcDbEntity
  8
Visible (ANSI)
100
AcDbLine
 10
87.6253929646673
 20
417.9249052576412
 30
0.0
 11
144.3968152233495
 21
417.9249052576244
 31
0.0
  0
MTEXT
  5
481
330
6C
100
AcDbEntity
  8
Symbol (ANSI)
100
AcDbMText
 10
78.83331708235349
 20
214.6180247465248
 30
0.0
 40
12.49999981226883
 41
0.0
 71
     7
 72
     1
  1
Right Hand End
  7
Label Text (ANSI)
 73
     1
 44
1.0
  0
ARC
  5
482
330
6C
100
AcDbEntity
  8
Visible (ANSI)
100
AcDbCircle
 10
697.5823136808198
 20
283.077764546965
 30
0.0
 40
0.2500000000000008
100
AcDbArc
 50
94.78019184719714
 51
265.2198081528029
  0
LINE
  5
483
330
6C
100
AcDbEntity
  8
Visible (ANSI)
100
AcDbLine
 10
700.5406470141533
 20
282.5795036826701
 30
0.0
 11
697.5614803474867
 21
282.8286341148171
 31
0.0
  0
LINE
  5
484
330
6C
100
AcDbEntity
  8
Visible (ANSI)
100
AcDbLine
 10
697.5614803474865
 20
283.3268949791131
 30
0.0
 11
700.5406470141529
 21
283.5760254112619
 31
0.0
  0
ARC
  5
485
330
6C
100
AcDbEntity
  8
Visible (ANSI)
100
AcDbCircle
 10
700.5823136808198
 20
283.0777645469659
 30
0.0
 40
0.5000000000000017
100
AcDbArc
 50
265.2198081528029
 51
94.78019184721345
  0
LINE
  5
486
330
6C
100
AcDbEntity
  8
Visible (ANSI)
100
AcDbLine
 10
615.8323136808269
 20
259.0777645469408
 30
0.0
 11
615.207313680827
 21
259.0777645469407
 31
0.0
  0
LINE
  5
487
330
6C
100
AcDbEntity
  8
Visible (ANSI)
100
AcDbLine
 10
615.832313680803
 20
339.5777645469408
 30
0.0
 11
615.207313680803
 21
339.5777645469406
 31
0.0
  0
LINE
  5
488
330
6C
100
AcDbEntity
  8
Visible (ANSI)
100
AcDbLine
 10
615.207313680803
 20
339.5777645469406
 30
0.0
 11
615.207313680827
 21
259.0777645469407
 31
0.0
  0
LINE
  5
489
330
6C
100
AcDbEntity
  8
Visible (ANSI)
100
AcDbLine
 10
615.832313680801
 20
348.2027645469408
 30
0.0
 11
716.3323136808004
 21
348.2027645469706
 31
0.0
  0
LINE
  5
48A
330
6C
100
AcDbEntity
  8
Visible (ANSI)
100
AcDbLine
 10
615.8323136808328
 20
240.8277645469409
 30
0.0
 11
615.832313680801
 21
348.2027645469408
 31
0.0
  0
LINE
  5
48B
330
6C
100
AcDbEntity
  8
Visible (ANSI)
100
AcDbLine
 10
716.3323136808004
 20
348.2027645469706
 30
0.0
 11
716.3323136808322
 21
240.8277645469707
 31
0.0
  0
LINE
  5
48C
330
6C
100
AcDbEntity
  8
Visible (ANSI)
100
AcDbLine
 10
678.3323136808038
 20
337.4527645469593
 30
0.0
 11
715.5823136808036
 21
337.4527645469703
 31
0.0
  0
LINE
  5
48D
330
6C
100
AcDbEntity
  8
Visible (ANSI)
100
AcDbLine
 10
715.5823136808036
 20
337.4527645469703
 30
0.0
 11
715.5823136808127
 21
306.8277645469704
 31
0.0
  0
LINE
  5
48E
330
6C
100
AcDbEntity
  8
Visible (ANSI)
100
AcDbLine
 10
715.5823136808127
 20
306.8277645469704
 30
0.0
 11
678.3323136808129
 21
306.8277645469593
 31
0.0
  0
LINE
  5
48F
330
6C
100
AcDbEntity
  8
Visible (ANSI)
100
AcDbLine
 10
678.3323136808129
 20
306.8277645469593
 30
0.0
 11
678.3323136808038
 21
337.4527645469593
 31
0.0
  0
LINE
  5
490
330
6C
100
AcDbEntity
  8
Visible (ANSI)
100
AcDbLine
 10
616.5823136808273
 20
259.327764546941
 30
0.0
 11
715.5823136808268
 21
259.3277645469704
 31
0.0
  0
LINE
  5
491
330
6C
100
AcDbEntity
  8
Visible (ANSI)
100
AcDbLine
 10
715.5823136808268
 20
259.3277645469704
 30
0.0
 11
715.5823136808322
 21
240.8277645469705
 31
0.0
  0
LINE
  5
492
330
6C
100
AcDbEntity
  8
Visible (ANSI)
100
AcDbLine
 10
616.5823136808328
 20
240.8277645469411
 30
0.0
 11
616.5823136808273
 21
259.327764546941
 31
0.0
  0
LINE
  5
493
330
6C
100
AcDbEntity
  8
Visible (ANSI)
100
AcDbLine
 10
662.8323136808266
 20
260.8277645469548
 30
0.0
 11
626.9573136808268
 21
260.8277645469442
 31
0.0
  0
LINE
  5
494
330
6C
100
AcDbEntity
  8
Visible (ANSI)
100
AcDbLine
 10
626.9573136808268
 20
260.8277645469442
 30
0.0
 11
626.957313680804
 21
337.4527645469441
 31
0.0
  0
LINE
  5
495
330
6C
100
AcDbEntity
  8
Visible (ANSI)
100
AcDbLine
 10
626.957313680804
 20
337.4527645469441
 30
0.0
 11
662.8323136808038
 21
337.4527645469547
 31
0.0
  0
LINE
  5
496
330
6C
100
AcDbEntity
  8
Visible (ANSI)
100
AcDbLine
 10
662.8323136808038
 20
337.4527645469547
 30
0.0
 11
662.8323136808266
 21
260.8277645469548
 31
0.0
  0
LINE
  5
497
330
6C
100
AcDbEntity
  8
Visible (ANSI)
100
AcDbLine
 10
715.5823136808033
 20
338.9527645469703
 30
0.0
 11
616.5823136808037
 21
338.952764546941
 31
0.0
  0
LINE
  5
498
330
6C
100
AcDbEntity
  8
Visible (ANSI)
100
AcDbLine
 10
616.5823136808037
 20
338.952764546941
 30
0.0
 11
616.5823136808012
 21
347.452764546941
 31
0.0
  0
LINE
  5
499
330
6C
100
AcDbEntity
  8
Visible (ANSI)
100
AcDbLine
 10
616.5823136808012
 20
347.452764546941
 30
0.0
 11
715.5823136808006
 21
347.4527645469704
 31
0.0
  0
LINE
  5
49A
330
6C
100
AcDbEntity
  8
Visible (ANSI)
100
AcDbLine
 10
715.5823136808006
 20
347.4527645469704
 30
0.0
 11
715.5823136808033
 21
338.9527645469703
 31
0.0
  0
LINE
  5
49B
330
6C
100
AcDbEntity
  8
Visible (ANSI)
100
AcDbLine
 10
676.8323136808265
 20
260.8277645469589
 30
0.0
 11
664.3323136808267
 21
260.8277645469552
 31
0.0
  0
LINE
  5
49C
330
6C
100
AcDbEntity
  8
Visible (ANSI)
100
AcDbLine
 10
664.3323136808267
 20
260.8277645469552
 30
0.0
 11
664.3323136808038
 21
337.4527645469551
 31
0.0
  0
LINE
  5
49D
330
6C
100
AcDbEntity
  8
Visible (ANSI)
100
AcDbLine
 10
664.3323136808038
 20
337.4527645469551
 30
0.0
 11
676.8323136808038
 21
337.4527645469588
 31
0.0
  0
LINE
  5
49E
330
6C
100
AcDbEntity
  8
Visible (ANSI)
100
AcDbLine
 10
676.8323136808038
 20
337.4527645469588
 30
0.0
 11
676.8323136808265
 21
260.8277645469589
 31
0.0
  0
LINE
  5
49F
330
6C
100
AcDbEntity
  8
Visible (ANSI)
100
AcDbLine
 10
616.5823136808041
 20
337.452764546941
 30
0.0
 11
625.4573136808041
 21
337.4527645469436
 31
0.0
  0
LINE
  5
4A0
330
6C
100
AcDbEntity
  8
Visible (ANSI)
100
AcDbLine
 10
625.4573136808041
 20
337.4527645469436
 30
0.0
 11
625.4573136808269
 21
260.8277645469437
 31
0.0
  0
LINE
  5
4A1
330
6C
100
AcDbEntity
  8
Visible (ANSI)
100
AcDbLine
 10
625.4573136808269
 20
260.8277645469437
 30
0.0
 11
616.5823136808269
 21
260.827764546941
 31
0.0
  0
LINE
  5
4A2
330
6C
100
AcDbEntity
  8
Visible (ANSI)
100
AcDbLine
 10
616.5823136808269
 20
260.827764546941
 30
0.0
 11
616.5823136808041
 21
337.452764546941
 31
0.0
  0
LINE
  5
4A3
330
6C
100
AcDbEntity
  8
Visible (ANSI)
100
AcDbLine
 10
702.8323136808133
 20
305.3277645469666
 30
0.0
 11
715.5823136808131
 21
305.3277645469704
 31
0.0
  0
LINE
  5
4A4
330
6C
100
AcDbEntity
  8
Visible (ANSI)
100
AcDbLine
 10
715.5823136808131
 20
305.3277645469704
 30
0.0
 11
715.5823136808264
 21
260.8277645469704
 31
0.0
  0
LINE
  5
4A5
330
6C
100
AcDbEntity
  8
Visible (ANSI)
100
AcDbLine
 10
715.5823136808264
 20
260.8277645469704
 30
0.0
 11
702.8323136808264
 21
260.8277645469666
 31
0.0
  0
LINE
  5
4A6
330
6C
100
AcDbEntity
  8
Visible (ANSI)
100
AcDbLine
 10
702.8323136808264
 20
260.8277645469666
 30
0.0
 11
702.8323136808133
 21
305.3277645469666
 31
0.0
  0
LINE
  5
4A7
330
6C
100
AcDbEntity
  8
Visible (ANSI)
100
AcDbLine
 10
702.0823136808266
 20
260.0777645469664
 30
0.0
 11
677.5823136808268
 21
260.0777645469591
 31
0.0
  0
LINE
  5
4A8
330
6C
100
AcDbEntity
  8
Visible (ANSI)
100
AcDbLine
 10
677.5823136808268
 20
260.0777645469591
 30
0.0
 11
677.5823136808131
 21
306.0777645469591
 31
0.0
  0
LINE
  5
4A9
330
6C
100
AcDbEntity
  8
Visible (ANSI)
100
AcDbLine
 10
677.5823136808131
 20
306.0777645469591
 30
0.0
 11
702.0823136808131
 21
306.0777645469664
 31
0.0
  0
LINE
  5
4AA
330
6C
100
AcDbEntity
  8
Visible (ANSI)
100
AcDbLine
 10
702.0823136808131
 20
306.0777645469664
 30
0.0
 11
702.0823136808266
 21
260.0777645469664
 31
0.0
  0
LINE
  5
4AB
330
6C
100
AcDbEntity
  8
Visible (ANSI)
100
AcDbLine
 10
716.9573136808325
 20
240.8277645469708
 30
0.0
 11
615.207313680833
 21
240.8277645469407
 31
0.0
  0
LINE
  5
4AC
330
6C
100
AcDbEntity
  8
Visible (ANSI)
100
AcDbLine
 10
615.2073136808333
 20
240.0777645469406
 30
0.0
 11
615.207313680833
 21
240.8277645469407
 31
0.0
  0
LINE
  5
4AD
330
6C
100
AcDbEntity
  8
Visible (ANSI)
100
AcDbLine
 10
615.2073136808333
 20
240.0777645469406
 30
0.0
 11
716.9573136808328
 21
240.0777645469708
 31
0.0
  0
LINE
  5
4AE
330
6C
100
AcDbEntity
  8
Visible (ANSI)
100
AcDbLine
 10
716.9573136808328
 20
240.0777645469708
 30
0.0
 11
716.9573136808325
 21
240.8277645469708
 31
0.0
  0
LINE
  5
4AF
330
6C
100
AcDbEntity
  8
Visible (ANSI)
100
AcDbLine
 10
616.582313680781
 20
415.5777645469409
 30
0.0
 11
660.7073136807811
 21
415.577764546954
 31
0.0
  0
LINE
  5
4B0
330
6C
100
AcDbEntity
  8
Visible (ANSI)
100
AcDbLine
 10
616.5823136807833
 20
408.3277645469409
 30
0.0
 11
616.582313680781
 21
415.5777645469409
 31
0.0
  0
LINE
  5
4B1
330
6C
100
AcDbEntity
  8
Visible (ANSI)
100
AcDbLine
 10
660.7073136807833
 20
408.327764546954
 30
0.0
 11
616.5823136807833
 21
408.3277645469409
 31
0.0
  0
LINE
  5
4B2
330
6C
100
AcDbEntity
  8
Visible (ANSI)
100
AcDbLine
 10
660.7073136807811
 20
415.577764546954
 30
0.0
 11
660.7073136807833
 21
408.327764546954
 31
0.0
  0
LINE
  5
4B3
330
6C
100
AcDbEntity
  8
Visible (ANSI)
100
AcDbLine
 10
660.7073136808009
 20
348.952764546954
 30
0.0
 11
656.9573136808009
 21
348.952764546953
 31
0.0
  0
LINE
  5
4B4
330
6C
100
AcDbEntity
  8
Visible (ANSI)
100
AcDbLine
 10
656.9573136808009
 20
348.952764546953
 30
0.0
 11
656.9573136807835
 21
407.5777645469529
 31
0.0
  0
LINE
  5
4B5
330
6C
100
AcDbEntity
  8
Visible (ANSI)
100
AcDbLine
 10
656.9573136807835
 20
407.5777645469529
 30
0.0
 11
660.7073136807835
 21
407.5777645469541
 31
0.0
  0
LINE
  5
4B6
330
6C
100
AcDbEntity
  8
Visible (ANSI)
100
AcDbLine
 10
660.7073136807835
 20
407.5777645469541
 30
0.0
 11
660.7073136808009
 21
348.952764546954
 31
0.0
  0
LINE
  5
4B7
330
6C
100
AcDbEntity
  8
Visible (ANSI)
100
AcDbLine
 10
656.2073136808009
 20
348.9527645469527
 30
0.0
 11
616.5823136808008
 21
348.952764546941
 31
0.0
  0
LINE
  5
4B8
330
6C
100
AcDbEntity
  8
Visible (ANSI)
100
AcDbLine
 10
616.5823136808008
 20
348.952764546941
 30
0.0
 11
616.5823136807995
 21
353.202764546941
 31
0.0
  0
LINE
  5
4B9
330
6C
100
AcDbEntity
  8
Visible (ANSI)
100
AcDbLine
 10
616.5823136807995
 20
353.202764546941
 30
0.0
 11
656.2073136807996
 21
353.2027645469526
 31
0.0
  0
LINE
  5
4BA
330
6C
100
AcDbEntity
  8
Visible (ANSI)
100
AcDbLine
 10
656.2073136807996
 20
353.2027645469526
 30
0.0
 11
656.2073136808009
 21
348.9527645469527
 31
0.0
  0
LINE
  5
4BB
330
6C
100
AcDbEntity
  8
Visible (ANSI)
100
AcDbLine
 10
661.4573136808011
 20
348.2027645469543
 30
0.0
 11
661.4573136807808
 21
416.3277645469542
 31
0.0
  0
LINE
  5
4BC
330
6C
100
AcDbEntity
  8
Visible (ANSI)
100
AcDbLine
 10
661.4573136807808
 20
416.3277645469542
 30
0.0
 11
615.8323136807808
 21
416.3277645469407
 31
0.0
  0
LINE
  5
4BD
330
6C
100
AcDbEntity
  8
Visible (ANSI)
100
AcDbLine
 10
615.8323136808011
 20
348.2027645469407
 30
0.0
 11
615.8323136807808
 21
416.3277645469407
 31
0.0
  0
LINE
  5
4BE
330
6C
100
AcDbEntity
  8
Visible (ANSI)
100
AcDbLine
 10
615.8323136808011
 20
348.2027645469407
 30
0.0
 11
661.4573136808011
 21
348.2027645469543
 31
0.0
  0
LINE
  5
4BF
330
6C
100
AcDbEntity
  8
Visible (ANSI)
100
AcDbLine
 10
716.8323136807988
 20
355.9527645469707
 30
0.0
 11
662.207313680799
 21
355.9527645469544
 31
0.0
  0
LINE
  5
4C0
330
6C
100
AcDbEntity
  8
Visible (ANSI)
100
AcDbLine
 10
716.8323136807862
 20
398.5777645469708
 30
0.0
 11
716.8323136807988
 21
355.9527645469707
 31
0.0
  0
LINE
  5
4C1
330
6C
100
AcDbEntity
  8
Visible (ANSI)
100
AcDbLine
 10
662.2073136807862
 20
398.5777645469544
 30
0.0
 11
716.8323136807862
 21
398.5777645469708
 31
0.0
  0
LINE
  5
4C2
330
6C
100
AcDbEntity
  8
Visible (ANSI)
100
AcDbLine
 10
662.207313680799
 20
355.9527645469544
 30
0.0
 11
662.2073136807862
 21
398.5777645469544
 31
0.0
  0
LINE
  5
4C3
330
6C
100
AcDbEntity
  8
Visible (ANSI)
100
AcDbLine
 10
662.2073136808008
 20
348.9527645469545
 30
0.0
 11
662.2073136807992
 21
354.4527645469544
 31
0.0
  0
LINE
  5
4C4
330
6C
100
AcDbEntity
  8
Visible (ANSI)
100
AcDbLine
 10
716.8323136808009
 20
348.9527645469707
 30
0.0
 11
662.2073136808008
 21
348.9527645469545
 31
0.0
  0
LINE
  5
4C5
330
6C
100
AcDbEntity
  8
Visible (ANSI)
100
AcDbLine
 10
716.8323136807993
 20
354.4527645469707
 30
0.0
 11
716.8323136808009
 21
348.9527645469707
 31
0.0
  0
LINE
  5
4C6
330
6C
100
AcDbEntity
  8
Visible (ANSI)
100
AcDbLine
 10
662.2073136807992
 20
354.4527645469544
 30
0.0
 11
716.8323136807993
 21
354.4527645469707
 31
0.0
  0
ELLIPSE
  5
4C7
330
6C
100
AcDbEntity
  8
Visible (ANSI)
100
AcDbEllipse
 10
687.5375806337356
 20
422.265264546962
 30
0.0
 11
-0.0296488066055363
 21
-0.1214328961478782
 31
0.0
210
0.0
220
0.0
230
0.9999999999999998
 40
0.6967984516401971
 41
5.413065670359315
 42
6.283185307180144
  0
ELLIPSE
  5
4C8
330
6C
100
AcDbEntity
  8
Visible (ANSI)
100
AcDbEllipse
 10
687.5375806337356
 20
422.265264546962
 30
0.0
 11
0.0296488066055571
 21
0.1214328961479065
 31
0.0
210
0.0
220
0.0
230
0.9999999999999998
 40
0.6967984516402153
 41
0.0000000000007675
 42
1.883802957521837
  0
SPLINE
  5
4C9
330
6C
100
AcDbEntity
  8
Visible (ANSI)
100
AcDbSpline
210
0.0
220
0.0
230
1.0
 70
     8
 71
     3
 72
    10
 73
     6
 74
     0
 42
0.0000000001
 43
0.0000000001
 40
-0.1597689612253228
 40
-0.1597689612253228
 40
-0.1597689612253228
 40
-0.1597689612253228
 40
-0.1218855853352689
 40
-0.1218855853352689
 40
-0.0455840251922895
 40
-0.0455840251922895
 40
-0.0455840251922895
 40
-0.0455840251922895
 10
687.4591599360236
 20
422.2027645469619
 30
0.0
 10
687.4572643172172
 20
422.2073490361267
 30
0.0
 10
687.4555644590404
 20
422.2121162152101
 30
0.0
 10
687.4511100970598
 20
422.2268531731558
 30
0.0
 10
687.4490436416766
 20
422.2372205822906
 30
0.0
 10
687.4479481339401
 20
422.2475283131926
 30
0.0
  0
ELLIPSE
  5
4CA
330
6C
100
AcDbEntity
  8
Visible (ANSI)
100
AcDbEllipse
 10
707.2481821593179
 20
417.4527645469678
 30
0.0
 11
-0.0149856337785364
 21
-0.1245565523693809
 31
0.0
210
0.0
220
0.0
230
1.0
 40
0.7019893815729777
 41
3.225850360498763
 42
4.796646687293339
  0
ELLIPSE
  5
4CB
330
6C
100
AcDbEntity
  8
Visible (ANSI)
100
AcDbEllipse
 10
707.2481821593179
 20
417.4527645469678
 30
0.0
 11
-0.0149856337785076
 21
-0.1245565523693862
 31
0.0
210
0.0
220
0.0
230
1.0
 40
0.7019893815729777
 41
4.796646687292615
 42
6.367443014088226
  0
ELLIPSE
  5
4CC
330
6C
100
AcDbEntity
  8
Visible (ANSI)
100
AcDbEllipse
 10
708.308842331098
 20
417.4527645469681
 30
0.0
 11
-0.0000000000000371
 21
0.125
 31
0.0
210
0.0
220
0.0
230
1.0
 40
0.7071067811863382
 41
0.0
 42
6.283185307179586
  0
ELLIPSE
  5
4CD
330
6C
100
AcDbEntity
  8
Visible (ANSI)
100
AcDbEllipse
 10
685.7698136807694
 20
422.2652645469613
 30
0.0
 11
0.1249999999999947
 21
0.0000000000000259
 31
0.0
210
0.0
220
0.0
230
1.0
 40
0.9854218205504682
 41
0.0
 42
3.141592653589636
  0
CIRCLE
  5
4CE
330
6C
100
AcDbEntity
  8
Visible (ANSI)
100
AcDbCircle
 10
685.7698136807796
 20
417.4527645469614
 30
0.0
 40
0.125
  0
ELLIPSE
  5
4CF
330
6C
100
AcDbEntity
  8
Visible (ANSI)
100
AcDbEllipse
 10
684.0020467278028
 20
422.2652645469609
 30
0.0
 11
0.0296488066056557
 21
-0.1214328961479112
 31
0.0
210
0.0
220
0.0
230
1.0
 40
0.6967984516406393
 41
0.0
 42
0.8701196368198731
  0
ELLIPSE
  5
4D0
330
6C
100
AcDbEntity
  8
Visible (ANSI)
100
AcDbEllipse
 10
684.0020467278028
 20
422.2652645469609
 30
0.0
 11
-0.0296488066056359
 21
0.1214328961478704
 31
0.0
210
0.0
220
0.0
230
1.0
 40
0.6967984516406421
 41
4.399382349658203
 42
6.283185307179456
  0
SPLINE
  5
4D1
330
6C
100
AcDbEntity
  8
Visible (ANSI)
100
AcDbSpline
210
0.0
220
0.0
230
1.0
 70
     8
 71
     3
 72
    10
 73
     6
 74
     0
 42
0.0000000001
 43
0.0000000001
 40
1.007858426954797
 40
1.007858426954797
 40
1.007858426954797
 40
1.007858426954797
 40
1.084159987097774
 40
1.084159987097774
 40
1.122043362987838
 40
1.122043362987838
 40
1.122043362987838
 40
1.122043362987838
 10
684.0916792275984
 20
422.2475283131916
 30
0.0
 10
684.0905837198619
 20
422.2372205822896
 30
0.0
 10
684.0885172644787
 20
422.2268531731549
 30
0.0
 10
684.0840629024982
 20
422.212116215209
 30
0.0
 10
684.0823630443213
 20
422.2073490361257
 30
0.0
 10
684.080467425515
 20
422.2027645469609
 30
0.0
  0
ELLIPSE
  5
4D2
330
6C
100
AcDbEntity
  8
Visible (ANSI)
100
AcDbEllipse
 10
664.2914452022351
 20
417.4527645469551
 30
0.0
 11
0.0149856337786188
 21
-0.124556552369371
 31
0.0
210
0.0
220
0.0
230
1.0
 40
0.7019893815733935
 41
1.486538619886288
 42
3.057334946681515
  0
ELLIPSE
  5
4D3
330
6C
100
AcDbEntity
  8
Visible (ANSI)
100
AcDbEllipse
 10
664.2914452022351
 20
417.4527645469551
 30
0.0
 11
0.01498563377859
 21
-0.1245565523693763
 31
0.0
210
0.0
220
0.0
230
1.0
 40
0.7019893815733936
 41
6.198927600270105
 42
7.76972392706548
  0
ELLIPSE
  5
4D4
330
6C
100
AcDbEntity
  8
Visible (ANSI)
100
AcDbEllipse
 10
663.2307850304556
 20
417.4527645469547
 30
0.0
 11
-0.0000000000000371
 21
0.125
 31
0.0
210
0.0
220
0.0
230
1.0
 40
0.707106781186757
 41
0.0
 42
6.283185307179586
  0
LINE
  5
4D5
330
6C
100
AcDbEntity
  8
Visible (ANSI)
100
AcDbLine
 10
683.2485475708521
 20
422.3884422745295
 30
0.0
 11
683.2728757659711
 21
422.2475283131912
 31
0.0
  0
SPLINE
  5
4D6
330
6C
100
AcDbEntity
  8
Visible (ANSI)
100
AcDbSpline
210
0.0
220
0.0
230
1.0
 70
     8
 71
     3
 72
    10
 73
     6
 74
     0
 42
0.0000000001
 43
0.0000000001
 40
1.007858426954798
 40
1.007858426954798
 40
1.007858426954798
 40
1.007858426954798
 40
1.084159987097776
 40
1.084159987097776
 40
1.087277202195668
 40
1.087277202195668
 40
1.087277202195668
 40
1.087277202195668
 10
683.2728757659711
 20
422.2475283131912
 30
0.0
 10
683.2728026378411
 20
422.2372205822893
 30
0.0
 10
683.2726650735727
 20
422.2268531731546
 30
0.0
 10
683.2724715330836
 20
422.2166032120695
 30
0.0
 10
683.2724638580543
 20
422.2162017243881
 30
0.0
 10
683.2724561066758
 20
422.2158010973717
 30
0.0
  0
LINE
  5
4D7
330
6C
100
AcDbEntity
  8
Visible (ANSI)
100
AcDbLine
 10
655.384102551429
 20
417.5777645469525
 30
0.0
 11
655.3948136807701
 21
417.4527645469524
 31
0.0
  0
LINE
  5
4D8
330
6C
100
AcDbEntity
  8
Visible (ANSI)
100
AcDbLine
 10
655.4055248101112
 20
417.3277645469524
 30
0.0
 11
655.3948136807701
 21
417.4527645469525
 31
0.0
  0
LINE
  5
4D9
330
6C
100
AcDbEntity
  8
Visible (ANSI)
100
AcDbLine
 10
653.89481368077
 20
417.5777645469519
 30
0.0
 11
653.89481368077
 21
417.3277645469519
 31
0.0
  0
LINE
  5
4DA
330
6C
100
AcDbEntity
  8
Visible (ANSI)
100
AcDbLine
 10
707.2258911294527
 20
417.3295351911574
 30
0.0
 11
704.7874283469752
 21
417.9249052576381
 31
0.0
  0
LINE
  5
4DB
330
6C
100
AcDbEntity
  8
Visible (ANSI)
100
AcDbLine
 10
703.763500994997
 20
418.1749052576377
 30
0.0
 11
701.7513779505409
 21
418.6661810890154
 31
0.0
  0
LINE
  5
4DC
330
6C
100
AcDbEntity
  8
Visible (ANSI)
100
AcDbLine
 10
700.7274505985627
 20
418.916181089015
 30
0.0
 11
698.7153275541065
 21
419.4074569203926
 31
0.0
  0
LINE
  5
4DD
330
6C
100
AcDbEntity
  8
Visible (ANSI)
100
AcDbLine
 10
697.6914002021283
 20
419.6574569203923
 30
0.0
 11
695.6792771576719
 21
420.1487327517699
 31
0.0
  0
LINE
  5
4DE
330
6C
100
AcDbEntity
  8
Visible (ANSI)
100
AcDbLine
 10
694.6553498056938
 20
420.3987327517697
 30
0.0
 11
692.6432267612376
 21
420.8900085831472
 31
0.0
  0
LINE
  5
4DF
330
6C
100
AcDbEntity
  8
Visible (ANSI)
100
AcDbLine
 10
691.6192994092593
 20
421.1400085831469
 30
0.0
 11
689.6071763648031
 21
421.6312844145246
 31
0.0
  0
LINE
  5
4E0
330
6C
100
AcDbEntity
  8
Visible (ANSI)
100
AcDbLine
 10
688.583249012825
 20
421.8812844145242
 30
0.0
 11
687.5079318271299
 21
422.143831650814
 31
0.0
  0
LINE
  5
4E1
330
6C
100
AcDbEntity
  8
Visible (ANSI)
100
AcDbLine
 10
707.2632211451174
 20
417.5777645469677
 30
0.0
 11
705.8414336705525
 21
417.9249052576383
 31
0.0
  0
LINE
  5
4E2
330
6C
100
AcDbEntity
  8
Visible (ANSI)
100
AcDbLine
 10
704.8175063185742
 20
418.174905257638
 30
0.0
 11
702.8053832741183
 21
418.6661810890156
 31
0.0
  0
LINE
  5
4E3
330
6C
100
AcDbEntity
  8
Visible (ANSI)
100
AcDbLine
 10
701.78145592214
 20
418.9161810890153
 30
0.0
 11
699.7693328776838
 21
419.4074569203929
 31
0.0
  0
LINE
  5
4E4
330
6C
100
AcDbEntity
  8
Visible (ANSI)
100
AcDbLine
 10
698.7454055257054
 20
419.6574569203926
 30
0.0
 11
696.7332824812494
 21
420.1487327517702
 31
0.0
  0
LINE
  5
4E5
330
6C
100
AcDbEntity
  8
Visible (ANSI)
100
AcDbLine
 10
695.7093551292711
 20
420.3987327517699
 30
0.0
 11
693.6972320848148
 21
420.8900085831476
 31
0.0
  0
LINE
  5
4E6
330
6C
100
AcDbEntity
  8
Visible (ANSI)
100
AcDbLine
 10
692.6733047328366
 20
421.1400085831472
 30
0.0
 11
690.6611816883805
 21
421.6312844145249
 31
0.0
  0
LINE
  5
4E7
330
6C
100
AcDbEntity
  8
Visible (ANSI)
100
AcDbLine
 10
689.6372543364023
 20
421.8812844145245
 30
0.0
 11
687.567229440341
 21
422.3866974431098
 31
0.0
  0
LINE
  5
4E8
330
6C
100
AcDbEntity
  8
Visible (ANSI)
100
AcDbLine
 10
708.308842331098
 20
417.5777645469681
 30
0.0
 11
707.2557560715091
 21
417.5777645469677
 31
0.0
  0
LINE
  5
4E9
330
6C
100
AcDbEntity
  8
Visible (ANSI)
100
AcDbLine
 10
685.6448136807792
 20
417.4527645469614
 30
0.0
 11
685.6448136807781
 21
417.9249052576324
 31
0.0
  0
LINE
  5
4EA
330
6C
100
AcDbEntity
  8
Visible (ANSI)
100
AcDbLine
 10
685.6448136807776
 20
418.1749052576324
 30
0.0
 11
685.6448136807768
 21
418.6661810890105
 31
0.0
  0
LINE
  5
4EB
330
6C
100
AcDbEntity
  8
Visible (ANSI)
100
AcDbLine
 10
685.6448136807762
 20
418.9161810890105
 30
0.0
 11
685.6448136807752
 21
419.4074569203888
 31
0.0
  0
LINE
  5
4EC
330
6C
100
AcDbEntity
  8
Visible (ANSI)
100
AcDbLine
 10
685.6448136807746
 20
419.6574569203887
 30
0.0
 11
685.6448136807737
 21
420.1487327517669
 31
0.0
  0
LINE
  5
4ED
330
6C
100
AcDbEntity
  8
Visible (ANSI)
100
AcDbLine
 10
685.6448136807732
 20
420.398732751767
 30
0.0
 11
685.6448136807722
 21
420.8900085831452
 31
0.0
  0
LINE
  5
4EE
330
6C
100
AcDbEntity
  8
Visible (ANSI)
100
AcDbLine
 10
685.6448136807716
 20
421.1400085831451
 30
0.0
 11
685.6448136807707
 21
421.6312844145233
 31
0.0
  0
LINE
  5
4EF
330
6C
100
AcDbEntity
  8
Visible (ANSI)
100
AcDbLine
 10
685.6448136807702
 20
421.8812844145233
 30
0.0
 11
685.6448136807695
 21
422.2652645469613
 31
0.0
  0
LINE
  5
4F0
330
6C
100
AcDbEntity
  8
Visible (ANSI)
100
AcDbLine
 10
685.8948136807791
 20
417.4527645469614
 30
0.0
 11
685.8948136807781
 21
417.9249052576325
 31
0.0
  0
LINE
  5
4F1
330
6C
100
AcDbEntity
  8
Visible (ANSI)
100
AcDbLine
 10
685.8948136807777
 20
418.1749052576324
 30
0.0
 11
685.8948136807766
 21
418.6661810890106
 31
0.0
  0
LINE
  5
4F2
330
6C
100
AcDbEntity
  8
Visible (ANSI)
100
AcDbLine
 10
685.8948136807762
 20
418.9161810890106
 30
0.0
 11
685.8948136807753
 21
419.4074569203888
 31
0.0
  0
LINE
  5
4F3
330
6C
100
AcDbEntity
  8
Visible (ANSI)
100
AcDbLine
 10
685.8948136807747
 20
419.6574569203888
 30
0.0
 11
685.8948136807737
 21
420.148732751767
 31
0.0
  0
LINE
  5
4F4
330
6C
100
AcDbEntity
  8
Visible (ANSI)
100
AcDbLine
 10
685.8948136807732
 20
420.398732751767
 30
0.0
 11
685.8948136807722
 21
420.8900085831452
 31
0.0
  0
LINE
  5
4F5
330
6C
100
AcDbEntity
  8
Visible (ANSI)
100
AcDbLine
 10
685.8948136807717
 20
421.1400085831453
 30
0.0
 11
685.8948136807708
 21
421.6312844145234
 31
0.0
  0
LINE
  5
4F6
330
6C
100
AcDbEntity
  8
Visible (ANSI)
100
AcDbLine
 10
685.8948136807701
 20
421.8812844145234
 30
0.0
 11
685.8948136807695
 21
422.2652645469614
 31
0.0
  0
LINE
  5
4F7
330
6C
100
AcDbEntity
  8
Visible (ANSI)
100
AcDbLine
 10
664.2764062164355
 20
417.577764546955
 30
0.0
 11
665.6981936909993
 21
417.9249052576264
 31
0.0
  0
LINE
  5
4F8
330
6C
100
AcDbEntity
  8
Visible (ANSI)
100
AcDbLine
 10
666.7221210429768
 20
418.1749052576267
 30
0.0
 11
668.7342440874313
 21
418.6661810890055
 31
0.0
  0
LINE
  5
4F9
330
6C
100
AcDbEntity
  8
Visible (ANSI)
100
AcDbLine
 10
669.7581714394089
 20
418.9161810890058
 30
0.0
 11
671.7702944838635
 21
419.4074569203847
 31
0.0
  0
LINE
  5
4FA
330
6C
100
AcDbEntity
  8
Visible (ANSI)
100
AcDbLine
 10
672.794221835841
 20
419.6574569203849
 30
0.0
 11
674.8063448802958
 21
420.1487327517638
 31
0.0
  0
LINE
  5
4FB
330
6C
100
AcDbEntity
  8
Visible (ANSI)
100
AcDbLine
 10
675.8302722322733
 20
420.3987327517641
 30
0.0
 11
677.842395276728
 21
420.8900085831428
 31
0.0
  0
LINE
  5
4FC
330
6C
100
AcDbEntity
  8
Visible (ANSI)
100
AcDbLine
 10
678.8663226287054
 20
421.1400085831431
 30
0.0
 11
680.8784456731602
 21
421.6312844145219
 31
0.0
  0
LINE
  5
4FD
330
6C
100
AcDbEntity
  8
Visible (ANSI)
100
AcDbLine
 10
681.9023730251378
 20
421.8812844145223
 30
0.0
 11
683.9723979211972
 21
422.3866974431087
 31
0.0
  0
LINE
  5
4FE
330
6C
100
AcDbEntity
  8
Visible (ANSI)
100
AcDbLine
 10
664.3137362321002
 20
417.3295351911447
 30
0.0
 11
666.752199014576
 21
417.9249052576268
 31
0.0
  0
LINE
  5
4FF
330
6C
100
AcDbEntity
  8
Visible (ANSI)
100
AcDbLine
 10
667.7761263665536
 20
418.174905257627
 30
0.0
 11
669.7882494110079
 21
418.6661810890058
 31
0.0
  0
LINE
  5
500
330
6C
100
AcDbEntity
  8
Visible (ANSI)
100
AcDbLine
 10
670.8121767629855
 20
418.9161810890061
 30
0.0
 11
672.8242998074403
 21
419.4074569203849
 31
0.0
  0
LINE
  5
501
330
6C
100
AcDbEntity
  8
Visible (ANSI)
100
AcDbLine
 10
673.8482271594177
 20
419.6574569203852
 30
0.0
 11
675.8603502038724
 21
420.148732751764
 31
0.0
  0
LINE
  5
502
330
6C
100
AcDbEntity
  8
Visible (ANSI)
100
AcDbLine
 10
676.8842775558501
 20
420.3987327517642
 30
0.0
 11
678.8964006003046
 21
420.8900085831431
 31
0.0
  0
LINE
  5
503
330
6C
100
AcDbEntity
  8
Visible (ANSI)
100
AcDbLine
 10
679.9203279522821
 20
421.1400085831435
 30
0.0
 11
681.9324509967368
 21
421.6312844145222
 31
0.0
  0
LINE
  5
504
330
6C
100
AcDbEntity
  8
Visible (ANSI)
100
AcDbLine
 10
682.9563783487144
 20
421.8812844145226
 30
0.0
 11
684.0316955344084
 21
422.1438316508129
 31
0.0
  0
LINE
  5
505
330
6C
100
AcDbEntity
  8
Visible (ANSI)
100
AcDbLine
 10
663.2307850304555
 20
417.5777645469547
 30
0.0
 11
664.2838712900438
 21
417.577764546955
 31
0.0
  0
LINE
  5
506
330
6C
100
AcDbEntity
  8
Visible (ANSI)
100
AcDbLine
 10
655.384102551429
 20
417.5777645469524
 30
0.0
 11
657.3948136807699
 21
417.9249052576239
 31
0.0
  0
LINE
  5
507
330
6C
100
AcDbEntity
  8
Visible (ANSI)
100
AcDbLine
 10
658.8428656288218
 20
418.1749052576243
 30
0.0
 11
661.6884373274537
 21
418.6661810890035
 31
0.0
  0
LINE
  5
508
330
6C
100
AcDbEntity
  8
Visible (ANSI)
100
AcDbLine
 10
663.1364892755056
 20
418.9161810890039
 30
0.0
 11
665.9820609741376
 21
419.4074569203829
 31
0.0
  0
LINE
  5
509
330
6C
100
AcDbEntity
  8
Visible (ANSI)
100
AcDbLine
 10
667.4301129221894
 20
419.6574569203833
 30
0.0
 11
670.2756846208216
 21
420.1487327517623
 31
0.0
  0
LINE
  5
50A
330
6C
100
AcDbEntity
  8
Visible (ANSI)
100
AcDbLine
 10
671.7237365688736
 20
420.3987327517628
 30
0.0
 11
674.5693082675055
 21
420.8900085831419
 31
0.0
  0
LINE
  5
50B
330
6C
100
AcDbEntity
  8
Visible (ANSI)
100
AcDbLine
 10
676.0173602155575
 20
421.1400085831423
 30
0.0
 11
678.8629319141896
 21
421.6312844145213
 31
0.0
  0
LINE
  5
50C
330
6C
100
AcDbEntity
  8
Visible (ANSI)
100
AcDbLine
 10
680.3109838622414
 20
421.8812844145218
 30
0.0
 11
683.2485475708521
 21
422.3884422745294
 31
0.0
  0
LINE
  5
50D
330
6C
100
AcDbEntity
  8
Visible (ANSI)
100
AcDbLine
 10
655.4055248101112
 20
417.3277645469524
 30
0.0
 11
658.8642878875042
 21
417.9249052576244
 31
0.0
  0
LINE
  5
50E
330
6C
100
AcDbEntity
  8
Visible (ANSI)
100
AcDbLine
 10
660.312339835556
 20
418.1749052576249
 30
0.0
 11
663.1579115341878
 21
418.6661810890038
 31
0.0
  0
LINE
  5
50F
330
6C
100
AcDbEntity
  8
Visible (ANSI)
100
AcDbLine
 10
664.6059634822396
 20
418.9161810890042
 30
0.0
 11
667.4515351808718
 21
419.4074569203833
 31
0.0
  0
LINE
  5
510
330
6C
100
AcDbEntity
  8
Visible (ANSI)
100
AcDbLine
 10
668.8995871289237
 20
419.6574569203837
 30
0.0
 11
671.7451588275558
 21
420.1487327517628
 31
0.0
  0
LINE
  5
511
330
6C
100
AcDbEntity
  8
Visible (ANSI)
100
AcDbLine
 10
673.1932107756076
 20
420.3987327517633
 30
0.0
 11
676.0387824742398
 21
420.8900085831423
 31
0.0
  0
LINE
  5
512
330
6C
100
AcDbEntity
  8
Visible (ANSI)
100
AcDbLine
 10
677.4868344222916
 20
421.1400085831427
 30
0.0
 11
680.3324061209238
 21
421.6312844145218
 31
0.0
  0
LINE
  5
513
330
6C
100
AcDbEntity
  8
Visible (ANSI)
100
AcDbLine
 10
681.7804580689757
 20
421.8812844145222
 30
0.0
 11
682.1967017657564
 21
421.953147115536
 31
0.0
  0
LINE
  5
514
330
6C
100
AcDbEntity
  8
Visible (ANSI)
100
AcDbLine
 10
653.89481368077
 20
417.5777645469519
 30
0.0
 11
655.384102551429
 21
417.5777645469524
 31
0.0
  0
LINE
  5
515
330
6C
100
AcDbEntity
  8
Visible (ANSI)
100
AcDbLine
 10
687.4591599360236
 20
422.2027645469619
 30
0.0
 11
685.8948136807695
 21
422.2027645469615
 31
0.0
  0
LINE
  5
516
330
6C
100
AcDbEntity
  8
Visible (ANSI)
100
AcDbLine
 10
685.6448136807695
 20
422.2027645469613
 30
0.0
 11
684.080467425515
 21
422.2027645469609
 31
0.0
  0
LINE
  5
517
330
6C
100
AcDbEntity
  8
Visible (ANSI)
100
AcDbLine
 10
663.2307850304556
 20
417.3277645469546
 30
0.0
 11
653.89481368077
 21
417.327764546952
 31
0.0
  0
LINE
  5
518
330
6C
100
AcDbEntity
  8
Visible (ANSI)
100
AcDbLine
 10
685.7698136807795
 20
417.3277645469615
 30
0.0
 11
663.2307850304555
 21
417.3277645469546
 31
0.0
  0
LINE
  5
519
330
6C
100
AcDbEntity
  8
Visible (ANSI)
100
AcDbLine
 10
717.6448136807701
 20
417.3277645469709
 30
0.0
 11
708.308842331098
 21
417.3277645469681
 31
0.0
  0
LINE
  5
51A
330
6C
100
AcDbEntity
  8
Visible (ANSI)
100
AcDbLine
 10
708.308842331098
 20
417.3277645469681
 30
0.0
 11
685.7698136807796
 21
417.3277645469615
 31
0.0
  0
LINE
  5
51B
330
6C
100
AcDbEntity
  8
Visible (ANSI)
100
AcDbLine
 10
717.6448136807703
 20
417.2027645469708
 30
0.0
 11
653.8948136807703
 21
417.2027645469519
 31
0.0
  0
LINE
  5
51C
330
6C
100
AcDbEntity
  8
Visible (ANSI)
100
AcDbLine
 10
683.7310259040089
 20
422.3277645469608
 30
0.0
 11
683.2698136807687
 21
422.3277645469607
 31
0.0
  0
LINE
  5
51D
330
6C
100
AcDbEntity
  8
Visible (ANSI)
100
AcDbLine
 10
685.6620996233854
 20
422.3277645469615
 30
0.0
 11
684.0705821323687
 21
422.3277645469609
 31
0.0
  0
LINE
  5
51E
330
6C
100
AcDbEntity
  8
Visible (ANSI)
100
AcDbLine
 10
687.4690452291698
 20
422.327764546962
 30
0.0
 11
685.8775277381536
 21
422.3277645469615
 31
0.0
  0
LINE
  5
51F
330
6C
100
AcDbEntity
  8
Visible (ANSI)
100
AcDbLine
 10
688.2698136807688
 20
422.3277645469622
 30
0.0
 11
687.8086014575294
 21
422.3277645469621
 31
0.0
  0
LINE
  5
520
330
6C
100
AcDbEntity
  8
Visible (ANSI)
100
AcDbLine
 10
655.2698136807704
 20
416.3277645469523
 30
0.0
 11
655.2698136807702
 21
417.2027645469523
 31
0.0
  0
LINE
  5
521
330
6C
100
AcDbEntity
  8
Visible (ANSI)
100
AcDbLine
 10
716.2698136807732
 20
406.8277645469704
 30
0.0
 11
716.2698136807701
 21
417.2027645469705
 31
0.0
  0
LINE
  5
522
330
6C
100
AcDbEntity
  8
Visible (ANSI)
100
AcDbLine
 10
653.8948136807703
 20
417.2027645469519
 30
0.0
 11
653.89481368077
 21
417.327764546952
 31
0.0
  0
LINE
  5
523
330
6C
100
AcDbEntity
  8
Visible (ANSI)
100
AcDbLine
 10
717.6448136807701
 20
417.2027645469709
 30
0.0
 11
717.6448136807701
 21
417.3277645469709
 31
0.0
  0
LINE
  5
524
330
6C
100
AcDbEntity
  8
Visible (ANSI)
100
AcDbLine
 10
683.2698136807687
 20
422.2652645469607
 30
0.0
 11
683.2698136807687
 21
422.3277645469607
 31
0.0
  0
LINE
  5
525
330
6C
100
AcDbEntity
  8
Visible (ANSI)
100
AcDbLine
 10
688.2698136807688
 20
422.2652645469621
 30
0.0
 11
688.2698136807686
 21
422.3277645469621
 31
0.0
  0
LINE
  5
526
330
6C
100
AcDbEntity
  8
Visible (ANSI)
100
AcDbLine
 10
688.2667515955664
 20
422.2475283131927
 30
0.0
 11
688.2910797906854
 21
422.3884422745309
 31
0.0
  0
SPLINE
  5
527
330
6C
100
AcDbEntity
  8
Visible (ANSI)
100
AcDbSpline
210
0.0
220
0.0
230
1.0
 70
     8
 71
     3
 72
    10
 73
     6
 74
     0
 42
0.0000000001
 43
0.0000000001
 40
-0.1250028004331544
 40
-0.1250028004331544
 40
-0.1250028004331544
 40
-0.1250028004331544
 40
-0.1218855853352692
 40
-0.1218855853352692
 40
-0.0455840251922897
 40
-0.0455840251922897
 40
-0.0455840251922897
 40
-0.0455840251922897
 10
688.2671712548616
 20
422.2158010973731
 30
0.0
 10
688.2671635034831
 20
422.2162017243896
 30
0.0
 10
688.267155828454
 20
422.2166032120711
 30
0.0
 10
688.2669622879649
 20
422.2268531731561
 30
0.0
 10
688.2668247236964
 20
422.2372205822908
 30
0.0
 10
688.2667515955664
 20
422.2475283131927
 30
0.0
  0
LINE
  5
528
330
6C
100
AcDbEntity
  8
Visible (ANSI)
100
AcDbLine
 10
716.1448136807702
 20
417.4527645469703
 30
0.0
 11
716.1555248101111
 21
417.5777645469704
 31
0.0
  0
LINE
  5
529
330
6C
100
AcDbEntity
  8
Visible (ANSI)
100
AcDbLine
 10
716.1448136807702
 20
417.4527645469705
 30
0.0
 11
716.1341025514291
 21
417.3277645469704
 31
0.0
  0
LINE
  5
52A
330
6C
100
AcDbEntity
  8
Visible (ANSI)
100
AcDbLine
 10
717.6448136807701
 20
417.3277645469709
 30
0.0
 11
717.6448136807701
 21
417.5777645469708
 31
0.0
  0
LINE
  5
52B
330
6C
100
AcDbEntity
  8
Visible (ANSI)
100
AcDbLine
 10
716.1341025514291
 20
417.3277645469704
 30
0.0
 11
712.6753394740358
 21
417.9249052576404
 31
0.0
  0
LINE
  5
52C
330
6C
100
AcDbEntity
  8
Visible (ANSI)
100
AcDbLine
 10
711.2272875259837
 20
418.1749052576399
 30
0.0
 11
708.3817158273517
 21
418.6661810890172
 31
0.0
  0
LINE
  5
52D
330
6C
100
AcDbEntity
  8
Visible (ANSI)
100
AcDbLine
 10
706.9336638792996
 20
418.9161810890168
 30
0.0
 11
704.0880921806673
 21
419.4074569203942
 31
0.0
  0
LINE
  5
52E
330
6C
100
AcDbEntity
  8
Visible (ANSI)
100
AcDbLine
 10
702.6400402326152
 20
419.6574569203937
 30
0.0
 11
699.7944685339827
 21
420.1487327517711
 31
0.0
  0
LINE
  5
52F
330
6C
100
AcDbEntity
  8
Visible (ANSI)
100
AcDbLine
 10
698.3464165859309
 20
420.3987327517706
 30
0.0
 11
695.5008448872985
 21
420.890008583148
 31
0.0
  0
LINE
  5
530
330
6C
100
AcDbEntity
  8
Visible (ANSI)
100
AcDbLine
 10
694.0527929392463
 20
421.1400085831477
 30
0.0
 11
691.207221240614
 21
421.631284414525
 31
0.0
  0
LINE
  5
531
330
6C
100
AcDbEntity
  8
Visible (ANSI)
100
AcDbLine
 10
689.759169292562
 20
421.8812844145246
 30
0.0
 11
689.3429255957812
 21
421.9531471155382
 31
0.0
  0
LINE
  5
532
330
6C
100
AcDbEntity
  8
Visible (ANSI)
100
AcDbLine
 10
716.1555248101111
 20
417.5777645469704
 30
0.0
 11
714.14481368077
 21
417.9249052576408
 31
0.0
  0
LINE
  5
533
330
6C
100
AcDbEntity
  8
Visible (ANSI)
100
AcDbLine
 10
712.696761732718
 20
418.1749052576404
 30
0.0
 11
709.8511900340858
 21
418.6661810890177
 31
0.0
  0
LINE
  5
534
330
6C
100
AcDbEntity
  8
Visible (ANSI)
100
AcDbLine
 10
708.4031380860339
 20
418.9161810890173
 30
0.0
 11
705.5575663874015
 21
419.4074569203946
 31
0.0
  0
LINE
  5
535
330
6C
100
AcDbEntity
  8
Visible (ANSI)
100
AcDbLine
 10
704.1095144393493
 20
419.6574569203942
 30
0.0
 11
701.2639427407171
 21
420.1487327517716
 31
0.0
  0
LINE
  5
536
330
6C
100
AcDbEntity
  8
Visible (ANSI)
100
AcDbLine
 10
699.8158907926651
 20
420.3987327517712
 30
0.0
 11
696.9703190940325
 21
420.8900085831485
 31
0.0
  0
LINE
  5
537
330
6C
100
AcDbEntity
  8
Visible (ANSI)
100
AcDbLine
 10
695.5222671459806
 20
421.1400085831481
 30
0.0
 11
692.6766954473483
 21
421.6312844145255
 31
0.0
  0
LINE
  5
538
330
6C
100
AcDbEntity
  8
Visible (ANSI)
100
AcDbLine
 10
691.2286434992961
 20
421.881284414525
 30
0.0
 11
688.2910797906852
 21
422.3884422745309
 31
0.0
  0
LINE
  5
539
330
6C
100
AcDbEntity
  8
Visible (ANSI)
100
AcDbLine
 10
717.6448136807701
 20
417.5777645469708
 30
0.0
 11
716.1555248101111
 21
417.5777645469704
 31
0.0
  0
LINE
  5
53A
330
6C
100
AcDbEntity
  8
Visible (ANSI)
100
AcDbLine
 10
717.5823136807837
 20
406.8277645469708
 30
0.0
 11
661.4573136807838
 21
406.8277645469542
 31
0.0
  0
LINE
  5
53B
330
6C
100
AcDbEntity
  8
Visible (ANSI)
100
AcDbLine
 10
717.5823136808011
 20
348.2027645469709
 30
0.0
 11
717.5823136807837
 21
406.8277645469708
 31
0.0
  0
LINE
  5
53C
330
6C
100
AcDbEntity
  8
Visible (ANSI)
100
AcDbLine
 10
661.4573136808011
 20
348.2027645469543
 30
0.0
 11
661.4573136807838
 21
406.8277645469542
 31
0.0
  0
LINE
  5
53D
330
6C
100
AcDbEntity
  8
Visible (ANSI)
100
AcDbLine
 10
661.4573136808011
 20
348.2027645469543
 30
0.0
 11
717.5823136808011
 21
348.2027645469709
 31
0.0
  0
ARC
  5
53E
330
6C
100
AcDbEntity
  8
Visible (ANSI)
100
AcDbCircle
 10
692.6874065766891
 20
421.7562844145255
 30
0.0
 40
0.125
100
AcDbArc
 50
270.0
 51
90.0
  0
ARC
  5
53F
330
6C
100
AcDbEntity
  8
Visible (ANSI)
100
AcDbCircle
 10
678.8522207848487
 20
421.7562844145214
 30
0.0
 40
0.125
100
AcDbArc
 50
90.0
 51
270.0
  0
LINE
  5
540
330
6C
100
AcDbEntity
  8
Visible (ANSI)
100
AcDbLine
 10
692.6874065766891
 20
421.8812844145254
 30
0.0
 11
678.8522207848487
 21
421.8812844145213
 31
0.0
  0
LINE
  5
541
330
6C
100
AcDbEntity
  8
Visible (ANSI)
100
AcDbLine
 10
678.8522207848487
 20
421.6312844145214
 30
0.0
 11
692.6874065766891
 21
421.6312844145255
 31
0.0
  0
ARC
  5
542
330
6C
100
AcDbEntity
  8
Visible (ANSI)
100
AcDbCircle
 10
696.9810302233735
 20
421.0150085831485
 30
0.0
 40
0.125
100
AcDbArc
 50
270.0
 51
90.0
  0
ARC
  5
543
330
6C
100
AcDbEntity
  8
Visible (ANSI)
100
AcDbCircle
 10
674.5585971381647
 20
421.0150085831418
 30
0.0
 40
0.125
100
AcDbArc
 50
90.0
 51
270.0
  0
LINE
  5
544
330
6C
100
AcDbEntity
  8
Visible (ANSI)
100
AcDbLine
 10
696.9810302233735
 20
421.1400085831486
 30
0.0
 11
674.5585971381646
 21
421.1400085831419
 31
0.0
  0
LINE
  5
545
330
6C
100
AcDbEntity
  8
Visible (ANSI)
100
AcDbLine
 10
674.5585971381647
 20
420.8900085831419
 30
0.0
 11
696.9810302233736
 21
420.8900085831485
 31
0.0
  0
ARC
  5
546
330
6C
100
AcDbEntity
  8
Visible (ANSI)
100
AcDbCircle
 10
701.2746538700578
 20
420.2737327517716
 30
0.0
 40
0.125
100
AcDbArc
 50
270.0
 51
90.0
  0
ARC
  5
547
330
6C
100
AcDbEntity
  8
Visible (ANSI)
100
AcDbCircle
 10
670.2649734914807
 20
420.2737327517623
 30
0.0
 40
0.125
100
AcDbArc
 50
90.0
 51
270.0
  0
LINE
  5
548
330
6C
100
AcDbEntity
  8
Visible (ANSI)
100
AcDbLine
 10
701.2746538700578
 20
420.3987327517715
 30
0.0
 11
670.2649734914807
 21
420.3987327517624
 31
0.0
  0
LINE
  5
549
330
6C
100
AcDbEntity
  8
Visible (ANSI)
100
AcDbLine
 10
670.2649734914807
 20
420.1487327517623
 30
0.0
 11
701.2746538700578
 21
420.1487327517716
 31
0.0
  0
ARC
  5
54A
330
6C
100
AcDbEntity
  8
Visible (ANSI)
100
AcDbCircle
 10
705.5682775167423
 20
419.5324569203946
 30
0.0
 40
0.125
100
AcDbArc
 50
270.0
 51
90.0
  0
ARC
  5
54B
330
6C
100
AcDbEntity
  8
Visible (ANSI)
100
AcDbCircle
 10
665.9713498447968
 20
419.5324569203829
 30
0.0
 40
0.125
100
AcDbArc
 50
90.0
 51
270.0
  0
LINE
  5
54C
330
6C
100
AcDbEntity
  8
Visible (ANSI)
100
AcDbLine
 10
705.5682775167422
 20
419.6574569203947
 30
0.0
 11
665.9713498447967
 21
419.6574569203829
 31
0.0
  0
LINE
  5
54D
330
6C
100
AcDbEntity
  8
Visible (ANSI)
100
AcDbLine
 10
665.9713498447968
 20
419.4074569203829
 30
0.0
 11
705.5682775167423
 21
419.4074569203946
 31
0.0
  0
ARC
  5
54E
330
6C
100
AcDbEntity
  8
Visible (ANSI)
100
AcDbCircle
 10
709.8619011634268
 20
418.7911810890177
 30
0.0
 40
0.125
100
AcDbArc
 50
270.0
 51
90.0
  0
ARC
  5
54F
330
6C
100
AcDbEntity
  8
Visible (ANSI)
100
AcDbCircle
 10
661.6777261981128
 20
418.7911810890033
 30
0.0
 40
0.125
100
AcDbArc
 50
90.0
 51
270.0
  0
LINE
  5
550
330
6C
100
AcDbEntity
  8
Visible (ANSI)
100
AcDbLine
 10
709.8619011634268
 20
418.9161810890176
 30
0.0
 11
661.6777261981127
 21
418.9161810890034
 31
0.0
  0
LINE
  5
551
330
6C
100
AcDbEntity
  8
Visible (ANSI)
100
AcDbLine
 10
661.6777261981127
 20
418.6661810890035
 30
0.0
 11
709.8619011634268
 21
418.6661810890177
 31
0.0
  0
ARC
  5
552
330
6C
100
AcDbEntity
  8
Visible (ANSI)
100
AcDbCircle
 10
714.155524810111
 20
418.0499052576408
 30
0.0
 40
0.125
100
AcDbArc
 50
270.0
 51
90.0
  0
ARC
  5
553
330
6C
100
AcDbEntity
  8
Visible (ANSI)
100
AcDbCircle
 10
657.3841025514289
 20
418.0499052576239
 30
0.0
 40
0.125
100
AcDbArc
 50
90.0
 51
270.0
  0
LINE
  5
554
330
6C
100
AcDbEntity
  8
Visible (ANSI)
100
AcDbLine
 10
714.155524810111
 20
418.1749052576408
 30
0.0
 11
657.3841025514289
 21
418.174905257624
 31
0.0
  0
LINE
  5
555
330
6C
100
AcDbEntity
  8
Visible (ANSI)
100
AcDbLine
 10
657.3841025514289
 20
417.9249052576239
 30
0.0
 11
714.155524810111
 21
417.9249052576408
 31
0.0
  0
MTEXT
  5
556
330
6C
100
AcDbEntity
  8
Symbol (ANSI)
100
AcDbMText
 10
614.3349752539172
 20
216.4840070592729
 30
0.0
 40
12.49999981226883
 41
0.0
 71
     7
 72
     1
  1
Left Hand End
  7
Label Text (ANSI)
 73
     1
 44
1.0
  0
LINE
  5
557
330
6C
100
AcDbEntity
  8
Visible (ANSI)
100
AcDbLine
 10
961.7950293355454
 20
344.2027645469549
 30
0.0
 11
956.5450293355453
 21
344.2027645469549
 31
0.0
  0
LINE
  5
558
330
6C
100
AcDbEntity
  8
Visible (ANSI)
100
AcDbLine
 10
956.5450293355453
 20
352.2027645469549
 30
0.0
 11
961.7950293355454
 21
352.2027645469549
 31
0.0
  0
LINE
  5
559
330
6C
100
AcDbEntity
  8
Visible (ANSI)
100
AcDbLine
 10
956.5450293355453
 20
344.2027645469549
 30
0.0
 11
956.5450293355453
 21
352.2027645469549
 31
0.0
  0
LINE
  5
55A
330
6C
100
AcDbEntity
  8
Visible (ANSI)
100
AcDbLine
 10
961.7950293355454
 20
344.2027645469549
 30
0.0
 11
961.7950293355454
 21
352.2027645469549
 31
0.0
  0
LINE
  5
55B
330
6C
100
AcDbEntity
  8
Visible (ANSI)
100
AcDbLine
 10
961.4200293355454
 20
289.327764546955
 30
0.0
 11
956.9200293355454
 21
289.327764546955
 31
0.0
  0
LINE
  5
55C
330
6C
100
AcDbEntity
  8
Visible (ANSI)
100
AcDbLine
 10
957.4200293355454
 20
283.327764546955
 30
0.0
 11
960.9200293355455
 21
283.327764546955
 31
0.0
  0
LINE
  5
55D
330
6C
100
AcDbEntity
  8
Visible (ANSI)
100
AcDbLine
 10
957.4200293355454
 20
283.327764546955
 30
0.0
 11
956.9200293355454
 21
289.327764546955
 31
0.0
  0
LINE
  5
55E
330
6C
100
AcDbEntity
  8
Visible (ANSI)
100
AcDbLine
 10
960.9200293355453
 20
283.327764546955
 30
0.0
 11
961.4200293355454
 21
289.327764546955
 31
0.0
  0
LINE
  5
55F
330
6C
100
AcDbEntity
  8
Visible (ANSI)
100
AcDbLine
 10
956.9200293355454
 20
289.327764546955
 30
0.0
 11
956.9200293355454
 21
344.2027645469549
 31
0.0
  0
LINE
  5
560
330
6C
100
AcDbEntity
  8
Visible (ANSI)
100
AcDbLine
 10
961.4200293355454
 20
289.327764546955
 30
0.0
 11
961.4200293355454
 21
344.2027645469549
 31
0.0
  0
SPLINE
  5
561
330
6C
100
AcDbEntity
  8
Visible (ANSI)
100
AcDbSpline
210
0.0
220
0.0
230
1.0
 70
     8
 71
     3
 72
    10
 73
     6
 74
     0
 42
0.0000000001
 43
0.0000000001
 40
-1.596556632163478
 40
-1.596556632163478
 40
-1.596556632163478
 40
-1.596556632163478
 40
-1.117460312771309
 40
-1.117460312771309
 40
-0.7986542096911342
 40
-0.7986542096911342
 40
-0.7986542096911342
 40
-0.7986542096911342
 10
965.8848730855455
 20
251.3277645469552
 30
0.0
 10
965.8741813791804
 20
251.3440566709398
 30
0.0
 10
965.8664456569512
 20
251.3557740582864
 30
0.0
 10
965.859020960646
 20
251.3670134695668
 30
0.0
 10
965.8575301507573
 20
251.3692677316777
 30
0.0
 10
965.8575298244988
 20
251.3692675102684
 30
0.0
  0
LINE
  5
562
330
6C
100
AcDbEntity
  8
Visible (ANSI)
100
AcDbLine
 10
957.4200293355454
 20
268.2505459211936
 30
0.0
 11
957.4200293355454
 21
283.327764546955
 31
0.0
  0
LINE
  5
563
330
6C
100
AcDbEntity
  8
Visible (ANSI)
100
AcDbLine
 10
960.9200293355453
 20
268.2505459211936
 30
0.0
 11
960.9200293355453
 21
283.327764546955
 31
0.0
  0
ARC
  5
564
330
6C
100
AcDbEntity
  8
Visible (ANSI)
100
AcDbCircle
 10
965.1700293355453
 20
268.2505459211936
 30
0.0
 40
7.749999999999978
100
AcDbArc
 50
180.0
 51
224.9999999999999
  0
ARC
  5
565
330
6C
100
AcDbEntity
  8
Visible (ANSI)
100
AcDbCircle
 10
965.1700293355453
 20
268.2505459211936
 30
0.0
 40
4.249999999999995
100
AcDbArc
 50
180.0
 51
225.0
  0
LINE
  5
566
330
6C
100
AcDbEntity
  8
Visible (ANSI)
100
AcDbLine
 10
964.6127331555883
 20
257.8476869927593
 30
0.0
 11
959.6899517813497
 21
262.7704683669978
 31
0.0
  0
LINE
  5
567
330
6C
100
AcDbEntity
  8
Visible (ANSI)
100
AcDbLine
 10
967.087606889741
 20
260.3225607269122
 30
0.0
 11
962.1648255155024
 21
265.2453421011507
 31
0.0
  0
ARC
  5
568
330
6C
100
AcDbEntity
  8
Visible (ANSI)
100
AcDbCircle
 10
961.6075293355454
 20
254.8424831727165
 30
0.0
 40
7.749999999999976
100
AcDbArc
 50
0.0
 51
44.99999999999982
  0
ARC
  5
569
330
6C
100
AcDbEntity
  8
Visible (ANSI)
100
AcDbCircle
 10
961.6075293355454
 20
254.8424831727165
 30
0.0
 40
4.249999999999993
100
AcDbArc
 50
0.0
 51
45.0
  0
LINE
  5
56A
330
6C
100
AcDbEntity
  8
Visible (ANSI)
100
AcDbLine
 10
965.8575293355452
 20
251.3692671690842
 30
0.0
 11
965.8575293355452
 21
254.8424831727165
 31
0.0
  0
LINE
  5
56B
330
6C
100
AcDbEntity
  8
Visible (ANSI)
100
AcDbLine
 10
969.3575293355452
 20
251.327764546955
 30
0.0
 11
969.3575293355452
 21
254.8424831727165
 31
0.0
  0
SPLINE
  5
56C
330
6C
100
AcDbEntity
  8
Visible (ANSI)
100
AcDbSpline
210
0.0
220
0.0
230
1.0
 70
     8
 71
     3
 72
    16
 73
    12
 74
     0
 42
0.0000000001
 43
0.0000000001
 40
-13.72687629665747
 40
-13.72687629665747
 40
-13.72687629665747
 40
-13.72687629665747
 40
-13.68762511994174
 40
-13.68762511994174
 40
-10.83240767290653
 40
-10.83240767290653
 40
-7.697198976956468
 40
-7.697198976956468
 40
-4.530958710601757
 40
-4.530958710601757
 40
-4.045130731370959
 40
-4.045130731370959
 40
-4.045130731370959
 40
-4.045130731370959
 10
967.6075293355463
 20
246.0777645469556
 30
0.0
 10
967.6075293355463
 20
246.0841319719428
 30
0.0
 10
967.607521733457
 20
246.0904994172322
 30
0.0
 10
967.6064005578224
 20
246.5600460867055
 30
0.0
 10
967.5648102488862
 20
247.0209413926222
 30
0.0
 10
967.3984760398907
 20
247.9733722907955
 30
0.0
 10
967.2667216130237
 20
248.4593356523493
 30
0.0
 10
966.9317311733252
 20
249.3998247201537
 30
0.0
 10
966.7439428403966
 20
249.8117947545233
 30
0.0
 10
966.5350362438017
 20
250.22057114628
 30
0.0
 10
966.5069051434944
 20
250.2745277319936
 30
0.0
 10
966.4786230855561
 20
250.3277645469367
 30
0.0
  0
LINE
  5
56D
330
6C
100
AcDbEntity
  8
Visible (ANSI)
100
AcDbLine
 10
969.3575293355452
 20
250.327764546955
 30
0.0
 11
969.3575293355452
 21
246.077764546955
 31
0.0
  0
SPLINE
  5
56E
330
6C
100
AcDbEntity
  8
Visible (ANSI)
100
AcDbSpline
210
0.0
220
0.0
230
1.0
 70
     8
 71
     3
 72
    10
 73
     6
 74
     0
 42
0.0000000001
 43
0.0000000001
 40
-3.48972252087766
 40
-3.48972252087766
 40
-3.48972252087766
 40
-3.48972252087766
 40
-1.420578840001824
 40
-1.420578840001824
 40
0.0
 40
0.0
 40
0.0
 40
0.0
 10
966.0226846118758
 20
250.3277645469555
 30
0.0
 10
965.9313799566985
 20
250.5670156293726
 30
0.0
 10
965.8263275938365
 20
250.7924187304623
 30
0.0
 10
965.6602017972367
 20
251.1170026383105
 30
0.0
 10
965.5950945326512
 20
251.234771359525
 30
0.0
 10
965.5419129522735
 20
251.3277645469552
 30
0.0
  0
LINE
  5
56F
330
6C
100
AcDbEntity
  8
Visible (ANSI)
100
AcDbLine
 10
969.7950293355452
 20
250.327764546955
 30
0.0
 11
966.0226846118758
 21
250.3277645469555
 31
0.0
  0
LINE
  5
570
330
6C
100
AcDbEntity
  8
Visible (ANSI)
100
AcDbLine
 10
965.5419129522735
 20
251.3277645469552
 30
0.0
 11
969.7950293355452
 21
251.327764546955
 31
0.0
  0
LINE
  5
571
330
6C
100
AcDbEntity
  8
Visible (ANSI)
100
AcDbLine
 10
969.7950293355452
 20
251.327764546955
 30
0.0
 11
969.7950293355452
 21
250.327764546955
 31
0.0
  0
ARC
  5
572
330
6C
100
AcDbEntity
  8
Visible (ANSI)
100
AcDbCircle
 10
963.6075293355558
 20
246.0777645469604
 30
0.0
 40
2.249999999999997
100
AcDbArc
 50
270.0
 51
90.0
  0
LINE
  5
573
330
6C
100
AcDbEntity
  8
Visible (ANSI)
100
AcDbLine
 10
963.6075293355558
 20
248.3277645469604
 30
0.0
 11
958.6075293355589
 21
248.3277645469618
 31
0.0
  0
LINE
  5
574
330
6C
100
AcDbEntity
  8
Visible (ANSI)
100
AcDbLine
 10
958.6075293355589
 20
243.8277645469619
 30
0.0
 11
963.6075293355558
 21
243.8277645469604
 31
0.0
  0
LINE
  5
575
330
6C
100
AcDbEntity
  8
Visible (ANSI)
100
AcDbLine
 10
954.982529335559
 20
248.3277645469619
 30
0.0
 11
958.6075293355591
 21
248.3277645469619
 31
0.0
  0
LINE
  5
576
330
6C
100
AcDbEntity
  8
Visible (ANSI)
100
AcDbLine
 10
954.982529335559
 20
243.8277645469619
 30
0.0
 11
958.6075293355591
 21
243.8277645469619
 31
0.0
  0
LINE
  5
577
330
6C
100
AcDbEntity
  8
Visible (ANSI)
100
AcDbLine
 10
953.2325293355773
 20
302.327764546971
 30
0.0
 11
886.2325293355777
 21
302.327764546971
 31
0.0
  0
LINE
  5
578
330
6C
100
AcDbEntity
  8
Visible (ANSI)
100
AcDbLine
 10
886.2325293355777
 20
302.327764546971
 30
0.0
 11
886.2325293355777
 21
332.9527645469709
 31
0.0
  0
LINE
  5
579
330
6C
100
AcDbEntity
  8
Visible (ANSI)
100
AcDbLine
 10
953.2325293355773
 20
332.9527645469709
 30
0.0
 11
953.2325293355773
 21
302.327764546971
 31
0.0
  0
LINE
  5
57A
330
6C
100
AcDbEntity
  8
Visible (ANSI)
100
AcDbLine
 10
886.2325293355777
 20
332.9527645469709
 30
0.0
 11
953.2325293355773
 21
332.9527645469709
 31
0.0
  0
LINE
  5
57B
330
6C
100
AcDbEntity
  8
Visible (ANSI)
100
AcDbLine
 10
886.2325293355777
 20
347.452764546971
 30
0.0
 11
953.2325293355773
 21
347.4527645469709
 31
0.0
  0
LINE
  5
57C
330
6C
100
AcDbEntity
  8
Visible (ANSI)
100
AcDbLine
 10
953.2325293355773
 20
334.4527645469709
 30
0.0
 11
886.2325293355777
 21
334.452764546971
 31
0.0
  0
LINE
  5
57D
330
6C
100
AcDbEntity
  8
Visible (ANSI)
100
AcDbLine
 10
886.2325293355777
 20
300.827764546971
 30
0.0
 11
953.2325293355773
 21
300.827764546971
 31
0.0
  0
LINE
  5
57E
330
6C
100
AcDbEntity
  8
Visible (ANSI)
100
AcDbLine
 10
953.2325293355773
 20
260.827764546971
 30
0.0
 11
886.2325293355777
 21
260.827764546971
 31
0.0
  0
LINE
  5
57F
330
6C
100
AcDbEntity
  8
Visible (ANSI)
100
AcDbLine
 10
886.2325293355777
 20
259.327764546971
 30
0.0
 11
953.2325293355773
 21
259.327764546971
 31
0.0
  0
LINE
  5
580
330
6C
100
AcDbEntity
  8
Visible (ANSI)
100
AcDbLine
 10
953.2325293355773
 20
347.4527645469709
 30
0.0
 11
953.2325293355773
 21
334.4527645469709
 31
0.0
  0
LINE
  5
581
330
6C
100
AcDbEntity
  8
Visible (ANSI)
100
AcDbLine
 10
886.2325293355777
 20
334.452764546971
 30
0.0
 11
886.2325293355777
 21
347.452764546971
 31
0.0
  0
LINE
  5
582
330
6C
100
AcDbEntity
  8
Visible (ANSI)
100
AcDbLine
 10
953.2325293355773
 20
300.827764546971
 30
0.0
 11
953.2325293355773
 21
260.827764546971
 31
0.0
  0
LINE
  5
583
330
6C
100
AcDbEntity
  8
Visible (ANSI)
100
AcDbLine
 10
886.2325293355777
 20
260.827764546971
 30
0.0
 11
886.2325293355777
 21
300.827764546971
 31
0.0
  0
LINE
  5
584
330
6C
100
AcDbEntity
  8
Visible (ANSI)
100
AcDbLine
 10
953.2325293355773
 20
259.327764546971
 30
0.0
 11
953.2325293355773
 21
240.8277645469711
 31
0.0
  0
LINE
  5
585
330
6C
100
AcDbEntity
  8
Visible (ANSI)
100
AcDbLine
 10
886.2325293355777
 20
240.8277645469711
 30
0.0
 11
886.2325293355777
 21
259.327764546971
 31
0.0
  0
LINE
  5
586
330
6C
100
AcDbEntity
  8
Visible (ANSI)
100
AcDbLine
 10
954.9825293355773
 20
240.8277645469711
 30
0.0
 11
954.9825293355773
 21
348.2027645469709
 31
0.0
  0
LINE
  5
587
330
6C
100
AcDbEntity
  8
Visible (ANSI)
100
AcDbLine
 10
884.4825293355777
 20
348.202764546971
 30
0.0
 11
884.4825293355777
 21
240.8277645469711
 31
0.0
  0
LINE
  5
588
330
6C
100
AcDbEntity
  8
Visible (ANSI)
100
AcDbLine
 10
955.6075293355776
 20
240.8277645469712
 30
0.0
 11
883.8575293355779
 21
240.8277645469713
 31
0.0
  0
LINE
  5
589
330
6C
100
AcDbEntity
  8
Visible (ANSI)
100
AcDbLine
 10
955.6075293355776
 20
240.0777645469712
 30
0.0
 11
955.6075293355776
 21
240.8277645469712
 31
0.0
  0
LINE
  5
58A
330
6C
100
AcDbEntity
  8
Visible (ANSI)
100
AcDbLine
 10
883.8575293355779
 20
240.0777645469712
 30
0.0
 11
883.8575293355779
 21
240.8277645469713
 31
0.0
  0
LINE
  5
58B
330
6C
100
AcDbEntity
  8
Visible (ANSI)
100
AcDbLine
 10
883.8575293355779
 20
240.0777645469712
 30
0.0
 11
955.6075293355776
 21
240.0777645469712
 31
0.0
  0
ARC
  5
58C
330
6C
100
AcDbEntity
  8
Visible (ANSI)
100
AcDbCircle
 10
963.6075293355476
 20
246.0777645469562
 30
0.0
 40
2.749999999999991
100
AcDbArc
 50
234.9031987724156
 51
125.0968012275839
  0
ARC
  5
58D
330
6C
100
AcDbEntity
  8
Visible (ANSI)
100
AcDbCircle
 10
963.6075293355453
 20
246.077764546955
 30
0.0
 40
5.749999999999992
100
AcDbArc
 50
203.0356841059413
 51
0.0
  0
ARC
  5
58E
330
6C
100
AcDbEntity
  8
Visible (ANSI)
100
AcDbCircle
 10
963.6075293355453
 20
246.077764546955
 30
0.0
 40
5.749999999999991
100
AcDbArc
 50
66.96431589405865
 51
156.9643158940587
  0
LINE
  5
58F
330
6C
100
AcDbEntity
  8
Visible (ANSI)
100
AcDbLine
 10
962.4825293355455
 20
404.3277645469548
 30
0.0
 11
955.8575293355454
 21
404.3277645469548
 31
0.0
  0
LINE
  5
590
330
6C
100
AcDbEntity
  8
Visible (ANSI)
100
AcDbLine
 10
956.9200293355454
 20
398.3277645469549
 30
0.0
 11
961.4200293355454
 21
398.3277645469549
 31
0.0
  0
LINE
  5
591
330
6C
100
AcDbEntity
  8
Visible (ANSI)
100
AcDbLine
 10
956.9200293355454
 20
398.3277645469549
 30
0.0
 11
955.8575293355456
 21
404.3277645469548
 31
0.0
  0
LINE
  5
592
330
6C
100
AcDbEntity
  8
Visible (ANSI)
100
AcDbLine
 10
961.4200293355454
 20
398.3277645469549
 30
0.0
 11
962.4825293355455
 21
404.3277645469548
 31
0.0
  0
LINE
  5
593
330
6C
100
AcDbEntity
  8
Visible (ANSI)
100
AcDbLine
 10
951.482529335545
 20
416.3277645469546
 30
0.0
 11
951.482529335545
 21
406.8277645469546
 31
0.0
  0
LINE
  5
594
330
6C
100
AcDbEntity
  8
Visible (ANSI)
100
AcDbLine
 10
887.98252933554
 20
416.3277645469523
 30
0.0
 11
889.23252933554
 21
416.3277645469523
 31
0.0
  0
LINE
  5
595
330
6C
100
AcDbEntity
  8
Visible (ANSI)
100
AcDbLine
 10
950.2325293355401
 20
416.3277645469523
 30
0.0
 11
951.4825293355402
 21
416.3277645469523
 31
0.0
  0
LINE
  5
596
330
6C
100
AcDbEntity
  8
Visible (ANSI)
100
AcDbLine
 10
887.9825293355448
 20
406.8277645469546
 30
0.0
 11
887.9825293355448
 21
416.3277645469547
 31
0.0
  0
LINE
  5
597
330
6C
100
AcDbEntity
  8
Visible (ANSI)
100
AcDbLine
 10
887.9825293355448
 20
416.3277645469547
 30
0.0
 11
884.4825293355448
 21
416.3277645469547
 31
0.0
  0
LINE
  5
598
330
6C
100
AcDbEntity
  8
Visible (ANSI)
100
AcDbLine
 10
884.4825293355448
 20
406.8277645469546
 30
0.0
 11
884.4825293355448
 21
416.3277645469547
 31
0.0
  0
LINE
  5
599
330
6C
100
AcDbEntity
  8
Visible (ANSI)
100
AcDbLine
 10
954.9825293355448
 20
406.8277645469546
 30
0.0
 11
954.9825293355448
 21
408.3277645469546
 31
0.0
  0
LINE
  5
59A
330
6C
100
AcDbEntity
  8
Visible (ANSI)
100
AcDbLine
 10
954.9825293355448
 20
416.3277645469546
 30
0.0
 11
951.482529335545
 21
416.3277645469546
 31
0.0
  0
LINE
  5
59B
330
6C
100
AcDbEntity
  8
Visible (ANSI)
100
AcDbLine
 10
965.357529335548
 20
410.3277645469561
 30
0.0
 11
963.3575293355479
 21
408.3277645469562
 31
0.0
  0
LINE
  5
59C
330
6C
100
AcDbEntity
  8
Visible (ANSI)
100
AcDbLine
 10
954.982529335548
 20
408.3277645469561
 30
0.0
 11
963.3575293355479
 21
408.3277645469562
 31
0.0
  0
LINE
  5
59D
330
6C
100
AcDbEntity
  8
Visible (ANSI)
100
AcDbLine
 10
965.357529335548
 20
416.3277645469561
 30
0.0
 11
965.357529335548
 21
410.3277645469561
 31
0.0
  0
LINE
  5
59E
330
6C
100
AcDbEntity
  8
Visible (ANSI)
100
AcDbLine
 10
954.982529335548
 20
416.3277645469561
 30
0.0
 11
965.357529335548
 21
416.3277645469561
 31
0.0
  0
LINE
  5
59F
330
6C
100
AcDbEntity
  8
Visible (ANSI)
100
AcDbLine
 10
954.982529335548
 20
416.3277645469561
 30
0.0
 11
954.982529335548
 21
408.3277645469561
 31
0.0
  0
LINE
  5
5A0
330
6C
100
AcDbEntity
  8
Visible (ANSI)
100
AcDbLine
 10
968.9825293355301
 20
362.5777645469471
 30
0.0
 11
968.9825293355301
 21
358.0777645469471
 31
0.0
  0
LINE
  5
5A1
330
6C
100
AcDbEntity
  8
Visible (ANSI)
100
AcDbLine
 10
968.9825293355301
 20
405.0777645469471
 30
0.0
 11
968.9825293355301
 21
400.5777645469471
 31
0.0
  0
LINE
  5
5A2
330
6C
100
AcDbEntity
  8
Visible (ANSI)
100
AcDbLine
 10
954.9825293355299
 20
362.5777645469471
 30
0.0
 11
956.9200293355301
 21
362.5777645469471
 31
0.0
  0
LINE
  5
5A3
330
6C
100
AcDbEntity
  8
Visible (ANSI)
100
AcDbLine
 10
961.4200293355301
 20
362.5777645469471
 30
0.0
 11
968.9825293355301
 21
362.5777645469471
 31
0.0
  0
LINE
  5
5A4
330
6C
100
AcDbEntity
  8
Visible (ANSI)
100
AcDbLine
 10
954.9825293355299
 20
358.0777645469472
 30
0.0
 11
956.9200293355301
 21
358.0777645469472
 31
0.0
  0
LINE
  5
5A5
330
6C
100
AcDbEntity
  8
Visible (ANSI)
100
AcDbLine
 10
961.4200293355301
 20
358.0777645469472
 30
0.0
 11
968.9825293355301
 21
358.0777645469472
 31
0.0
  0
LINE
  5
5A6
330
6C
100
AcDbEntity
  8
Visible (ANSI)
100
AcDbLine
 10
954.9825293355299
 20
405.0777645469471
 30
0.0
 11
955.85752933553
 21
405.0777645469471
 31
0.0
  0
LINE
  5
5A7
330
6C
100
AcDbEntity
  8
Visible (ANSI)
100
AcDbLine
 10
962.48252933553
 20
405.0777645469471
 30
0.0
 11
968.9825293355301
 21
405.0777645469471
 31
0.0
  0
LINE
  5
5A8
330
6C
100
AcDbEntity
  8
Visible (ANSI)
100
AcDbLine
 10
954.9825293355299
 20
400.5777645469471
 30
0.0
 11
956.5215918355301
 21
400.5777645469471
 31
0.0
  0
LINE
  5
5A9
330
6C
100
AcDbEntity
  8
Visible (ANSI)
100
AcDbLine
 10
961.8184668355301
 20
400.5777645469471
 30
0.0
 11
968.9825293355301
 21
400.5777645469471
 31
0.0
  0
LINE
  5
5AA
330
6C
100
AcDbEntity
  8
Visible (ANSI)
100
AcDbLine
 10
956.9200293355454
 20
352.202764546955
 30
0.0
 11
956.9200293355454
 21
398.3277645469549
 31
0.0
  0
LINE
  5
5AB
330
6C
100
AcDbEntity
  8
Visible (ANSI)
100
AcDbLine
 10
961.4200293355454
 20
352.202764546955
 30
0.0
 11
961.4200293355454
 21
398.3277645469549
 31
0.0
  0
LINE
  5
5AC
330
6C
100
AcDbEntity
  8
Visible (ANSI)
100
AcDbLine
 10
962.4825293355455
 20
408.3277645469548
 30
0.0
 11
962.4825293355455
 21
404.3277645469548
 31
0.0
  0
LINE
  5
5AD
330
6C
100
AcDbEntity
  8
Visible (ANSI)
100
AcDbLine
 10
955.8575293355456
 20
408.3277645469548
 30
0.0
 11
955.8575293355456
 21
404.3277645469548
 31
0.0
  0
LINE
  5
5AE
330
6C
100
AcDbEntity
  8
Visible (ANSI)
100
AcDbLine
 10
886.2325293355782
 20
355.9527645469712
 30
0.0
 11
886.2325293355782
 21
398.5777645469713
 31
0.0
  0
LINE
  5
5AF
330
6C
100
AcDbEntity
  8
Visible (ANSI)
100
AcDbLine
 10
953.2325293355782
 20
355.9527645469712
 30
0.0
 11
886.2325293355782
 21
355.9527645469712
 31
0.0
  0
LINE
  5
5B0
330
6C
100
AcDbEntity
  8
Visible (ANSI)
100
AcDbLine
 10
953.2325293355782
 20
398.5777645469713
 30
0.0
 11
953.2325293355782
 21
355.9527645469712
 31
0.0
  0
LINE
  5
5B1
330
6C
100
AcDbEntity
  8
Visible (ANSI)
100
AcDbLine
 10
886.2325293355782
 20
398.5777645469713
 30
0.0
 11
953.2325293355782
 21
398.5777645469713
 31
0.0
  0
LINE
  5
5B2
330
6C
100
AcDbEntity
  8
Visible (ANSI)
100
AcDbLine
 10
886.2325293355782
 20
400.0777645469711
 30
0.0
 11
886.2325293355782
 21
406.0777645469712
 31
0.0
  0
LINE
  5
5B3
330
6C
100
AcDbEntity
  8
Visible (ANSI)
100
AcDbLine
 10
953.2325293355782
 20
400.0777645469711
 30
0.0
 11
886.2325293355782
 21
400.0777645469711
 31
0.0
  0
LINE
  5
5B4
330
6C
100
AcDbEntity
  8
Visible (ANSI)
100
AcDbLine
 10
953.2325293355782
 20
406.0777645469712
 30
0.0
 11
953.2325293355782
 21
400.0777645469711
 31
0.0
  0
LINE
  5
5B5
330
6C
100
AcDbEntity
  8
Visible (ANSI)
100
AcDbLine
 10
886.2325293355782
 20
406.0777645469712
 30
0.0
 11
953.2325293355782
 21
406.0777645469712
 31
0.0
  0
LINE
  5
5B6
330
6C
100
AcDbEntity
  8
Visible (ANSI)
100
AcDbLine
 10
953.2325293355782
 20
354.4527645469713
 30
0.0
 11
953.2325293355782
 21
348.9527645469713
 31
0.0
  0
LINE
  5
5B7
330
6C
100
AcDbEntity
  8
Visible (ANSI)
100
AcDbLine
 10
886.2325293355782
 20
354.4527645469713
 30
0.0
 11
953.2325293355782
 21
354.4527645469713
 31
0.0
  0
LINE
  5
5B8
330
6C
100
AcDbEntity
  8
Visible (ANSI)
100
AcDbLine
 10
886.2325293355782
 20
348.9527645469713
 30
0.0
 11
886.2325293355782
 21
354.4527645469713
 31
0.0
  0
LINE
  5
5B9
330
6C
100
AcDbEntity
  8
Visible (ANSI)
100
AcDbLine
 10
953.2325293355782
 20
348.9527645469713
 30
0.0
 11
886.2325293355782
 21
348.9527645469713
 31
0.0
  0
ELLIPSE
  5
5BA
330
6C
100
AcDbEntity
  8
Visible (ANSI)
100
AcDbEllipse
 10
917.9647623825941
 20
422.2652645469623
 30
0.0
 11
0.0296488066056218
 21
-0.12143289614792
 31
0.0
210
0.0
220
0.0
230
1.0
 40
0.6967984516409059
 41
0.0
 42
0.8701196368198322
  0
ELLIPSE
  5
5BB
330
6C
100
AcDbEntity
  8
Visible (ANSI)
100
AcDbEllipse
 10
917.9647623825941
 20
422.2652645469623
 30
0.0
 11
-0.0296488066055782
 21
0.1214328961478931
 31
0.0
210
0.0
220
0.0
230
0.9999999999999998
 40
0.6967984516408982
 41
4.399382349658472
 42
6.283185307180161
  0
SPLINE
  5
5BC
330
6C
100
AcDbEntity
  8
Visible (ANSI)
100
AcDbSpline
210
0.0
220
0.0
230
1.0
 70
     8
 71
     3
 72
    10
 73
     6
 74
     0
 42
0.0000000001
 43
0.0000000001
 40
1.007858426954802
 40
1.007858426954802
 40
1.007858426954802
 40
1.007858426954802
 40
1.08415998709778
 40
1.08415998709778
 40
1.122043362987832
 40
1.122043362987832
 40
1.122043362987832
 40
1.122043362987832
 10
918.0543948823896
 20
422.247528313193
 30
0.0
 10
918.0532993746531
 20
422.237220582291
 30
0.0
 10
918.0512329192699
 20
422.2268531731564
 30
0.0
 10
918.0467785572894
 20
422.2121162152105
 30
0.0
 10
918.0450786991125
 20
422.2073490361272
 30
0.0
 10
918.043183080306
 20
422.2027645469624
 30
0.0
  0
ELLIPSE
  5
5BD
330
6C
100
AcDbEntity
  8
Visible (ANSI)
100
AcDbEllipse
 10
898.2541608570306
 20
417.4527645469682
 30
0.0
 11
0.0149856337785502
 21
-0.1245565523693793
 31
0.0
210
0.0
220
0.0
230
1.0
 40
0.701989381573627
 41
1.48653861988609
 42
3.057334946680743
  0
ELLIPSE
  5
5BE
330
6C
100
AcDbEntity
  8
Visible (ANSI)
100
AcDbEllipse
 10
898.2541608570306
 20
417.4527645469682
 30
0.0
 11
0.0149856337785214
 21
-0.1245565523693846
 31
0.0
210
0.0
220
0.0
230
1.0
 40
0.7019893815736268
 41
6.198927600270867
 42
7.76972392706696
  0
ELLIPSE
  5
5BF
330
6C
100
AcDbEntity
  8
Visible (ANSI)
100
AcDbEllipse
 10
897.1935006852516
 20
417.4527645469685
 30
0.0
 11
0.0
 21
0.125
 31
0.0
210
0.0
220
0.0
230
1.0
 40
0.7071067811869666
 41
0.0
 42
6.283185307179586
  0
LINE
  5
5C0
330
6C
100
AcDbEntity
  8
Visible (ANSI)
100
AcDbLine
 10
917.2112632256427
 20
422.3884422745306
 30
0.0
 11
917.2355914207615
 21
422.2475283131925
 31
0.0
  0
SPLINE
  5
5C1
330
6C
100
AcDbEntity
  8
Visible (ANSI)
100
AcDbSpline
210
0.0
220
0.0
230
1.0
 70
     8
 71
     3
 72
    10
 73
     6
 74
     0
 42
0.0000000001
 43
0.0000000001
 40
1.007858426954798
 40
1.007858426954798
 40
1.007858426954798
 40
1.007858426954798
 40
1.084159987097776
 40
1.084159987097776
 40
1.087277202195679
 40
1.087277202195679
 40
1.087277202195679
 40
1.087277202195679
 10
917.2355914207617
 20
422.2475283131925
 30
0.0
 10
917.2355182926317
 20
422.2372205822906
 30
0.0
 10
917.2353807283633
 20
422.2268531731558
 30
0.0
 10
917.235187187874
 20
422.2166032120708
 30
0.0
 10
917.2351795128451
 20
422.2162017243893
 30
0.0
 10
917.2351717614665
 20
422.2158010973728
 30
0.0
  0
LINE
  5
5C2
330
6C
100
AcDbEntity
  8
Visible (ANSI)
100
AcDbLine
 10
889.346818206218
 20
417.5777645469619
 30
0.0
 11
889.3575293355594
 21
417.452764546962
 31
0.0
  0
LINE
  5
5C3
330
6C
100
AcDbEntity
  8
Visible (ANSI)
100
AcDbLine
 10
889.3682404649005
 20
417.3277645469618
 30
0.0
 11
889.3575293355594
 21
417.452764546962
 31
0.0
  0
LINE
  5
5C4
330
6C
100
AcDbEntity
  8
Visible (ANSI)
100
AcDbLine
 10
887.8575293355593
 20
417.5777645469619
 30
0.0
 11
887.8575293355593
 21
417.3277645469618
 31
0.0
  0
LINE
  5
5C5
330
6C
100
AcDbEntity
  8
Visible (ANSI)
100
AcDbLine
 10
922.2294672503572
 20
422.2475283131925
 30
0.0
 11
922.2537954454759
 21
422.3884422745306
 31
0.0
  0
SPLINE
  5
5C6
330
6C
100
AcDbEntity
  8
Visible (ANSI)
100
AcDbSpline
210
0.0
220
0.0
230
1.0
 70
     8
 71
     3
 72
    10
 73
     6
 74
     0
 42
0.0000000001
 43
0.0000000001
 40
-0.1250028004331958
 40
-0.1250028004331958
 40
-0.1250028004331958
 40
-0.1250028004331958
 40
-0.1218855853352689
 40
-0.1218855853352689
 40
-0.0455840251923448
 40
-0.0455840251923448
 40
-0.0455840251923448
 40
-0.0455840251923448
 10
922.2298869096523
 20
422.2158010973728
 30
0.0
 10
922.2298791582737
 20
422.2162017243893
 30
0.0
 10
922.2298714832446
 20
422.2166032120708
 30
0.0
 10
922.2296779427553
 20
422.2268531731558
 30
0.0
 10
922.2295403784871
 20
422.2372205822906
 30
0.0
 10
922.2294672503572
 20
422.2475283131925
 30
0.0
  0
LINE
  5
5C7
330
6C
100
AcDbEntity
  8
Visible (ANSI)
100
AcDbLine
 10
950.1075293355594
 20
417.452764546962
 30
0.0
 11
950.1182404649005
 21
417.5777645469619
 31
0.0
  0
LINE
  5
5C8
330
6C
100
AcDbEntity
  8
Visible (ANSI)
100
AcDbLine
 10
950.1075293355594
 20
417.452764546962
 30
0.0
 11
950.096818206218
 21
417.3277645469618
 31
0.0
  0
LINE
  5
5C9
330
6C
100
AcDbEntity
  8
Visible (ANSI)
100
AcDbLine
 10
951.6075293355592
 20
417.3277645469618
 30
0.0
 11
951.6075293355592
 21
417.5777645469619
 31
0.0
  0
ELLIPSE
  5
5CA
330
6C
100
AcDbEntity
  8
Visible (ANSI)
100
AcDbEllipse
 10
921.5002962885268
 20
422.2652645469623
 30
0.0
 11
-0.0296488066055258
 21
-0.121432896147873
 31
0.0
210
0.0
220
0.0
230
1.0
 40
0.696798451640038
 41
5.413065670359131
 42
6.28318530718004
  0
ELLIPSE
  5
5CB
330
6C
100
AcDbEntity
  8
Visible (ANSI)
100
AcDbEllipse
 10
921.5002962885268
 20
422.2652645469623
 30
0.0
 11
0.0296488066055998
 21
0.1214328961478865
 31
0.0
210
0.0
220
0.0
230
1.0
 40
0.696798451640066
 41
0.000000000000371
 42
1.88380295752177
  0
SPLINE
  5
5CC
330
6C
100
AcDbEntity
  8
Visible (ANSI)
100
AcDbSpline
210
0.0
220
0.0
230
1.0
 70
     8
 71
     3
 72
    10
 73
     6
 74
     0
 42
0.0000000001
 43
0.0000000001
 40
-0.1597689612253142
 40
-0.1597689612253142
 40
-0.1597689612253142
 40
-0.1597689612253142
 40
-0.1218855853352696
 40
-0.1218855853352696
 40
-0.0455840251922893
 40
-0.0455840251922893
 40
-0.0455840251922893
 40
-0.0455840251922893
 10
921.4218755908147
 20
422.2027645469624
 30
0.0
 10
921.4199799720084
 20
422.2073490361272
 30
0.0
 10
921.4182801138315
 20
422.2121162152105
 30
0.0
 10
921.4138257518509
 20
422.2268531731564
 30
0.0
 10
921.4117592964678
 20
422.237220582291
 30
0.0
 10
921.4106637887313
 20
422.2475283131929
 30
0.0
  0
ELLIPSE
  5
5CD
330
6C
100
AcDbEntity
  8
Visible (ANSI)
100
AcDbEllipse
 10
941.2108978141136
 20
417.4527645469682
 30
0.0
 11
-0.0149856337785332
 21
-0.1245565523693814
 31
0.0
210
0.0
220
0.0
230
1.0
 40
0.701989381572794
 41
3.225850360498749
 42
4.796646687293859
  0
ELLIPSE
  5
5CE
330
6C
100
AcDbEntity
  8
Visible (ANSI)
100
AcDbEllipse
 10
941.2108978141134
 20
417.4527645469682
 30
0.0
 11
-0.0149856337785044
 21
-0.1245565523693866
 31
0.0
210
0.0
220
0.0
230
1.0
 40
0.7019893815727942
 41
4.796646687292575
 42
6.367443014088212
  0
ELLIPSE
  5
5CF
330
6C
100
AcDbEntity
  8
Visible (ANSI)
100
AcDbEllipse
 10
942.2715579858939
 20
417.4527645469685
 30
0.0
 11
0.0
 21
0.125
 31
0.0
210
0.0
220
0.0
230
1.0
 40
0.707106781186128
 41
0.0
 42
6.283185307179586
  0
LINE
  5
5D0
330
6C
100
AcDbEntity
  8
Visible (ANSI)
100
AcDbLine
 10
898.2391218712312
 20
417.5777645469682
 30
0.0
 11
899.6609093457946
 21
417.9249052576388
 31
0.0
  0
LINE
  5
5D1
330
6C
100
AcDbEntity
  8
Visible (ANSI)
100
AcDbLine
 10
900.6848366977719
 20
418.1749052576384
 30
0.0
 11
902.696959742226
 21
418.666181089016
 31
0.0
  0
LINE
  5
5D2
330
6C
100
AcDbEntity
  8
Visible (ANSI)
100
AcDbLine
 10
903.7208870942032
 20
418.9161810890158
 30
0.0
 11
905.7330101386575
 21
419.4074569203933
 31
0.0
  0
LINE
  5
5D3
330
6C
100
AcDbEntity
  8
Visible (ANSI)
100
AcDbLine
 10
906.7569374906348
 20
419.6574569203931
 30
0.0
 11
908.7690605350889
 21
420.1487327517707
 31
0.0
  0
LINE
  5
5D4
330
6C
100
AcDbEntity
  8
Visible (ANSI)
100
AcDbLine
 10
909.7929878870662
 20
420.3987327517703
 30
0.0
 11
911.8051109315205
 21
420.890008583148
 31
0.0
  0
LINE
  5
5D5
330
6C
100
AcDbEntity
  8
Visible (ANSI)
100
AcDbLine
 10
912.8290382834979
 20
421.1400085831477
 30
0.0
 11
914.8411613279519
 21
421.6312844145252
 31
0.0
  0
LINE
  5
5D6
330
6C
100
AcDbEntity
  8
Visible (ANSI)
100
AcDbLine
 10
915.8650886799293
 20
421.881284414525
 30
0.0
 11
917.9351135759885
 21
422.3866974431102
 31
0.0
  0
LINE
  5
5D7
330
6C
100
AcDbEntity
  8
Visible (ANSI)
100
AcDbLine
 10
898.2764518868959
 20
417.3295351911579
 30
0.0
 11
900.7149146693711
 21
417.9249052576385
 31
0.0
  0
LINE
  5
5D8
330
6C
100
AcDbEntity
  8
Visible (ANSI)
100
AcDbLine
 10
901.7388420213483
 20
418.1749052576382
 30
0.0
 11
903.7509650658023
 21
418.6661810890157
 31
0.0
  0
LINE
  5
5D9
330
6C
100
AcDbEntity
  8
Visible (ANSI)
100
AcDbLine
 10
904.7748924177797
 20
418.9161810890154
 30
0.0
 11
906.7870154622339
 21
419.407456920393
 31
0.0
  0
LINE
  5
5DA
330
6C
100
AcDbEntity
  8
Visible (ANSI)
100
AcDbLine
 10
907.8109428142111
 20
419.6574569203927
 30
0.0
 11
909.8230658586654
 21
420.1487327517703
 31
0.0
  0
LINE
  5
5DB
330
6C
100
AcDbEntity
  8
Visible (ANSI)
100
AcDbLine
 10
910.8469932106427
 20
420.39873275177
 30
0.0
 11
912.859116255097
 21
420.8900085831476
 31
0.0
  0
LINE
  5
5DC
330
6C
100
AcDbEntity
  8
Visible (ANSI)
100
AcDbLine
 10
913.8830436070742
 20
421.1400085831473
 30
0.0
 11
915.8951666515285
 21
421.6312844145249
 31
0.0
  0
LINE
  5
5DD
330
6C
100
AcDbEntity
  8
Visible (ANSI)
100
AcDbLine
 10
916.9190940035056
 20
421.8812844145246
 30
0.0
 11
917.9944111891996
 21
422.1438316508144
 31
0.0
  0
LINE
  5
5DE
330
6C
100
AcDbEntity
  8
Visible (ANSI)
100
AcDbLine
 10
897.1935006852516
 20
417.5777645469685
 30
0.0
 11
898.2465869448395
 21
417.5777645469682
 31
0.0
  0
LINE
  5
5DF
330
6C
100
AcDbEntity
  8
Visible (ANSI)
100
AcDbLine
 10
889.3468182062182
 20
417.5777645469618
 30
0.0
 11
891.3575293355592
 21
417.9249052576328
 31
0.0
  0
LINE
  5
5E0
330
6C
100
AcDbEntity
  8
Visible (ANSI)
100
AcDbLine
 10
892.8055812836111
 20
418.1749052576328
 30
0.0
 11
895.6511529822432
 21
418.6661810890109
 31
0.0
  0
LINE
  5
5E1
330
6C
100
AcDbEntity
  8
Visible (ANSI)
100
AcDbLine
 10
897.0992049302951
 20
418.916181089011
 30
0.0
 11
899.9447766289275
 21
419.4074569203892
 31
0.0
  0
LINE
  5
5E2
330
6C
100
AcDbEntity
  8
Visible (ANSI)
100
AcDbLine
 10
901.3928285769793
 20
419.6574569203892
 30
0.0
 11
904.2384002756117
 21
420.1487327517674
 31
0.0
  0
LINE
  5
5E3
330
6C
100
AcDbEntity
  8
Visible (ANSI)
100
AcDbLine
 10
905.6864522236635
 20
420.3987327517674
 30
0.0
 11
908.5320239222959
 21
420.8900085831456
 31
0.0
  0
LINE
  5
5E4
330
6C
100
AcDbEntity
  8
Visible (ANSI)
100
AcDbLine
 10
909.9800758703478
 20
421.1400085831456
 30
0.0
 11
912.82564756898
 21
421.6312844145239
 31
0.0
  0
LINE
  5
5E5
330
6C
100
AcDbEntity
  8
Visible (ANSI)
100
AcDbLine
 10
914.273699517032
 20
421.8812844145238
 30
0.0
 11
917.2112632256428
 21
422.3884422745306
 31
0.0
  0
LINE
  5
5E6
330
6C
100
AcDbEntity
  8
Visible (ANSI)
100
AcDbLine
 10
889.3682404649005
 20
417.3277645469618
 30
0.0
 11
892.8270035422935
 21
417.9249052576328
 31
0.0
  0
LINE
  5
5E7
330
6C
100
AcDbEntity
  8
Visible (ANSI)
100
AcDbLine
 10
894.2750554903454
 20
418.1749052576328
 30
0.0
 11
897.1206271889775
 21
418.6661810890109
 31
0.0
  0
LINE
  5
5E8
330
6C
100
AcDbEntity
  8
Visible (ANSI)
100
AcDbLine
 10
898.5686791370294
 20
418.916181089011
 30
0.0
 11
901.4142508356616
 21
419.4074569203892
 31
0.0
  0
LINE
  5
5E9
330
6C
100
AcDbEntity
  8
Visible (ANSI)
100
AcDbLine
 10
902.8623027837136
 20
419.6574569203892
 30
0.0
 11
905.7078744823458
 21
420.1487327517674
 31
0.0
  0
LINE
  5
5EA
330
6C
100
AcDbEntity
  8
Visible (ANSI)
100
AcDbLine
 10
907.1559264303976
 20
420.3987327517674
 30
0.0
 11
910.00149812903
 21
420.8900085831456
 31
0.0
  0
LINE
  5
5EB
330
6C
100
AcDbEntity
  8
Visible (ANSI)
100
AcDbLine
 10
911.4495500770818
 20
421.1400085831456
 30
0.0
 11
914.2951217757142
 21
421.6312844145239
 31
0.0
  0
LINE
  5
5EC
330
6C
100
AcDbEntity
  8
Visible (ANSI)
100
AcDbLine
 10
915.7431737237661
 20
421.8812844145238
 30
0.0
 11
916.1594174205468
 21
421.9531471155375
 31
0.0
  0
LINE
  5
5ED
330
6C
100
AcDbEntity
  8
Visible (ANSI)
100
AcDbLine
 10
887.8575293355593
 20
417.5777645469618
 30
0.0
 11
889.3468182062182
 21
417.5777645469618
 31
0.0
  0
LINE
  5
5EE
330
6C
100
AcDbEntity
  8
Visible (ANSI)
100
AcDbLine
 10
950.0968182062182
 20
417.3277645469618
 30
0.0
 11
946.6380551288253
 21
417.9249052576328
 31
0.0
  0
LINE
  5
5EF
330
6C
100
AcDbEntity
  8
Visible (ANSI)
100
AcDbLine
 10
945.1900031807733
 20
418.1749052576328
 30
0.0
 11
942.3444314821413
 21
418.6661810890109
 31
0.0
  0
LINE
  5
5F0
330
6C
100
AcDbEntity
  8
Visible (ANSI)
100
AcDbLine
 10
940.8963795340893
 20
418.916181089011
 30
0.0
 11
938.0508078354569
 21
419.4074569203892
 31
0.0
  0
LINE
  5
5F1
330
6C
100
AcDbEntity
  8
Visible (ANSI)
100
AcDbLine
 10
936.6027558874051
 20
419.6574569203892
 30
0.0
 11
933.7571841887728
 21
420.1487327517674
 31
0.0
  0
LINE
  5
5F2
330
6C
100
AcDbEntity
  8
Visible (ANSI)
100
AcDbLine
 10
932.309132240721
 20
420.3987327517674
 30
0.0
 11
929.4635605420886
 21
420.8900085831456
 31
0.0
  0
LINE
  5
5F3
330
6C
100
AcDbEntity
  8
Visible (ANSI)
100
AcDbLine
 10
928.0155085940366
 20
421.1400085831455
 30
0.0
 11
925.1699368954044
 21
421.6312844145239
 31
0.0
  0
LINE
  5
5F4
330
6C
100
AcDbEntity
  8
Visible (ANSI)
100
AcDbLine
 10
923.7218849473524
 20
421.8812844145238
 30
0.0
 11
923.3056412505717
 21
421.9531471155375
 31
0.0
  0
LINE
  5
5F5
330
6C
100
AcDbEntity
  8
Visible (ANSI)
100
AcDbLine
 10
950.1182404649005
 20
417.5777645469618
 30
0.0
 11
948.1075293355592
 21
417.9249052576328
 31
0.0
  0
LINE
  5
5F6
330
6C
100
AcDbEntity
  8
Visible (ANSI)
100
AcDbLine
 10
946.6594773875074
 20
418.1749052576328
 30
0.0
 11
943.8139056888754
 21
418.6661810890109
 31
0.0
  0
LINE
  5
5F7
330
6C
100
AcDbEntity
  8
Visible (ANSI)
100
AcDbLine
 10
942.3658537408234
 20
418.916181089011
 30
0.0
 11
939.5202820421912
 21
419.4074569203892
 31
0.0
  0
LINE
  5
5F8
330
6C
100
AcDbEntity
  8
Visible (ANSI)
100
AcDbLine
 10
938.0722300941393
 20
419.6574569203892
 30
0.0
 11
935.2266583955069
 21
420.1487327517674
 31
0.0
  0
LINE
  5
5F9
330
6C
100
AcDbEntity
  8
Visible (ANSI)
100
AcDbLine
 10
933.7786064474549
 20
420.3987327517674
 30
0.0
 11
930.9330347488229
 21
420.8900085831456
 31
0.0
  0
LINE
  5
5FA
330
6C
100
AcDbEntity
  8
Visible (ANSI)
100
AcDbLine
 10
929.4849828007709
 20
421.1400085831455
 30
0.0
 11
926.6394111021385
 21
421.6312844145239
 31
0.0
  0
LINE
  5
5FB
330
6C
100
AcDbEntity
  8
Visible (ANSI)
100
AcDbLine
 10
925.1913591540867
 20
421.8812844145238
 30
0.0
 11
922.2537954454759
 21
422.3884422745306
 31
0.0
  0
LINE
  5
5FC
330
6C
100
AcDbEntity
  8
Visible (ANSI)
100
AcDbLine
 10
951.6075293355592
 20
417.5777645469618
 30
0.0
 11
950.1182404649005
 21
417.5777645469618
 31
0.0
  0
LINE
  5
5FD
330
6C
100
AcDbEntity
  8
Visible (ANSI)
100
AcDbLine
 10
941.1886067842484
 20
417.3295351911579
 30
0.0
 11
938.7501440017702
 21
417.9249052576385
 31
0.0
  0
LINE
  5
5FE
330
6C
100
AcDbEntity
  8
Visible (ANSI)
100
AcDbLine
 10
937.7262166497917
 20
418.1749052576382
 30
0.0
 11
935.7140936053353
 21
418.6661810890157
 31
0.0
  0
LINE
  5
5FF
330
6C
100
AcDbEntity
  8
Visible (ANSI)
100
AcDbLine
 10
934.6901662533568
 20
418.9161810890154
 30
0.0
 11
932.6780432089002
 21
419.407456920393
 31
0.0
  0
LINE
  5
600
330
6C
100
AcDbEntity
  8
Visible (ANSI)
100
AcDbLine
 10
931.6541158569217
 20
419.6574569203927
 30
0.0
 11
929.6419928124649
 21
420.1487327517703
 31
0.0
  0
LINE
  5
601
330
6C
100
AcDbEntity
  8
Visible (ANSI)
100
AcDbLine
 10
928.6180654604866
 20
420.39873275177
 30
0.0
 11
926.60594241603
 21
420.8900085831476
 31
0.0
  0
LINE
  5
602
330
6C
100
AcDbEntity
  8
Visible (ANSI)
100
AcDbLine
 10
925.5820150640515
 20
421.1400085831473
 30
0.0
 11
923.5698920195948
 21
421.6312844145249
 31
0.0
  0
LINE
  5
603
330
6C
100
AcDbEntity
  8
Visible (ANSI)
100
AcDbLine
 10
922.5459646676164
 20
421.8812844145246
 30
0.0
 11
921.4706474819211
 21
422.1438316508144
 31
0.0
  0
LINE
  5
604
330
6C
100
AcDbEntity
  8
Visible (ANSI)
100
AcDbLine
 10
941.225936799913
 20
417.5777645469682
 30
0.0
 11
939.8041493253478
 21
417.9249052576388
 31
0.0
  0
LINE
  5
605
330
6C
100
AcDbEntity
  8
Visible (ANSI)
100
AcDbLine
 10
938.7802219733693
 20
418.1749052576384
 30
0.0
 11
936.7680989289128
 21
418.666181089016
 31
0.0
  0
LINE
  5
606
330
6C
100
AcDbEntity
  8
Visible (ANSI)
100
AcDbLine
 10
935.7441715769343
 20
418.9161810890158
 30
0.0
 11
933.7320485324777
 21
419.4074569203933
 31
0.0
  0
LINE
  5
607
330
6C
100
AcDbEntity
  8
Visible (ANSI)
100
AcDbLine
 10
932.7081211804992
 20
419.6574569203931
 30
0.0
 11
930.6959981360426
 21
420.1487327517707
 31
0.0
  0
LINE
  5
608
330
6C
100
AcDbEntity
  8
Visible (ANSI)
100
AcDbLine
 10
929.6720707840641
 20
420.3987327517703
 30
0.0
 11
927.6599477396075
 21
420.890008583148
 31
0.0
  0
LINE
  5
609
330
6C
100
AcDbEntity
  8
Visible (ANSI)
100
AcDbLine
 10
926.636020387629
 20
421.1400085831477
 30
0.0
 11
924.6238973431724
 21
421.6312844145252
 31
0.0
  0
LINE
  5
60A
330
6C
100
AcDbEntity
  8
Visible (ANSI)
100
AcDbLine
 10
923.5999699911939
 20
421.881284414525
 30
0.0
 11
921.5299450951324
 21
422.3866974431102
 31
0.0
  0
LINE
  5
60B
330
6C
100
AcDbEntity
  8
Visible (ANSI)
100
AcDbLine
 10
942.2715579858939
 20
417.5777645469685
 30
0.0
 11
941.2184717263047
 21
417.5777645469682
 31
0.0
  0
LINE
  5
60C
330
6C
100
AcDbEntity
  8
Visible (ANSI)
100
AcDbLine
 10
921.4218755908147
 20
422.2027645469624
 30
0.0
 11
919.8575293355608
 21
422.2027645469625
 31
0.0
  0
LINE
  5
60D
330
6C
100
AcDbEntity
  8
Visible (ANSI)
100
AcDbLine
 10
919.6075293355608
 20
422.2027645469625
 30
0.0
 11
918.043183080306
 21
422.2027645469624
 31
0.0
  0
LINE
  5
60E
330
6C
100
AcDbEntity
  8
Visible (ANSI)
100
AcDbLine
 10
942.2715579858939
 20
417.3277645469686
 30
0.0
 11
919.7325293355781
 21
417.3277645469712
 31
0.0
  0
LINE
  5
60F
330
6C
100
AcDbEntity
  8
Visible (ANSI)
100
AcDbLine
 10
951.6075293355592
 20
417.3277645469618
 30
0.0
 11
942.2715579858939
 21
417.3277645469686
 31
0.0
  0
LINE
  5
610
330
6C
100
AcDbEntity
  8
Visible (ANSI)
100
AcDbLine
 10
919.7325293355781
 20
417.3277645469713
 30
0.0
 11
897.1935006852513
 21
417.3277645469686
 31
0.0
  0
LINE
  5
611
330
6C
100
AcDbEntity
  8
Visible (ANSI)
100
AcDbLine
 10
897.1935006852516
 20
417.3277645469686
 30
0.0
 11
887.8575293355593
 21
417.3277645469618
 31
0.0
  0
LINE
  5
612
330
6C
100
AcDbEntity
  8
Visible (ANSI)
100
AcDbLine
 10
951.6075293355592
 20
417.2027645469618
 30
0.0
 11
887.8575293355593
 21
417.2027645469618
 31
0.0
  0
LINE
  5
613
330
6C
100
AcDbEntity
  8
Visible (ANSI)
100
AcDbLine
 10
921.4317608839609
 20
422.3277645469624
 30
0.0
 11
919.840243392945
 21
422.3277645469626
 31
0.0
  0
LINE
  5
614
330
6C
100
AcDbEntity
  8
Visible (ANSI)
100
AcDbLine
 10
922.2325293355593
 20
422.3277645469618
 30
0.0
 11
921.7713171123204
 21
422.3277645469623
 31
0.0
  0
LINE
  5
615
330
6C
100
AcDbEntity
  8
Visible (ANSI)
100
AcDbLine
 10
917.6937415587998
 20
422.3277645469623
 30
0.0
 11
917.2325293355592
 21
422.3277645469618
 31
0.0
  0
LINE
  5
616
330
6C
100
AcDbEntity
  8
Visible (ANSI)
100
AcDbLine
 10
919.6248152781766
 20
422.3277645469626
 30
0.0
 11
918.0332977871598
 21
422.3277645469624
 31
0.0
  0
LINE
  5
617
330
6C
100
AcDbEntity
  8
Visible (ANSI)
100
AcDbLine
 10
889.2325293355593
 20
406.8277645469619
 30
0.0
 11
889.2325293355593
 21
417.2027645469618
 31
0.0
  0
LINE
  5
618
330
6C
100
AcDbEntity
  8
Visible (ANSI)
100
AcDbLine
 10
950.2325293355593
 20
406.8277645469619
 30
0.0
 11
950.2325293355593
 21
417.2027645469618
 31
0.0
  0
LINE
  5
619
330
6C
100
AcDbEntity
  8
Visible (ANSI)
100
AcDbLine
 10
887.8575293355593
 20
417.2027645469618
 30
0.0
 11
887.8575293355593
 21
417.3277645469618
 31
0.0
  0
LINE
  5
61A
330
6C
100
AcDbEntity
  8
Visible (ANSI)
100
AcDbLine
 10
951.6075293355592
 20
417.2027645469618
 30
0.0
 11
951.6075293355592
 21
417.3277645469618
 31
0.0
  0
LINE
  5
61B
330
6C
100
AcDbEntity
  8
Visible (ANSI)
100
AcDbLine
 10
917.2325293355594
 20
422.2652645469619
 30
0.0
 11
917.2325293355594
 21
422.3277645469618
 31
0.0
  0
LINE
  5
61C
330
6C
100
AcDbEntity
  8
Visible (ANSI)
100
AcDbLine
 10
922.2325293355593
 20
422.2652645469619
 30
0.0
 11
922.2325293355593
 21
422.3277645469618
 31
0.0
  0
ELLIPSE
  5
61D
330
6C
100
AcDbEntity
  8
Visible (ANSI)
100
AcDbEllipse
 10
919.7325293355607
 20
422.2652645469626
 30
0.0
 11
0.1249999999999943
 21
-0.0000000000000112
 31
0.0
210
0.0
220
0.0
230
1.0
 40
0.9854218205505185
 41
0.0000000000001969
 42
3.141592653589989
  0
CIRCLE
  5
61E
330
6C
100
AcDbEntity
  8
Visible (ANSI)
100
AcDbCircle
 10
919.7325293355781
 20
417.4527645469713
 30
0.0
 40
0.125
  0
LINE
  5
61F
330
6C
100
AcDbEntity
  8
Visible (ANSI)
100
AcDbLine
 10
919.6075293355773
 20
417.4527645469708
 30
0.0
 11
919.6075293355757
 21
417.924905257641
 31
0.0
  0
LINE
  5
620
330
6C
100
AcDbEntity
  8
Visible (ANSI)
100
AcDbLine
 10
919.6075293355749
 20
418.1749052576406
 30
0.0
 11
919.6075293355731
 21
418.6661810890178
 31
0.0
  0
LINE
  5
621
330
6C
100
AcDbEntity
  8
Visible (ANSI)
100
AcDbLine
 10
919.6075293355724
 20
418.9161810890174
 30
0.0
 11
919.6075293355706
 21
419.4074569203948
 31
0.0
  0
LINE
  5
622
330
6C
100
AcDbEntity
  8
Visible (ANSI)
100
AcDbLine
 10
919.6075293355699
 20
419.6574569203944
 30
0.0
 11
919.6075293355681
 21
420.1487327517718
 31
0.0
  0
LINE
  5
623
330
6C
100
AcDbEntity
  8
Visible (ANSI)
100
AcDbLine
 10
919.6075293355672
 20
420.3987327517713
 30
0.0
 11
919.6075293355654
 21
420.8900085831486
 31
0.0
  0
LINE
  5
624
330
6C
100
AcDbEntity
  8
Visible (ANSI)
100
AcDbLine
 10
919.6075293355645
 20
421.1400085831483
 30
0.0
 11
919.607529335563
 21
421.6312844145257
 31
0.0
  0
LINE
  5
625
330
6C
100
AcDbEntity
  8
Visible (ANSI)
100
AcDbLine
 10
919.6075293355621
 20
421.8812844145253
 30
0.0
 11
919.6075293355608
 21
422.2652645469626
 31
0.0
  0
LINE
  5
626
330
6C
100
AcDbEntity
  8
Visible (ANSI)
100
AcDbLine
 10
919.8575293355773
 20
417.4527645469708
 30
0.0
 11
919.8575293355757
 21
417.924905257641
 31
0.0
  0
LINE
  5
627
330
6C
100
AcDbEntity
  8
Visible (ANSI)
100
AcDbLine
 10
919.8575293355748
 20
418.1749052576406
 30
0.0
 11
919.8575293355732
 21
418.6661810890178
 31
0.0
  0
LINE
  5
628
330
6C
100
AcDbEntity
  8
Visible (ANSI)
100
AcDbLine
 10
919.8575293355723
 20
418.9161810890174
 30
0.0
 11
919.8575293355705
 21
419.4074569203948
 31
0.0
  0
LINE
  5
629
330
6C
100
AcDbEntity
  8
Visible (ANSI)
100
AcDbLine
 10
919.8575293355698
 20
419.6574569203944
 30
0.0
 11
919.8575293355681
 21
420.1487327517718
 31
0.0
  0
LINE
  5
62A
330
6C
100
AcDbEntity
  8
Visible (ANSI)
100
AcDbLine
 10
919.8575293355672
 20
420.3987327517713
 30
0.0
 11
919.8575293355656
 21
420.8900085831486
 31
0.0
  0
LINE
  5
62B
330
6C
100
AcDbEntity
  8
Visible (ANSI)
100
AcDbLine
 10
919.8575293355647
 20
421.1400085831483
 30
0.0
 11
919.8575293355631
 21
421.6312844145257
 31
0.0
  0
LINE
  5
62C
330
6C
100
AcDbEntity
  8
Visible (ANSI)
100
AcDbLine
 10
919.8575293355622
 20
421.8812844145253
 30
0.0
 11
919.8575293355608
 21
422.2652645469626
 31
0.0
  0
LINE
  5
62D
330
6C
100
AcDbEntity
  8
Visible (ANSI)
100
AcDbLine
 10
954.9825293355782
 20
406.8277645469713
 30
0.0
 11
884.4825293355782
 21
406.8277645469713
 31
0.0
  0
LINE
  5
62E
330
6C
100
AcDbEntity
  8
Visible (ANSI)
100
AcDbLine
 10
954.9825293355782
 20
348.2027645469713
 30
0.0
 11
954.9825293355782
 21
406.8277645469713
 31
0.0
  0
LINE
  5
62F
330
6C
100
AcDbEntity
  8
Visible (ANSI)
100
AcDbLine
 10
884.4825293355782
 20
348.2027645469713
 30
0.0
 11
884.4825293355782
 21
406.8277645469713
 31
0.0
  0
LINE
  5
630
330
6C
100
AcDbEntity
  8
Visible (ANSI)
100
AcDbLine
 10
884.4825293355782
 20
348.2027645469713
 30
0.0
 11
954.9825293355782
 21
348.2027645469713
 31
0.0
  0
ARC
  5
631
330
6C
100
AcDbEntity
  8
Visible (ANSI)
100
AcDbCircle
 10
926.6501222314795
 20
421.7562844145239
 30
0.0
 40
0.125
100
AcDbArc
 50
270.0
 51
90.0
  0
ARC
  5
632
330
6C
100
AcDbEntity
  8
Visible (ANSI)
100
AcDbCircle
 10
912.814936439639
 20
421.7562844145239
 30
0.0
 40
0.125
100
AcDbArc
 50
90.0
 51
270.0
  0
LINE
  5
633
330
6C
100
AcDbEntity
  8
Visible (ANSI)
100
AcDbLine
 10
926.6501222314795
 20
421.8812844145238
 30
0.0
 11
912.814936439639
 21
421.8812844145238
 31
0.0
  0
LINE
  5
634
330
6C
100
AcDbEntity
  8
Visible (ANSI)
100
AcDbLine
 10
912.814936439639
 20
421.6312844145239
 30
0.0
 11
926.6501222314795
 21
421.6312844145239
 31
0.0
  0
ARC
  5
635
330
6C
100
AcDbEntity
  8
Visible (ANSI)
100
AcDbCircle
 10
930.9437458781637
 20
421.0150085831457
 30
0.0
 40
0.125
100
AcDbArc
 50
270.0
 51
90.0
  0
ARC
  5
636
330
6C
100
AcDbEntity
  8
Visible (ANSI)
100
AcDbCircle
 10
908.5213127929549
 20
421.0150085831457
 30
0.0
 40
0.125
100
AcDbArc
 50
90.0
 51
270.0
  0
LINE
  5
637
330
6C
100
AcDbEntity
  8
Visible (ANSI)
100
AcDbLine
 10
930.9437458781637
 20
421.1400085831456
 30
0.0
 11
908.5213127929549
 21
421.1400085831456
 31
0.0
  0
LINE
  5
638
330
6C
100
AcDbEntity
  8
Visible (ANSI)
100
AcDbLine
 10
908.5213127929549
 20
420.8900085831456
 30
0.0
 11
930.9437458781637
 21
420.8900085831456
 31
0.0
  0
ARC
  5
639
330
6C
100
AcDbEntity
  8
Visible (ANSI)
100
AcDbCircle
 10
935.2373695248479
 20
420.2737327517674
 30
0.0
 40
0.125
100
AcDbArc
 50
270.0
 51
90.0
  0
ARC
  5
63A
330
6C
100
AcDbEntity
  8
Visible (ANSI)
100
AcDbCircle
 10
904.2276891462707
 20
420.2737327517674
 30
0.0
 40
0.125
100
AcDbArc
 50
90.0
 51
270.0
  0
LINE
  5
63B
330
6C
100
AcDbEntity
  8
Visible (ANSI)
100
AcDbLine
 10
935.2373695248479
 20
420.3987327517674
 30
0.0
 11
904.2276891462707
 21
420.3987327517674
 31
0.0
  0
LINE
  5
63C
330
6C
100
AcDbEntity
  8
Visible (ANSI)
100
AcDbLine
 10
904.2276891462707
 20
420.1487327517674
 30
0.0
 11
935.2373695248479
 21
420.1487327517674
 31
0.0
  0
ARC
  5
63D
330
6C
100
AcDbEntity
  8
Visible (ANSI)
100
AcDbCircle
 10
939.5309931715321
 20
419.5324569203892
 30
0.0
 40
0.125
100
AcDbArc
 50
270.0
 51
90.0
  0
ARC
  5
63E
330
6C
100
AcDbEntity
  8
Visible (ANSI)
100
AcDbCircle
 10
899.9340654995865
 20
419.5324569203892
 30
0.0
 40
0.125
100
AcDbArc
 50
90.0
 51
270.0
  0
LINE
  5
63F
330
6C
100
AcDbEntity
  8
Visible (ANSI)
100
AcDbLine
 10
939.5309931715321
 20
419.6574569203892
 30
0.0
 11
899.9340654995865
 21
419.6574569203892
 31
0.0
  0
LINE
  5
640
330
6C
100
AcDbEntity
  8
Visible (ANSI)
100
AcDbLine
 10
899.9340654995865
 20
419.4074569203892
 30
0.0
 11
939.5309931715321
 21
419.4074569203892
 31
0.0
  0
ARC
  5
641
330
6C
100
AcDbEntity
  8
Visible (ANSI)
100
AcDbCircle
 10
943.8246168182162
 20
418.791181089011
 30
0.0
 40
0.125
100
AcDbArc
 50
270.0
 51
90.0
  0
ARC
  5
642
330
6C
100
AcDbEntity
  8
Visible (ANSI)
100
AcDbCircle
 10
895.6404418529023
 20
418.791181089011
 30
0.0
 40
0.125
100
AcDbArc
 50
90.0
 51
270.0
  0
LINE
  5
643
330
6C
100
AcDbEntity
  8
Visible (ANSI)
100
AcDbLine
 10
943.8246168182162
 20
418.916181089011
 30
0.0
 11
895.6404418529023
 21
418.916181089011
 31
0.0
  0
LINE
  5
644
330
6C
100
AcDbEntity
  8
Visible (ANSI)
100
AcDbLine
 10
895.6404418529023
 20
418.6661810890109
 30
0.0
 11
943.8246168182162
 21
418.6661810890109
 31
0.0
  0
ARC
  5
645
330
6C
100
AcDbEntity
  8
Visible (ANSI)
100
AcDbCircle
 10
948.1182404649004
 20
418.0499052576328
 30
0.0
 40
0.125
100
AcDbArc
 50
270.0
 51
90.0
  0
ARC
  5
646
330
6C
100
AcDbEntity
  8
Visible (ANSI)
100
AcDbCircle
 10
891.3468182062182
 20
418.0499052576328
 30
0.0
 40
0.125
100
AcDbArc
 50
90.0
 51
270.0
  0
LINE
  5
647
330
6C
100
AcDbEntity
  8
Visible (ANSI)
100
AcDbLine
 10
948.1182404649004
 20
418.1749052576328
 30
0.0
 11
891.3468182062182
 21
418.1749052576328
 31
0.0
  0
LINE
  5
648
330
6C
100
AcDbEntity
  8
Visible (ANSI)
100
AcDbLine
 10
891.3468182062182
 20
417.9249052576328
 30
0.0
 11
948.1182404649004
 21
417.9249052576328
 31
0.0
  0
MTEXT
  5
649
330
6C
100
AcDbEntity
  8
Symbol (ANSI)
100
AcDbMText
 10
866.3850368080291
 20
214.2097697107876
 30
0.0
 40
12.49999981226883
 41
0.0
 71
     7
 72
     1
  1
Blank Off Face
  7
Label Text (ANSI)
 73
     1
 44
1.0
  0
ENDSEC
  0
SECTION
  2
OBJECTS
  0
DICTIONARY
  5
C
330
0
100
AcDbDictionary
281
     1
  3
ACAD_COLOR
350
63
  3
ACAD_GROUP
350
D
  3
ACAD_LAYOUT
350
62
  3
ACAD_MATERIAL
350
10
  3
ACAD_MLEADERSTYLE
350
66
  3
ACAD_MLINESTYLE
350
5F
  3
ACAD_PLOTSETTINGS
350
61
  3
ACAD_PLOTSTYLENAME
350
E
  3
ACAD_SCALELIST
350
42
  3
ACAD_TABLESTYLE
350
64
  3
ACAD_VISUALSTYLE
350
29
  3
ACDB_RECOMPOSE_DATA
350
662
  3
AcDbVariableDictionary
350
64A
  0
DICTIONARY
  5
656
330
FC
100
AcDbDictionary
280
     1
281
     1
  3
ACAD_MLATT
360
658
  3
ACAD_XREC_ROUNDTRIP
360
657
  0
DICTIONARY
  5
659
330
100
100
AcDbDictionary
280
     1
281
     1
  3
ACAD_MLATT
360
65B
  3
ACAD_XREC_ROUNDTRIP
360
65A
  0
DICTIONARY
  5
65C
330
106
100
AcDbDictionary
280
     1
281
     1
  3
ACAD_MLATT
360
65E
  3
ACAD_XREC_ROUNDTRIP
360
65D
  0
DICTIONARY
  5
65F
330
107
100
AcDbDictionary
280
     1
281
     1
  3
ACAD_MLATT
360
661
  3
ACAD_XREC_ROUNDTRIP
360
660
  0
DICTIONARY
  5
63
102
{ACAD_REACTORS
330
C
102
}
330
C
100
AcDbDictionary
281
     1
  0
DICTIONARY
  5
D
102
{ACAD_REACTORS
330
C
102
}
330
C
100
AcDbDictionary
281
     1
  0
DICTIONARY
  5
62
102
{ACAD_REACTORS
330
C
102
}
330
C
100
AcDbDictionary
281
     1
  3
Layout1
350
6B
  3
Layout2
350
73
  3
Model
350
6F
  0
DICTIONARY
  5
10
102
{ACAD_REACTORS
330
C
102
}
330
C
100
AcDbDictionary
281
     1
  3
ByBlock
350
19
  3
ByLayer
350
11
  3
Global
350
21
  0
DICTIONARY
  5
66
102
{ACAD_REACTORS
330
C
102
}
330
C
100
AcDbDictionary
281
     1
  3
Standard
350
67
  0
DICTIONARY
  5
5F
102
{ACAD_REACTORS
330
C
102
}
330
C
100
AcDbDictionary
281
     1
  3
Standard
350
60
  0
DICTIONARY
  5
61
102
{ACAD_REACTORS
330
C
102
}
330
C
100
AcDbDictionary
281
     1
  0
ACDBDICTIONARYWDFLT
  5
E
102
{ACAD_REACTORS
330
C
102
}
330
C
100
AcDbDictionary
281
     1
  3
Normal
350
F
100
AcDbDictionaryWithDefault
340
F
  0
DICTIONARY
  5
42
102
{ACAD_REACTORS
330
C
102
}
330
C
100
AcDbDictionary
281
     1
  3
A0
350
43
  3
A1
350
44
  3
A2
350
45
  3
A3
350
46
  3
A4
350
47
  3
A5
350
48
  3
A6
350
49
  3
A7
350
4A
  3
A8
350
4B
  3
A9
350
4C
  3
B0
350
4D
  3
B1
350
4E
  3
B2
350
4F
  3
B3
350
50
  3
B4
350
51
  3
B5
350
52
  3
B6
350
53
  0
DICTIONARY
  5
64
102
{ACAD_REACTORS
330
C
102
}
330
C
100
AcDbDictionary
281
     1
  3
Standard
350
65
  0
DICTIONARY
  5
29
102
{ACAD_REACTORS
330
C
102
}
330
C
100
AcDbDictionary
281
     1
  3
2dWireframe
350
2F
  3
Basic
350
2E
  3
Brighten
350
35
  3
ColorChange
350
39
  3
Conceptual
350
32
  3
Dim
350
34
  3
EdgeColorOff
350
41
  3
Facepattern
350
38
  3
Flat
350
2A
  3
FlatWithEdges
350
2B
  3
Gouraud
350
2C
  3
GouraudWithEdges
350
2D
  3
Hidden
350
31
  3
JitterOff
350
3F
  3
Linepattern
350
37
  3
OverhangOff
350
40
  3
Realistic
350
33
  3
Shaded
350
3E
  3
Shaded with edges
350
3D
  3
Shades of Gray
350
3A
  3
Sketchy
350
3B
  3
Thicken
350
36
  3
Wireframe
350
30
  3
X-Ray
350
3C
  0
XRECORD
  5
662
102
{ACAD_REACTORS
330
C
102
}
330
C
100
AcDbXrecord
280
     1
 90
        1
330
65
330
FC
330
100
330
106
330
107
  0
DICTIONARY
  5
64A
102
{ACAD_REACTORS
330
C
102
}
330
C
100
AcDbDictionary
281
     1
  3
CANNOSCALE
350
64E
  3
CMLEADERSTYLE
350
64C
  3
CTABLESTYLE
350
64B
  3
LAYEREVAL
350
650
  3
LAYERNOTIFY
350
651
  3
LIGHTINGUNITS
350
64F
  3
MSLTSCALE
350
64D
  3
XCLIPFRAME
350
652
  0
XRECORD
  5
658
102
{ACAD_REACTORS
330
656
102
}
330
656
100
AcDbXrecord
280
     1
 70
     4
 70
     0
 70
     0
 40
1.0
  2
Enter_Prompt_for_Field
  1
Embedded Object
 10
-0.8051012470333162
 20
-0.3091459458557919
 30
0.0
 40
0.093999997837337
 41
0.0
 46
0.0
 71
     5
 72
     5
  1

  7
Current-ANSI-BAC Part-BAC Assy
 73
     1
 44
1.0
  0
XRECORD
  5
657
102
{ACAD_REACTORS
330
656
102
}
330
656
100
AcDbXrecord
280
     1
102
ACAD_MATT_HEIGHT
140
0.093999997837337
  0
XRECORD
  5
65B
102
{ACAD_REACTORS
330
659
102
}
330
659
100
AcDbXrecord
280
     1
 70
     4
 70
     0
 70
     0
 40
1.0
  2
Enter_Prompt_for_Field
  1
Embedded Object
 10
1.424328237886467
 20
-0.249271855484472
 30
0.0
 40
0.093999997837337
 41
0.0
 46
0.0
 71
     3
 72
     5
  1

  7
Current-ANSI-BAC Part-BAC Assy
 73
     1
 44
1.0
  0
XRECORD
  5
65A
102
{ACAD_REACTORS
330
659
102
}
330
659
100
AcDbXrecord
280
     1
102
ACAD_MATT_HEIGHT
140
0.093999997837337
  0
XRECORD
  5
65E
102
{ACAD_REACTORS
330
65C
102
}
330
65C
100
AcDbXrecord
280
     1
 70
     4
 70
     0
 70
     0
 40
1.0
  2
Rev_Level
  1
Embedded Object
 10
-0.0025474710775638
 20
-0.0006089735492667
 30
0.0
 40
0.093999997837337
 41
0.0
 46
0.0
 71
     6
 72
     5
  1
Rev Level
  7
Text Style74
 73
     1
 44
1.0
  0
XRECORD
  5
65D
102
{ACAD_REACTORS
330
65C
102
}
330
65C
100
AcDbXrecord
280
     1
102
ACAD_MATT_HEIGHT
140
0.093999997837337
  0
XRECORD
  5
661
102
{ACAD_REACTORS
330
65F
102
}
330
65F
100
AcDbXrecord
280
     1
 70
     4
 70
     0
 70
     0
 40
1.0
  2
Line_Number
  1
Embedded Object
 10
0.0031568935880913
 20
-0.0006089735492667
 30
0.0
 40
0.093999997837337
 41
0.0
 46
0.0
 71
     4
 72
     5
  1
Line Number
  7
Text Style74
 73
     1
 44
1.0
  0
XRECORD
  5
660
102
{ACAD_REACTORS
330
65F
102
}
330
65F
100
AcDbXrecord
280
     1
102
ACAD_MATT_HEIGHT
140
0.093999997837337
  0
LAYOUT
  5
6B
102
{ACAD_REACTORS
330
62
102
}
330
62
100
AcDbPlotSettings
  1

  2

  4

  6

 40
0.0
 41
0.0
 42
0.0
 43
0.0
 44
0.0
 45
0.0
 46
0.0
 47
0.0
 48
0.0
 49
0.0
140
0.0
141
0.0
142
1.0
143
1.0
 70
   688
 72
     0
 73
     0
 74
     5
  7

 75
    16
147
1.0
 76
     0
 77
     2
 78
   300
148
0.0
149
0.0
100
AcDbLayout
  1
Layout1
 70
     1
 71
     1
 10
0.0
 20
0.0
 11
12.0
 21
9.0
 12
0.0
 22
0.0
 32
0.0
 14
0.0
 24
0.0
 34
0.0
 15
0.0
 25
0.0
 35
0.0
146
0.0
 13
0.0
 23
0.0
 33
0.0
 16
1.0
 26
0.0
 36
0.0
 17
0.0
 27
1.0
 37
0.0
 76
     0
330
68
  0
LAYOUT
  5
73
102
{ACAD_REACTORS
330
62
102
}
330
62
100
AcDbPlotSettings
  1

  2

  4

  6

 40
0.0
 41
0.0
 42
0.0
 43
0.0
 44
0.0
 45
0.0
 46
0.0
 47
0.0
 48
0.0
 49
0.0
140
0.0
141
0.0
142
1.0
143
1.0
 70
   688
 72
     0
 73
     0
 74
     5
  7

 75
    16
147
1.0
 76
     0
 77
     2
 78
   300
148
0.0
149
0.0
100
AcDbLayout
  1
Layout2
 70
     1
 71
     2
 10
0.0
 20
0.0
 11
12.0
 21
9.0
 12
0.0
 22
0.0
 32
0.0
 14
0.0
 24
0.0
 34
0.0
 15
0.0
 25
0.0
 35
0.0
146
0.0
 13
0.0
 23
0.0
 33
0.0
 16
1.0
 26
0.0
 36
0.0
 17
0.0
 27
1.0
 37
0.0
 76
     0
330
70
  0
LAYOUT
  5
6F
102
{ACAD_REACTORS
330
62
102
}
330
62
100
AcDbPlotSettings
  1

  2

  4

  6

 40
0.0
 41
0.0
 42
0.0
 43
0.0
 44
0.0
 45
0.0
 46
0.0
 47
0.0
 48
0.0
 49
0.0
140
0.0
141
0.0
142
1.0
143
1.0
 70
  1712
 72
     0
 73
     0
 74
     0
  7

 75
     0
147
1.0
 76
     0
 77
     2
 78
   300
148
0.0
149
0.0
100
AcDbLayout
  1
Model
 70
     1
 71
     0
 10
0.0
 20
0.0
 11
12.0
 21
9.0
 12
0.0
 22
0.0
 32
0.0
 14
0.0
 24
0.0
 34
0.0
 15
0.0
 25
0.0
 35
0.0
146
0.0
 13
0.0
 23
0.0
 33
0.0
 16
1.0
 26
0.0
 36
0.0
 17
0.0
 27
1.0
 37
0.0
 76
     0
330
6C
  0
MATERIAL
  5
19
102
{ACAD_XDICTIONARY
360
1A
102
}
102
{ACAD_REACTORS
330
10
102
}
330
10
100
AcDbMaterial
  1
ByBlock
 72
     0
 43
0.0208333333333333
 43
0.0
 43
0.0
 43
0.0
 43
0.0
 43
0.0208333333333333
 43
0.0
 43
0.0
 43
0.0
 43
0.0
 43
1.0
 43
0.0
 43
0.0
 43
0.0
 43
0.0
 43
1.0
 77
     0
 47
0.0208333333333333
 47
0.0
 47
0.0
 47
0.0
 47
0.0
 47
0.0208333333333333
 47
0.0
 47
0.0
 47
0.0
 47
0.0
 47
1.0
 47
0.0
 47
0.0
 47
0.0
 47
0.0
 47
1.0
171
     0
 49
0.0208333333333333
 49
0.0
 49
0.0
 49
0.0
 49
0.0
 49
0.0208333333333333
 49
0.0
 49
0.0
 49
0.0
 49
0.0
 49
1.0
 49
0.0
 49
0.0
 49
0.0
 49
0.0
 49
1.0
175
     0
142
0.0208333333333333
142
0.0
142
0.0
142
0.0
142
0.0
142
0.0208333333333333
142
0.0
142
0.0
142
0.0
142
0.0
142
1.0
142
0.0
142
0.0
142
0.0
142
0.0
142
1.0
179
     0
144
0.0208333333333333
144
0.0
144
0.0
144
0.0
144
0.0
144
0.0208333333333333
144
0.0
144
0.0
144
0.0
144
0.0
144
1.0
144
0.0
144
0.0
144
0.0
144
0.0
144
1.0
147
0.0208333333333333
147
0.0
147
0.0
147
0.0
147
0.0
147
0.0208333333333333
147
0.0
147
0.0
147
0.0
147
0.0
147
1.0
147
0.0
147
0.0
147
0.0
147
0.0
147
1.0
  0
MATERIAL
  5
11
102
{ACAD_XDICTIONARY
360
12
102
}
102
{ACAD_REACTORS
330
10
102
}
330
10
100
AcDbMaterial
  1
ByLayer
 72
     0
 43
0.0208333333333333
 43
0.0
 43
0.0
 43
0.0
 43
0.0
 43
0.0208333333333333
 43
0.0
 43
0.0
 43
0.0
 43
0.0
 43
1.0
 43
0.0
 43
0.0
 43
0.0
 43
0.0
 43
1.0
 77
     0
 47
0.0208333333333333
 47
0.0
 47
0.0
 47
0.0
 47
0.0
 47
0.0208333333333333
 47
0.0
 47
0.0
 47
0.0
 47
0.0
 47
1.0
 47
0.0
 47
0.0
 47
0.0
 47
0.0
 47
1.0
171
     0
 49
0.0208333333333333
 49
0.0
 49
0.0
 49
0.0
 49
0.0
 49
0.0208333333333333
 49
0.0
 49
0.0
 49
0.0
 49
0.0
 49
1.0
 49
0.0
 49
0.0
 49
0.0
 49
0.0
 49
1.0
175
     0
142
0.0208333333333333
142
0.0
142
0.0
142
0.0
142
0.0
142
0.0208333333333333
142
0.0
142
0.0
142
0.0
142
0.0
142
1.0
142
0.0
142
0.0
142
0.0
142
0.0
142
1.0
179
     0
144
0.0208333333333333
144
0.0
144
0.0
144
0.0
144
0.0
144
0.0208333333333333
144
0.0
144
0.0
144
0.0
144
0.0
144
1.0
144
0.0
144
0.0
144
0.0
144
0.0
144
1.0
147
0.0208333333333333
147
0.0
147
0.0
147
0.0
147
0.0
147
0.0208333333333333
147
0.0
147
0.0
147
0.0
147
0.0
147
1.0
147
0.0
147
0.0
147
0.0
147
0.0
147
1.0
  0
MATERIAL
  5
21
102
{ACAD_XDICTIONARY
360
22
102
}
102
{ACAD_REACTORS
330
10
102
}
330
10
100
AcDbMaterial
  1
Global
 72
     0
 43
0.0208333333333333
 43
0.0
 43
0.0
 43
0.0
 43
0.0
 43
0.0208333333333333
 43
0.0
 43
0.0
 43
0.0
 43
0.0
 43
1.0
 43
0.0
 43
0.0
 43
0.0
 43
0.0
 43
1.0
 77
     0
 47
0.0208333333333333
 47
0.0
 47
0.0
 47
0.0
 47
0.0
 47
0.0208333333333333
 47
0.0
 47
0.0
 47
0.0
 47
0.0
 47
1.0
 47
0.0
 47
0.0
 47
0.0
 47
0.0
 47
1.0
171
     0
 49
0.0208333333333333
 49
0.0
 49
0.0
 49
0.0
 49
0.0
 49
0.0208333333333333
 49
0.0
 49
0.0
 49
0.0
 49
0.0
 49
1.0
 49
0.0
 49
0.0
 49
0.0
 49
0.0
 49
1.0
175
     0
142
0.0208333333333333
142
0.0
142
0.0
142
0.0
142
0.0
142
0.0208333333333333
142
0.0
142
0.0
142
0.0
142
0.0
142
1.0
142
0.0
142
0.0
142
0.0
142
0.0
142
1.0
179
     0
144
0.0208333333333333
144
0.0
144
0.0
144
0.0
144
0.0
144
0.0208333333333333
144
0.0
144
0.0
144
0.0
144
0.0
144
1.0
144
0.0
144
0.0
144
0.0
144
0.0
144
1.0
147
0.0208333333333333
147
0.0
147
0.0
147
0.0
147
0.0
147
0.0208333333333333
147
0.0
147
0.0
147
0.0
147
0.0
147
1.0
147
0.0
147
0.0
147
0.0
147
0.0
147
1.0
  0
MLEADERSTYLE
  5
67
102
{ACAD_REACTORS
330
66
102
}
330
66
100
AcDbMLeaderStyle
170
     2
171
     1
172
     0
 90
        2
 40
0.0
 41
0.0
173
     1
 91
-1056964608
340
5B
 92
       -2
290
     1
 42
0.09
291
     1
 43
0.36
  3
Standard
 44
0.18
300

342
55
174
     1
178
     6
175
     1
176
     0
 93
-1056964608
 45
0.18
292
     0
297
     0
 46
0.18
 94
-1056964608
 47
1.0
 49
1.0
140
1.0
293
     1
141
0.0
294
     1
177
     0
142
1.0
295
     0
296
     0
143
0.125
1001
ACAD_MLEADERVER
1070
     2
  0
MLINESTYLE
  5
60
102
{ACAD_REACTORS
330
5F
102
}
330
5F
100
AcDbMlineStyle
  2
STANDARD
 70
     0
  3

 62
   256
 51
90.0
 52
90.0
 71
     2
 49
0.5
 62
   256
  6
BYLAYER
 49
-0.5
 62
   256
  6
BYLAYER
  0
ACDBPLACEHOLDER
  5
F
102
{ACAD_REACTORS
330
E
102
}
330
E
  0
SCALE
  5
43
102
{ACAD_REACTORS
330
42
102
}
330
42
100
AcDbScale
 70
     0
300
1:1
140
1.0
141
1.0
290
     1
  0
SCALE
  5
44
102
{ACAD_REACTORS
330
42
102
}
330
42
100
AcDbScale
 70
     0
300
1/128" = 1'-0"
140
0.0078125
141
12.0
290
     0
  0
SCALE
  5
45
102
{ACAD_REACTORS
330
42
102
}
330
42
100
AcDbScale
 70
     0
300
1/64" = 1'-0"
140
0.015625
141
12.0
290
     0
  0
SCALE
  5
46
102
{ACAD_REACTORS
330
42
102
}
330
42
100
AcDbScale
 70
     0
300
1/32" = 1'-0"
140
0.03125
141
12.0
290
     0
  0
SCALE
  5
47
102
{ACAD_REACTORS
330
42
102
}
330
42
100
AcDbScale
 70
     0
300
1/16" = 1'-0"
140
0.0625
141
12.0
290
     0
  0
SCALE
  5
48
102
{ACAD_REACTORS
330
42
102
}
330
42
100
AcDbScale
 70
     0
300
3/32" = 1'-0"
140
0.09375
141
12.0
290
     0
  0
SCALE
  5
49
102
{ACAD_REACTORS
330
42
102
}
330
42
100
AcDbScale
 70
     0
300
1/8" = 1'-0"
140
0.125
141
12.0
290
     0
  0
SCALE
  5
4A
102
{ACAD_REACTORS
330
42
102
}
330
42
100
AcDbScale
 70
     0
300
3/16" = 1'-0"
140
0.1875
141
12.0
290
     0
  0
SCALE
  5
4B
102
{ACAD_REACTORS
330
42
102
}
330
42
100
AcDbScale
 70
     0
300
1/4" = 1'-0"
140
0.25
141
12.0
290
     0
  0
SCALE
  5
4C
102
{ACAD_REACTORS
330
42
102
}
330
42
100
AcDbScale
 70
     0
300
3/8" = 1'-0"
140
0.375
141
12.0
290
     0
  0
SCALE
  5
4D
102
{ACAD_REACTORS
330
42
102
}
330
42
100
AcDbScale
 70
     0
300
1/2" = 1'-0"
140
0.5
141
12.0
290
     0
  0
SCALE
  5
4E
102
{ACAD_REACTORS
330
42
102
}
330
42
100
AcDbScale
 70
     0
300
3/4" = 1'-0"
140
0.75
141
12.0
290
     0
  0
SCALE
  5
4F
102
{ACAD_REACTORS
330
42
102
}
330
42
100
AcDbScale
 70
     0
300
1" = 1'-0"
140
1.0
141
12.0
290
     0
  0
SCALE
  5
50
102
{ACAD_REACTORS
330
42
102
}
330
42
100
AcDbScale
 70
     0
300
1-1/2" = 1'-0"
140
1.5
141
12.0
290
     0
  0
SCALE
  5
51
102
{ACAD_REACTORS
330
42
102
}
330
42
100
AcDbScale
 70
     0
300
3" = 1'-0"
140
3.0
141
12.0
290
     0
  0
SCALE
  5
52
102
{ACAD_REACTORS
330
42
102
}
330
42
100
AcDbScale
 70
     0
300
6" = 1'-0"
140
6.0
141
12.0
290
     0
  0
SCALE
  5
53
102
{ACAD_REACTORS
330
42
102
}
330
42
100
AcDbScale
 70
     0
300
1'-0" = 1'-0"
140
12.0
141
12.0
290
     0
  0
TABLESTYLE
  5
65
102
{ACAD_XDICTIONARY
360
653
102
}
102
{ACAD_REACTORS
330
64
102
}
330
64
100
AcDbTableStyle
  3
Standard
 70
     0
 71
     0
 40
0.06
 41
0.06
280
     0
281
     0
  7
Standard
140
0.18
170
     2
 62
     0
 63
     7
283
     0
274
    -2
284
     1
 64
     0
275
    -2
285
     1
 65
     0
276
    -2
286
     1
 66
     0
277
    -2
287
     1
 67
     0
278
    -2
288
     1
 68
     0
279
    -2
289
     1
 69
     0
  7
Standard
140
0.25
170
     5
 62
     0
 63
     7
283
     0
274
    -2
284
     1
 64
     0
275
    -2
285
     1
 65
     0
276
    -2
286
     1
 66
     0
277
    -2
287
     1
 67
     0
278
    -2
288
     1
 68
     0
279
    -2
289
     1
 69
     0
  7
Standard
140
0.18
170
     5
 62
     0
 63
     7
283
     0
274
    -2
284
     1
 64
     0
275
    -2
285
     1
 65
     0
276
    -2
286
     1
 66
     0
277
    -2
287
     1
 67
     0
278
    -2
288
     1
 68
     0
279
    -2
289
     1
 69
     0
  0
VISUALSTYLE
  5
2F
102
{ACAD_XDICTIONARY
360
670
102
}
102
{ACAD_REACTORS
330
29
102
}
330
29
100
AcDbVisualStyle
  2
2dWireframe
 70
     4
 71
     0
 72
     2
 73
     0
 90
        0
 40
-0.6
 41
-30.0
 62
     5
 63
     7
421
 16777215
 74
     1
 91
        4
 64
     7
 65
   257
 75
     1
175
     1
 42
1.0
 92
        0
 66
   257
 43
1.0
 76
     1
 77
     6
 78
     2
 67
     7
 79
     5
170
     0
171
     0
290
     0
174
     0
 93
        1
 44
0.0
173
     0
291
     0
 45
0.0
1001
ACAD
1000
AcDbSavedByObjectVersion
1070
     0
  0
VISUALSTYLE
  5
2E
102
{ACAD_XDICTIONARY
360
66E
102
}
102
{ACAD_REACTORS
330
29
102
}
330
29
100
AcDbVisualStyle
  2
Basic
 70
     7
 71
     1
 72
     0
 73
     1
 90
        0
 40
-0.6
 41
-30.0
 62
     5
 63
     7
421
 16777215
 74
     0
 91
        4
 64
     7
 65
   257
 75
     1
175
     1
 42
1.0
 92
        8
 66
     7
 43
1.0
 76
     1
 77
     6
 78
     2
 67
     7
 79
     5
170
     0
171
     0
290
     0
174
     0
 93
        1
 44
0.0
173
     0
291
     1
 45
0.0
1001
ACAD
1000
AcDbSavedByObjectVersion
1070
     0
  0
VISUALSTYLE
  5
35
102
{ACAD_XDICTIONARY
360
67C
102
}
102
{ACAD_REACTORS
330
29
102
}
330
29
100
AcDbVisualStyle
  2
Brighten
 70
    12
 71
     2
 72
     2
 73
     0
 90
        0
 40
-0.6
 41
-30.0
 62
     5
 63
     7
421
 16777215
 74
     1
 91
        4
 64
     7
 65
   257
 75
     1
175
     1
 42
1.0
 92
        8
 66
     7
 43
1.0
 76
     1
 77
     6
 78
     2
 67
     7
 79
     5
170
     0
171
     0
290
     0
174
     0
 93
        1
 44
50.0
173
     0
291
     1
 45
0.0
1001
ACAD
1000
AcDbSavedByObjectVersion
1070
     0
  0
VISUALSTYLE
  5
39
102
{ACAD_XDICTIONARY
360
684
102
}
102
{ACAD_REACTORS
330
29
102
}
330
29
100
AcDbVisualStyle
  2
ColorChange
 70
    16
 71
     2
 72
     2
 73
     3
 90
        0
 40
-0.6
 41
-30.0
 62
     5
 63
     8
421
  8421504
 74
     1
 91
        4
 64
     7
 65
   257
 75
     1
175
     1
 42
1.0
 92
        8
 66
     8
424
  8421504
 43
1.0
 76
     1
 77
     6
 78
     2
 67
     7
 79
     5
170
     0
171
     0
290
     0
174
     0
 93
        1
 44
0.0
173
     0
291
     1
 45
0.0
1001
ACAD
1000
AcDbSavedByObjectVersion
1070
     0
  0
VISUALSTYLE
  5
32
102
{ACAD_XDICTIONARY
360
676
102
}
102
{ACAD_REACTORS
330
29
102
}
330
29
100
AcDbVisualStyle
  2
Conceptual
 70
     9
 71
     3
 72
     2
 73
     0
 90
        0
 40
-0.6
 41
-30.0
 62
     5
 63
     7
421
 16777215
 74
     2
 91
        2
 64
     7
 65
   257
 75
     1
175
     1
 42
179.0
 92
        8
 66
     7
 43
1.0
 76
     1
 77
     6
 78
     2
 67
     7
 79
     3
170
     0
171
     0
290
     0
174
     0
 93
        1
 44
0.0
173
     0
291
     0
 45
0.0
1001
ACAD
1000
AcDbSavedByObjectVersion
1070
     0
  0
VISUALSTYLE
  5
34
102
{ACAD_XDICTIONARY
360
67A
102
}
102
{ACAD_REACTORS
330
29
102
}
330
29
100
AcDbVisualStyle
  2
Dim
 70
    11
 71
     2
 72
     2
 73
     0
 90
        0
 40
-0.6
 41
-30.0
 62
     5
 63
     7
421
 16777215
 74
     1
 91
        4
 64
     7
 65
   257
 75
     1
175
     1
 42
1.0
 92
        8
 66
     7
 43
1.0
 76
     1
 77
     6
 78
     2
 67
     7
 79
     5
170
     0
171
     0
290
     0
174
     0
 93
        1
 44
-50.0
173
     0
291
     1
 45
0.0
1001
ACAD
1000
AcDbSavedByObjectVersion
1070
     0
  0
VISUALSTYLE
  5
41
102
{ACAD_XDICTIONARY
360
694
102
}
102
{ACAD_REACTORS
330
29
102
}
330
29
100
AcDbVisualStyle
  2
EdgeColorOff
 70
    22
 71
     2
 72
     2
 73
     0
 90
        0
 40
-0.6
 41
-30.0
 62
     5
 63
     7
421
 16777215
 74
     1
 91
        4
 64
     7
 65
   257
 75
     1
175
     1
 42
1.0
 92
        8
 66
     7
 43
1.0
 76
     1
 77
     6
 78
     2
 67
     7
 79
     5
170
     0
171
     0
290
     0
174
     0
 93
        1
 44
0.0
173
     0
291
     1
 45
0.0
1001
ACAD
1000
AcDbSavedByObjectVersion
1070
     0
  0
VISUALSTYLE
  5
38
102
{ACAD_XDICTIONARY
360
682
102
}
102
{ACAD_REACTORS
330
29
102
}
330
29
100
AcDbVisualStyle
  2
Facepattern
 70
    15
 71
     2
 72
     2
 73
     0
 90
        0
 40
-0.6
 41
-30.0
 62
     5
 63
     7
421
 16777215
 74
     1
 91
        4
 64
     7
 65
   257
 75
     1
175
     1
 42
1.0
 92
        8
 66
     7
 43
1.0
 76
     1
 77
     6
 78
     2
 67
     7
 79
     5
170
     0
171
     0
290
     0
174
     0
 93
        1
 44
0.0
173
     0
291
     1
 45
0.0
1001
ACAD
1000
AcDbSavedByObjectVersion
1070
     0
  0
VISUALSTYLE
  5
2A
102
{ACAD_XDICTIONARY
360
666
102
}
102
{ACAD_REACTORS
330
29
102
}
330
29
100
AcDbVisualStyle
  2
Flat
 70
     0
 71
     2
 72
     1
 73
     1
 90
        2
 40
-0.6
 41
30.0
 62
     5
 63
     7
421
 16777215
 74
     0
 91
        0
 64
     7
 65
   257
 75
     1
175
     1
 42
1.0
 92
        8
 66
     7
 43
1.0
 76
     1
 77
     6
 78
     2
 67
     7
 79
     5
170
     0
171
     0
290
     0
174
     0
 93
       13
 44
0.0
173
     0
291
     1
 45
0.0
1001
ACAD
1000
AcDbSavedByObjectVersion
1070
     0
  0
VISUALSTYLE
  5
2B
102
{ACAD_XDICTIONARY
360
668
102
}
102
{ACAD_REACTORS
330
29
102
}
330
29
100
AcDbVisualStyle
  2
FlatWithEdges
 70
     1
 71
     2
 72
     1
 73
     1
 90
        2
 40
-0.6
 41
30.0
 62
     5
 63
     7
421
 16777215
 74
     1
 91
        0
 64
     7
 65
   257
 75
     1
175
     1
 42
1.0
 92
        0
 66
   257
 43
1.0
 76
     1
 77
     6
 78
     2
 67
     7
 79
     5
170
     0
171
     0
290
     0
174
     0
 93
       13
 44
0.0
173
     0
291
     1
 45
0.0
1001
ACAD
1000
AcDbSavedByObjectVersion
1070
     0
  0
VISUALSTYLE
  5
2C
102
{ACAD_XDICTIONARY
360
66A
102
}
102
{ACAD_REACTORS
330
29
102
}
330
29
100
AcDbVisualStyle
  2
Gouraud
 70
     2
 71
     2
 72
     2
 73
     1
 90
        2
 40
-0.6
 41
30.0
 62
     5
 63
     7
421
 16777215
 74
     0
 91
        0
 64
     7
 65
   257
 75
     1
175
     1
 42
1.0
 92
        0
 66
     7
 43
1.0
 76
     1
 77
     6
 78
     2
 67
     7
 79
     5
170
     0
171
     0
290
     0
174
     0
 93
       13
 44
0.0
173
     0
291
     1
 45
0.0
1001
ACAD
1000
AcDbSavedByObjectVersion
1070
     0
  0
VISUALSTYLE
  5
2D
102
{ACAD_XDICTIONARY
360
66C
102
}
102
{ACAD_REACTORS
330
29
102
}
330
29
100
AcDbVisualStyle
  2
GouraudWithEdges
 70
     3
 71
     2
 72
     2
 73
     1
 90
        2
 40
-0.6
 41
30.0
 62
     5
 63
     7
421
 16777215
 74
     1
 91
        0
 64
     7
 65
   257
 75
     1
175
     1
 42
1.0
 92
        0
 66
   257
 43
1.0
 76
     1
 77
     6
 78
     2
 67
     7
 79
     5
170
     0
171
     0
290
     0
174
     0
 93
       13
 44
0.0
173
     0
291
     1
 45
0.0
1001
ACAD
1000
AcDbSavedByObjectVersion
1070
     0
  0
VISUALSTYLE
  5
31
102
{ACAD_XDICTIONARY
360
674
102
}
102
{ACAD_REACTORS
330
29
102
}
330
29
100
AcDbVisualStyle
  2
Hidden
 70
     6
 71
     1
 72
     2
 73
     2
 90
        0
 40
-0.6
 41
-30.0
 62
     5
 63
     7
421
 16777215
 74
     2
 91
        2
 64
     7
 65
   257
 75
     2
175
     1
 42
40.0
 92
        0
 66
   257
 43
1.0
 76
     1
 77
     6
 78
     2
 67
     7
 79
     3
170
     0
171
     0
290
     0
174
     0
 93
        1
 44
0.0
173
     0
291
     0
 45
0.0
1001
ACAD
1000
AcDbSavedByObjectVersion
1070
     0
  0
VISUALSTYLE
  5
3F
102
{ACAD_XDICTIONARY
360
690
102
}
102
{ACAD_REACTORS
330
29
102
}
330
29
100
AcDbVisualStyle
  2
JitterOff
 70
    20
 71
     2
 72
     2
 73
     0
 90
        0
 40
-0.6
 41
-30.0
 62
     5
 63
     7
421
 16777215
 74
     1
 91
        4
 64
     7
 65
   257
 75
     1
175
     1
 42
1.0
 92
       10
 66
     7
 43
1.0
 76
     1
 77
     6
 78
     2
 67
     7
 79
     5
170
     0
171
     0
290
     0
174
     0
 93
        1
 44
0.0
173
     0
291
     1
 45
0.0
1001
ACAD
1000
AcDbSavedByObjectVersion
1070
     0
  0
VISUALSTYLE
  5
37
102
{ACAD_XDICTIONARY
360
680
102
}
102
{ACAD_REACTORS
330
29
102
}
330
29
100
AcDbVisualStyle
  2
Linepattern
 70
    14
 71
     2
 72
     2
 73
     0
 90
        0
 40
-0.6
 41
-30.0
 62
     5
 63
     7
421
 16777215
 74
     1
 91
        4
 64
     7
 65
   257
 75
     7
175
     7
 42
1.0
 92
        8
 66
     7
 43
1.0
 76
     1
 77
     6
 78
     2
 67
     7
 79
     5
170
     0
171
     0
290
     0
174
     0
 93
        1
 44
0.0
173
     0
291
     1
 45
0.0
1001
ACAD
1000
AcDbSavedByObjectVersion
1070
     0
  0
VISUALSTYLE
  5
40
102
{ACAD_XDICTIONARY
360
692
102
}
102
{ACAD_REACTORS
330
29
102
}
330
29
100
AcDbVisualStyle
  2
OverhangOff
 70
    21
 71
     2
 72
     2
 73
     0
 90
        0
 40
-0.6
 41
-30.0
 62
     5
 63
     7
421
 16777215
 74
     1
 91
        4
 64
     7
 65
   257
 75
     1
175
     1
 42
1.0
 92
        9
 66
     7
 43
1.0
 76
     1
 77
     6
 78
     2
 67
     7
 79
     5
170
     0
171
     0
290
     0
174
     0
 93
        1
 44
0.0
173
     0
291
     1
 45
0.0
1001
ACAD
1000
AcDbSavedByObjectVersion
1070
     0
  0
VISUALSTYLE
  5
33
102
{ACAD_XDICTIONARY
360
678
102
}
102
{ACAD_REACTORS
330
29
102
}
330
29
100
AcDbVisualStyle
  2
Realistic
 70
     8
 71
     2
 72
     3
 73
     0
 90
        2
 40
-0.6
 41
30.0
 62
     5
 63
     7
421
 16777215
 74
     0
 91
        0
 64
     7
 65
   257
 75
     1
175
     1
 42
1.0
 92
        8
 66
   257
 43
1.0
 76
     1
 77
     6
 78
     2
 67
     7
 79
     3
170
     0
171
     0
290
     0
174
     0
 93
       13
 44
0.0
173
     0
291
     0
 45
0.0
1001
ACAD
1000
AcDbSavedByObjectVersion
1070
     0
  0
VISUALSTYLE
  5
3E
102
{ACAD_XDICTIONARY
360
68E
102
}
102
{ACAD_REACTORS
330
29
102
}
330
29
100
AcDbVisualStyle
  2
Shaded
 70
    27
 71
     2
 72
     2
 73
     1
 90
        2
 40
-0.6
 41
30.0
 62
     5
 63
     7
421
 16777215
 74
     0
 91
        4
 64
     7
 65
   257
 75
     1
175
     1
 42
1.0
 92
        8
 66
   257
 43
1.0
 76
     1
 77
     6
 78
     2
 67
     8
425
  7895160
 79
     3
170
     0
171
     0
290
     0
174
     0
 93
        5
 44
0.0
173
     0
291
     0
 45
0.0
1001
ACAD
1000
AcDbSavedByObjectVersion
1070
     0
  0
VISUALSTYLE
  5
3D
102
{ACAD_XDICTIONARY
360
68C
102
}
102
{ACAD_REACTORS
330
29
102
}
330
29
100
AcDbVisualStyle
  2
Shaded with edges
 70
    26
 71
     2
 72
     2
 73
     1
 90
        2
 40
-0.6
 41
30.0
 62
     5
 63
     7
421
 16777215
 74
     1
 91
       10
 64
     7
 65
   257
 75
     2
175
     1
 42
1.0
 92
        8
 66
   257
 43
1.0
 76
     1
 77
     6
 78
     2
 67
     7
 79
     3
170
     0
171
     0
290
     0
174
     0
 93
        5
 44
0.0
173
     0
291
     0
 45
0.0
1001
ACAD
1000
AcDbSavedByObjectVersion
1070
     0
  0
VISUALSTYLE
  5
3A
102
{ACAD_XDICTIONARY
360
686
102
}
102
{ACAD_REACTORS
330
29
102
}
330
29
100
AcDbVisualStyle
  2
Shades of Gray
 70
    23
 71
     2
 72
     2
 73
     3
 90
        0
 40
-0.6
 41
-30.0
 62
     5
 63
     7
421
 16777215
 74
     2
 91
        2
 64
     7
 65
     7
 75
     1
175
     1
 42
40.0
 92
        8
 66
     7
 43
1.0
 76
     1
 77
     6
 78
     2
 67
     7
 79
     3
170
     0
171
     0
290
     0
174
     0
 93
        1
 44
0.0
173
     0
291
     0
 45
0.0
1001
ACAD
1000
AcDbSavedByObjectVersion
1070
     0
  0
VISUALSTYLE
  5
3B
102
{ACAD_XDICTIONARY
360
688
102
}
102
{ACAD_REACTORS
330
29
102
}
330
29
100
AcDbVisualStyle
  2
Sketchy
 70
    24
 71
     1
 72
     2
 73
     2
 90
        0
 40
-0.6
 41
-30.0
 62
     5
 63
     7
421
 16777215
 74
     2
 91
        2
 64
     7
 65
     7
 75
     1
175
     1
 42
40.0
 92
       11
 66
     7
 43
1.0
 76
     1
 77
     6
 78
     2
 67
     7
 79
     6
170
     0
171
     0
290
     0
174
     0
 93
        1
 44
0.0
173
     0
291
     0
 45
0.0
1001
ACAD
1000
AcDbSavedByObjectVersion
1070
     0
  0
VISUALSTYLE
  5
36
102
{ACAD_XDICTIONARY
360
67E
102
}
102
{ACAD_REACTORS
330
29
102
}
330
29
100
AcDbVisualStyle
  2
Thicken
 70
    13
 71
     2
 72
     2
 73
     0
 90
        0
 40
-0.6
 41
-30.0
 62
     5
 63
     7
421
 16777215
 74
     1
 91
        4
 64
     7
 65
   257
 75
     1
175
     1
 42
1.0
 92
       12
 66
     7
 43
1.0
 76
     1
 77
     6
 78
     2
 67
     7
 79
     5
170
     0
171
     0
290
     0
174
     0
 93
        1
 44
0.0
173
     0
291
     1
 45
0.0
1001
ACAD
1000
AcDbSavedByObjectVersion
1070
     0
  0
VISUALSTYLE
  5
30
102
{ACAD_XDICTIONARY
360
672
102
}
102
{ACAD_REACTORS
330
29
102
}
330
29
100
AcDbVisualStyle
  2
Wireframe
 70
     5
 71
     0
 72
     2
 73
     0
 90
        0
 40
-0.6
 41
-30.0
 62
     5
 63
     7
421
 16777215
 74
     1
 91
        4
 64
     7
 65
   257
 75
     1
175
     1
 42
1.0
 92
        0
 66
   257
 43
1.0
 76
     1
 77
     6
 78
     2
 67
     7
 79
     3
170
     0
171
     0
290
     0
174
     0
 93
        1
 44
0.0
173
     0
291
     0
 45
0.0
1001
ACAD
1000
AcDbSavedByObjectVersion
1070
     0
  0
VISUALSTYLE
  5
3C
102
{ACAD_XDICTIONARY
360
68A
102
}
102
{ACAD_REACTORS
330
29
102
}
330
29
100
AcDbVisualStyle
  2
X-Ray
 70
    25
 71
     2
 72
     2
 73
     1
 90
        1
 40
0.5
 41
-30.0
 62
     5
 63
     7
421
 16777215
 74
     1
 91
        0
 64
     7
 65
   257
 75
     1
175
     1
 42
1.0
 92
        8
 66
     7
 43
1.0
 76
     1
 77
     6
 78
     2
 67
     7
 79
     3
170
     0
171
     0
290
     0
174
     0
 93
       13
 44
0.0
173
     0
291
     0
 45
0.0
1001
ACAD
1000
AcDbSavedByObjectVersion
1070
     0
  0
DICTIONARYVAR
  5
64E
102
{ACAD_REACTORS
330
64A
102
}
330
64A
100
DictionaryVariables
280
     0
  1
1:1
  0
DICTIONARYVAR
  5
64C
102
{ACAD_REACTORS
330
64A
102
}
330
64A
100
DictionaryVariables
280
     0
  1
STANDARD
  0
DICTIONARYVAR
  5
64B
102
{ACAD_REACTORS
330
64A
102
}
330
64A
100
DictionaryVariables
280
     0
  1
STANDARD
  0
DICTIONARYVAR
  5
650
102
{ACAD_REACTORS
330
64A
102
}
330
64A
100
DictionaryVariables
280
     0
  1
0
  0
DICTIONARYVAR
  5
651
102
{ACAD_REACTORS
330
64A
102
}
330
64A
100
DictionaryVariables
280
     0
  1
0
  0
DICTIONARYVAR
  5
64F
102
{ACAD_REACTORS
330
64A
102
}
330
64A
100
DictionaryVariables
280
     0
  1
2
  0
DICTIONARYVAR
  5
64D
102
{ACAD_REACTORS
330
64A
102
}
330
64A
100
DictionaryVariables
280
     0
  1
1
  0
DICTIONARYVAR
  5
652
102
{ACAD_REACTORS
330
64A
102
}
330
64A
100
DictionaryVariables
280
     0
  1
2
  0
DICTIONARY
  5
1A
330
19
100
AcDbDictionary
280
     1
281
     1
  3
ACAD_XREC_ROUNDTRIP
360
664
  3
BUMPTILE
360
1C
  3
DIFFUSETILE
360
1B
  3
OPACITYTILE
360
1F
  3
REFLECTIONTILE
360
1E
  3
REFRACTIONTILE
360
20
  3
SPECULARTILE
360
1D
  0
DICTIONARY
  5
12
330
11
100
AcDbDictionary
280
     1
281
     1
  3
ACAD_XREC_ROUNDTRIP
360
663
  3
BUMPTILE
360
14
  3
DIFFUSETILE
360
13
  3
OPACITYTILE
360
17
  3
REFLECTIONTILE
360
16
  3
REFRACTIONTILE
360
18
  3
SPECULARTILE
360
15
  0
DICTIONARY
  5
22
330
21
100
AcDbDictionary
280
     1
281
     1
  3
ACAD_XREC_ROUNDTRIP
360
665
  3
BUMPTILE
360
24
  3
DIFFUSETILE
360
23
  3
OPACITYTILE
360
27
  3
REFLECTIONTILE
360
26
  3
REFRACTIONTILE
360
28
  3
SPECULARTILE
360
25
  0
DICTIONARY
  5
653
330
65
100
AcDbDictionary
280
     1
281
     1
  3
ACAD_ROUNDTRIP_2008_TABLESTYLE_CELLSTYLEMAP
360
654
  3
ACAD_XREC_ROUNDTRIP
360
696
  0
DICTIONARY
  5
670
330
2F
100
AcDbDictionary
280
     1
281
     1
  3
ACAD_XREC_ROUNDTRIP
360
671
  0
DICTIONARY
  5
66E
330
2E
100
AcDbDictionary
280
     1
281
     1
  3
ACAD_XREC_ROUNDTRIP
360
66F
  0
DICTIONARY
  5
67C
330
35
100
AcDbDictionary
280
     1
281
     1
  3
ACAD_XREC_ROUNDTRIP
360
67D
  0
DICTIONARY
  5
684
330
39
100
AcDbDictionary
280
     1
281
     1
  3
ACAD_XREC_ROUNDTRIP
360
685
  0
DICTIONARY
  5
676
330
32
100
AcDbDictionary
280
     1
281
     1
  3
ACAD_XREC_ROUNDTRIP
360
677
  0
DICTIONARY
  5
67A
330
34
100
AcDbDictionary
280
     1
281
     1
  3
ACAD_XREC_ROUNDTRIP
360
67B
  0
DICTIONARY
  5
694
330
41
100
AcDbDictionary
280
     1
281
     1
  3
ACAD_XREC_ROUNDTRIP
360
695
  0
DICTIONARY
  5
682
330
38
100
AcDbDictionary
280
     1
281
     1
  3
ACAD_XREC_ROUNDTRIP
360
683
  0
DICTIONARY
  5
666
330
2A
100
AcDbDictionary
280
     1
281
     1
  3
ACAD_XREC_ROUNDTRIP
360
667
  0
DICTIONARY
  5
668
330
2B
100
AcDbDictionary
280
     1
281
     1
  3
ACAD_XREC_ROUNDTRIP
360
669
  0
DICTIONARY
  5
66A
330
2C
100
AcDbDictionary
280
     1
281
     1
  3
ACAD_XREC_ROUNDTRIP
360
66B
  0
DICTIONARY
  5
66C
330
2D
100
AcDbDictionary
280
     1
281
     1
  3
ACAD_XREC_ROUNDTRIP
360
66D
  0
DICTIONARY
  5
674
330
31
100
AcDbDictionary
280
     1
281
     1
  3
ACAD_XREC_ROUNDTRIP
360
675
  0
DICTIONARY
  5
690
330
3F
100
AcDbDictionary
280
     1
281
     1
  3
ACAD_XREC_ROUNDTRIP
360
691
  0
DICTIONARY
  5
680
330
37
100
AcDbDictionary
280
     1
281
     1
  3
ACAD_XREC_ROUNDTRIP
360
681
  0
DICTIONARY
  5
692
330
40
100
AcDbDictionary
280
     1
281
     1
  3
ACAD_XREC_ROUNDTRIP
360
693
  0
DICTIONARY
  5
678
330
33
100
AcDbDictionary
280
     1
281
     1
  3
ACAD_XREC_ROUNDTRIP
360
679
  0
DICTIONARY
  5
68E
330
3E
100
AcDbDictionary
280
     1
281
     1
  3
ACAD_XREC_ROUNDTRIP
360
68F
  0
DICTIONARY
  5
68C
330
3D
100
AcDbDictionary
280
     1
281
     1
  3
ACAD_XREC_ROUNDTRIP
360
68D
  0
DICTIONARY
  5
686
330
3A
100
AcDbDictionary
280
     1
281
     1
  3
ACAD_XREC_ROUNDTRIP
360
687
  0
DICTIONARY
  5
688
330
3B
100
AcDbDictionary
280
     1
281
     1
  3
ACAD_XREC_ROUNDTRIP
360
689
  0
DICTIONARY
  5
67E
330
36
100
AcDbDictionary
280
     1
281
     1
  3
ACAD_XREC_ROUNDTRIP
360
67F
  0
DICTIONARY
  5
672
330
30
100
AcDbDictionary
280
     1
281
     1
  3
ACAD_XREC_ROUNDTRIP
360
673
  0
DICTIONARY
  5
68A
330
3C
100
AcDbDictionary
280
     1
281
     1
  3
ACAD_XREC_ROUNDTRIP
360
68B
  0
XRECORD
  5
664
102
{ACAD_REACTORS
330
1A
102
}
330
1A
100
AcDbXrecord
280
     1
102
MATERIAL
148
0.0
149
0.0
149
0.0
 93
        0
 94
      127
282
     0
 72
     0
 77
     0
171
     0
175
     0
179
     0
273
     0
  0
XRECORD
  5
1C
102
{ACAD_REACTORS
330
1A
102
}
330
1A
100
AcDbXrecord
280
     1
270
     1
271
     1
  0
XRECORD
  5
1B
102
{ACAD_REACTORS
330
1A
102
}
330
1A
100
AcDbXrecord
280
     1
270
     1
271
     1
  0
XRECORD
  5
1F
102
{ACAD_REACTORS
330
1A
102
}
330
1A
100
AcDbXrecord
280
     1
270
     1
271
     1
  0
XRECORD
  5
1E
102
{ACAD_REACTORS
330
1A
102
}
330
1A
100
AcDbXrecord
280
     1
270
     1
271
     1
  0
XRECORD
  5
20
102
{ACAD_REACTORS
330
1A
102
}
330
1A
100
AcDbXrecord
280
     1
270
     1
271
     1
  0
XRECORD
  5
1D
102
{ACAD_REACTORS
330
1A
102
}
330
1A
100
AcDbXrecord
280
     1
270
     1
271
     1
  0
XRECORD
  5
663
102
{ACAD_REACTORS
330
12
102
}
330
12
100
AcDbXrecord
280
     1
102
MATERIAL
148
0.0
149
0.0
149
0.0
 93
        0
 94
      127
282
     0
 72
     0
 77
     0
171
     0
175
     0
179
     0
273
     0
  0
XRECORD
  5
14
102
{ACAD_REACTORS
330
12
102
}
330
12
100
AcDbXrecord
280
     1
270
     1
271
     1
  0
XRECORD
  5
13
102
{ACAD_REACTORS
330
12
102
}
330
12
100
AcDbXrecord
280
     1
270
     1
271
     1
  0
XRECORD
  5
17
102
{ACAD_REACTORS
330
12
102
}
330
12
100
AcDbXrecord
280
     1
270
     1
271
     1
  0
XRECORD
  5
16
102
{ACAD_REACTORS
330
12
102
}
330
12
100
AcDbXrecord
280
     1
270
     1
271
     1
  0
XRECORD
  5
18
102
{ACAD_REACTORS
330
12
102
}
330
12
100
AcDbXrecord
280
     1
270
     1
271
     1
  0
XRECORD
  5
15
102
{ACAD_REACTORS
330
12
102
}
330
12
100
AcDbXrecord
280
     1
270
     1
271
     1
  0
XRECORD
  5
665
102
{ACAD_REACTORS
330
22
102
}
330
22
100
AcDbXrecord
280
     1
102
MATERIAL
148
0.0
149
0.0
149
0.0
 93
        0
 94
      127
282
     0
 72
     0
 77
     0
171
     0
175
     0
179
     0
273
     0
  0
XRECORD
  5
24
102
{ACAD_REACTORS
330
22
102
}
330
22
100
AcDbXrecord
280
     1
270
     1
271
     1
  0
XRECORD
  5
23
102
{ACAD_REACTORS
330
22
102
}
330
22
100
AcDbXrecord
280
     1
270
     1
271
     1
  0
XRECORD
  5
27
102
{ACAD_REACTORS
330
22
102
}
330
22
100
AcDbXrecord
280
     1
270
     1
271
     1
  0
XRECORD
  5
26
102
{ACAD_REACTORS
330
22
102
}
330
22
100
AcDbXrecord
280
     1
270
     1
271
     1
  0
XRECORD
  5
28
102
{ACAD_REACTORS
330
22
102
}
330
22
100
AcDbXrecord
280
     1
270
     1
271
     1
  0
XRECORD
  5
25
102
{ACAD_REACTORS
330
22
102
}
330
22
100
AcDbXrecord
280
     1
270
     1
271
     1
  0
CELLSTYLEMAP
  5
654
102
{ACAD_REACTORS
330
653
102
}
330
653
100
AcDbCellStyleMap
 90
        3
300
CELLSTYLE
  1
TABLEFORMAT_BEGIN
 90
        5
170
     1
 91
        0
 92
    32768
 62
   257
 93
        1
300
CONTENTFORMAT
  1
CONTENTFORMAT_BEGIN
 90
        0
 91
        0
 92
      512
 93
        0
300

 40
0.0
140
1.0
 94
        5
 62
     0
340
55
144
0.25
309
CONTENTFORMAT_END
171
     0
 94
        0
309
TABLEFORMAT_END
  1
CELLSTYLE_BEGIN
 90
        1
 91
        1
300
_TITLE
309
CELLSTYLE_END
300
CELLSTYLE
  1
TABLEFORMAT_BEGIN
 90
        5
170
     1
 91
        0
 92
        0
 62
   257
 93
        1
300
CONTENTFORMAT
  1
CONTENTFORMAT_BEGIN
 90
        0
 91
        0
 92
      512
 93
        0
300

 40
0.0
140
1.0
 94
        5
 62
     0
340
55
144
0.18
309
CONTENTFORMAT_END
171
     0
 94
        0
309
TABLEFORMAT_END
  1
CELLSTYLE_BEGIN
 90
        2
 91
        1
300
_HEADER
309
CELLSTYLE_END
300
CELLSTYLE
  1
TABLEFORMAT_BEGIN
 90
        5
170
     1
 91
        0
 92
        0
 62
   257
 93
        1
300
CONTENTFORMAT
  1
CONTENTFORMAT_BEGIN
 90
        0
 91
        0
 92
      512
 93
        0
300

 40
0.0
140
1.0
 94
        2
 62
     0
340
55
144
0.18
309
CONTENTFORMAT_END
171
     0
 94
        0
309
TABLEFORMAT_END
  1
CELLSTYLE_BEGIN
 90
        3
 91
        2
300
_DATA
309
CELLSTYLE_END
  0
XRECORD
  5
696
102
{ACAD_REACTORS
330
653
102
}
330
653
100
AcDbXrecord
280
     1
102
ACAD_ROUNDTRIP_PRE2007_TABLESTYLE
 90
      512
 91
        0
  1

 92
      512
 93
        0
  2

 94
      512
 95
        0
  3

  0
XRECORD
  5
671
102
{ACAD_REACTORS
330
670
102
}
330
670
100
AcDbXrecord
280
     1
102
RTVSPropertyOp0
 70
     1
102
RTVSPropertyOp1
 70
     1
102
RTVSPropertyOp2
 70
     1
102
RTVSPropertyOp3
 70
     1
102
RTVSPropertyOp4
 70
     1
102
RTVSPropertyOp5
 70
     1
102
RTVSPropertyOp6
 70
     1
102
RTVSPropertyOp7
 70
     1
102
RTVSPropertyOp8
 70
     1
102
RTVSPropertyOp9
 70
     1
102
RTVSPropertyOp10
 70
     1
102
RTVSPropertyOp11
 70
     1
102
RTVSPropertyOp12
 70
     1
102
RTVSPropertyOp13
 70
     1
102
RTVSPropertyOp14
 70
     1
102
RTVSPropertyOp15
 70
     1
102
RTVSPropertyOp16
 70
     1
102
RTVSPropertyOp17
 70
     1
102
RTVSPropertyOp18
 70
     1
102
RTVSPropertyOp19
 70
     1
102
RTVSPropertyOp20
 70
     1
102
RTVSPropertyOp21
 70
     1
102
RTVSPropertyOp22
 70
     1
102
RTVSPropertyOp23
 70
     1
102
RTVSPropertyOp24
 70
     1
102
RTVSPropertyOp25
 70
     1
102
RTVSPropertyOp26
 70
     1
102
RTVSPropertyOp27
 70
     1
102
RTVSPropertyOp28
 70
     1
102
RTVSPropertyOp29
 70
     1
102
RTVSPropertyOp30
 70
     1
102
RTVSPropertyOp31
 70
     1
102
RTVSPropertyOp32
 70
     1
  0
XRECORD
  5
66F
102
{ACAD_REACTORS
330
66E
102
}
330
66E
100
AcDbXrecord
280
     1
102
RTVSPropertyOp0
 70
     1
102
RTVSPropertyOp1
 70
     1
102
RTVSPropertyOp2
 70
     1
102
RTVSPropertyOp3
 70
     1
102
RTVSPropertyOp4
 70
     1
102
RTVSPropertyOp5
 70
     1
102
RTVSPropertyOp6
 70
     1
102
RTVSPropertyOp7
 70
     1
102
RTVSPropertyOp8
 70
     1
102
RTVSPropertyOp9
 70
     1
102
RTVSPropertyOp10
 70
     1
102
RTVSPropertyOp11
 70
     1
102
RTVSPropertyOp12
 70
     1
102
RTVSPropertyOp13
 70
     1
102
RTVSPropertyOp14
 70
     1
102
RTVSPropertyOp15
 70
     1
102
RTVSPropertyOp16
 70
     1
102
RTVSPropertyOp17
 70
     1
102
RTVSPropertyOp18
 70
     1
102
RTVSPropertyOp19
 70
     1
102
RTVSPropertyOp20
 70
     1
102
RTVSPropertyOp21
 70
     1
102
RTVSPropertyOp22
 70
     1
102
RTVSPropertyOp23
 70
     1
102
RTVSPropertyOp24
 70
     1
102
RTVSPropertyOp25
 70
     1
102
RTVSPropertyOp26
 70
     1
102
RTVSPropertyOp27
 70
     1
102
RTVSPropertyOp28
 70
     1
102
RTVSPropertyOp29
 70
     1
102
RTVSPropertyOp30
 70
     1
102
RTVSPropertyOp31
 70
     1
102
RTVSPropertyOp32
 70
     1
  0
XRECORD
  5
67D
102
{ACAD_REACTORS
330
67C
102
}
330
67C
100
AcDbXrecord
280
     1
102
RTVSPropertyOp0
 70
     1
102
RTVSPropertyOp1
 70
     1
102
RTVSPropertyOp2
 70
     1
102
RTVSPropertyOp3
 70
     1
102
RTVSPropertyOp4
 70
     1
102
RTVSPropertyOp5
 70
     1
102
RTVSPropertyOp6
 70
     1
102
RTVSPropertyOp7
 70
     1
102
RTVSPropertyOp8
 70
     1
102
RTVSPropertyOp9
 70
     1
102
RTVSPropertyOp10
 70
     1
102
RTVSPropertyOp11
 70
     1
102
RTVSPropertyOp12
 70
     1
102
RTVSPropertyOp13
 70
     1
102
RTVSPropertyOp14
 70
     1
102
RTVSPropertyOp15
 70
     1
102
RTVSPropertyOp16
 70
     1
102
RTVSPropertyOp17
 70
     1
102
RTVSPropertyOp18
 70
     1
102
RTVSPropertyOp19
 70
     1
102
RTVSPropertyOp20
 70
     1
102
RTVSPropertyOp21
 70
     1
102
RTVSPropertyOp22
 70
     1
102
RTVSPropertyOp23
 70
     1
102
RTVSPropertyOp24
 70
     1
102
RTVSPropertyOp25
 70
     1
102
RTVSPropertyOp26
 70
     1
102
RTVSPropertyOp27
 70
     1
102
RTVSPropertyOp28
 70
     1
102
RTVSPropertyOp29
 70
     1
102
RTVSPropertyOp30
 70
     1
102
RTVSPropertyOp31
 70
     1
102
RTVSPropertyOp32
 70
     1
  0
XRECORD
  5
685
102
{ACAD_REACTORS
330
684
102
}
330
684
100
AcDbXrecord
280
     1
102
RTVSPropertyOp0
 70
     1
102
RTVSPropertyOp1
 70
     1
102
RTVSPropertyOp2
 70
     1
102
RTVSPropertyOp3
 70
     1
102
RTVSPropertyOp4
 70
     1
102
RTVSPropertyOp5
 70
     1
102
RTVSPropertyOp6
 70
     1
102
RTVSPropertyOp7
 70
     1
102
RTVSPropertyOp8
 70
     1
102
RTVSPropertyOp9
 70
     1
102
RTVSPropertyOp10
 70
     1
102
RTVSPropertyOp11
 70
     1
102
RTVSPropertyOp12
 70
     1
102
RTVSPropertyOp13
 70
     1
102
RTVSPropertyOp14
 70
     1
102
RTVSPropertyOp15
 70
     1
102
RTVSPropertyOp16
 70
     1
102
RTVSPropertyOp17
 70
     1
102
RTVSPropertyOp18
 70
     1
102
RTVSPropertyOp19
 70
     1
102
RTVSPropertyOp20
 70
     1
102
RTVSPropertyOp21
 70
     1
102
RTVSPropertyOp22
 70
     1
102
RTVSPropertyOp23
 70
     1
102
RTVSPropertyOp24
 70
     1
102
RTVSPropertyOp25
 70
     1
102
RTVSPropertyOp26
 70
     1
102
RTVSPropertyOp27
 70
     1
102
RTVSPropertyOp28
 70
     1
102
RTVSPropertyOp29
 70
     1
102
RTVSPropertyOp30
 70
     1
102
RTVSPropertyOp31
 70
     1
102
RTVSPropertyOp32
 70
     1
  0
XRECORD
  5
677
102
{ACAD_REACTORS
330
676
102
}
330
676
100
AcDbXrecord
280
     1
102
RTVSPropertyOp0
 70
     1
102
RTVSPropertyOp1
 70
     1
102
RTVSPropertyOp2
 70
     1
102
RTVSPropertyOp3
 70
     1
102
RTVSPropertyOp4
 70
     1
102
RTVSPropertyOp5
 70
     1
102
RTVSPropertyOp6
 70
     1
102
RTVSPropertyOp7
 70
     1
102
RTVSPropertyOp8
 70
     1
102
RTVSPropertyOp9
 70
     1
102
RTVSPropertyOp10
 70
     1
102
RTVSPropertyOp11
 70
     1
102
RTVSPropertyOp12
 70
     1
102
RTVSPropertyOp13
 70
     1
102
RTVSPropertyOp14
 70
     1
102
RTVSPropertyOp15
 70
     1
102
RTVSPropertyOp16
 70
     1
102
RTVSPropertyOp17
 70
     1
102
RTVSPropertyOp18
 70
     1
102
RTVSPropertyOp19
 70
     1
102
RTVSPropertyOp20
 70
     1
102
RTVSPropertyOp21
 70
     1
102
RTVSPropertyOp22
 70
     1
102
RTVSPropertyOp23
 70
     1
102
RTVSPropertyOp24
 70
     1
102
RTVSPropertyOp25
 70
     1
102
RTVSPropertyOp26
 70
     1
102
RTVSPropertyOp27
 70
     1
102
RTVSPropertyOp28
 70
     1
102
RTVSPropertyOp29
 70
     1
102
RTVSPropertyOp30
 70
     1
102
RTVSPropertyOp31
 70
     1
102
RTVSPropertyOp32
 70
     1
  0
XRECORD
  5
67B
102
{ACAD_REACTORS
330
67A
102
}
330
67A
100
AcDbXrecord
280
     1
102
RTVSPropertyOp0
 70
     1
102
RTVSPropertyOp1
 70
     1
102
RTVSPropertyOp2
 70
     1
102
RTVSPropertyOp3
 70
     1
102
RTVSPropertyOp4
 70
     1
102
RTVSPropertyOp5
 70
     1
102
RTVSPropertyOp6
 70
     1
102
RTVSPropertyOp7
 70
     1
102
RTVSPropertyOp8
 70
     1
102
RTVSPropertyOp9
 70
     1
102
RTVSPropertyOp10
 70
     1
102
RTVSPropertyOp11
 70
     1
102
RTVSPropertyOp12
 70
     1
102
RTVSPropertyOp13
 70
     1
102
RTVSPropertyOp14
 70
     1
102
RTVSPropertyOp15
 70
     1
102
RTVSPropertyOp16
 70
     1
102
RTVSPropertyOp17
 70
     1
102
RTVSPropertyOp18
 70
     1
102
RTVSPropertyOp19
 70
     1
102
RTVSPropertyOp20
 70
     1
102
RTVSPropertyOp21
 70
     1
102
RTVSPropertyOp22
 70
     1
102
RTVSPropertyOp23
 70
     1
102
RTVSPropertyOp24
 70
     1
102
RTVSPropertyOp25
 70
     1
102
RTVSPropertyOp26
 70
     1
102
RTVSPropertyOp27
 70
     1
102
RTVSPropertyOp28
 70
     1
102
RTVSPropertyOp29
 70
     1
102
RTVSPropertyOp30
 70
     1
102
RTVSPropertyOp31
 70
     1
102
RTVSPropertyOp32
 70
     1
  0
XRECORD
  5
695
102
{ACAD_REACTORS
330
694
102
}
330
694
100
AcDbXrecord
280
     1
102
RTVSPropertyOp0
 70
     0
102
RTVSPropertyOp1
 70
     0
102
RTVSPropertyOp2
 70
     0
102
RTVSPropertyOp3
 70
     0
102
RTVSPropertyOp4
 70
     0
102
RTVSPropertyOp5
 70
     0
102
RTVSPropertyOp6
 70
     0
102
RTVSPropertyOp7
 70
     0
102
RTVSPropertyOp8
 70
     0
102
RTVSPropertyOp9
 70
     0
102
RTVSPropertyOp10
 70
     0
102
RTVSPropertyOp11
 70
     0
102
RTVSPropertyOp12
 70
     0
102
RTVSPropertyOp13
 70
     0
102
RTVSPropertyOp14
 70
     2
102
RTVSPropertyOp15
 70
     0
102
RTVSPropertyOp16
 70
     0
102
RTVSPropertyOp17
 70
     0
102
RTVSPropertyOp18
 70
     0
102
RTVSPropertyOp19
 70
     0
102
RTVSPropertyOp20
 70
     0
102
RTVSPropertyOp21
 70
     0
102
RTVSPropertyOp22
 70
     0
102
RTVSPropertyOp23
 70
     0
102
RTVSPropertyOp24
 70
     0
102
RTVSPropertyOp25
 70
     0
102
RTVSPropertyOp26
 70
     0
102
RTVSPropertyOp27
 70
     0
102
RTVSPropertyOp28
 70
     0
102
RTVSPropertyOp29
 70
     0
102
RTVSPropertyOp30
 70
     0
102
RTVSPropertyOp31
 70
     0
102
RTVSPropertyOp32
 70
     0
  0
XRECORD
  5
683
102
{ACAD_REACTORS
330
682
102
}
330
682
100
AcDbXrecord
280
     1
102
RTVSPropertyOp0
 70
     1
102
RTVSPropertyOp1
 70
     1
102
RTVSPropertyOp2
 70
     1
102
RTVSPropertyOp3
 70
     1
102
RTVSPropertyOp4
 70
     1
102
RTVSPropertyOp5
 70
     1
102
RTVSPropertyOp6
 70
     1
102
RTVSPropertyOp7
 70
     1
102
RTVSPropertyOp8
 70
     1
102
RTVSPropertyOp9
 70
     1
102
RTVSPropertyOp10
 70
     1
102
RTVSPropertyOp11
 70
     1
102
RTVSPropertyOp12
 70
     1
102
RTVSPropertyOp13
 70
     1
102
RTVSPropertyOp14
 70
     1
102
RTVSPropertyOp15
 70
     1
102
RTVSPropertyOp16
 70
     1
102
RTVSPropertyOp17
 70
     1
102
RTVSPropertyOp18
 70
     1
102
RTVSPropertyOp19
 70
     1
102
RTVSPropertyOp20
 70
     1
102
RTVSPropertyOp21
 70
     1
102
RTVSPropertyOp22
 70
     1
102
RTVSPropertyOp23
 70
     1
102
RTVSPropertyOp24
 70
     1
102
RTVSPropertyOp25
 70
     1
102
RTVSPropertyOp26
 70
     1
102
RTVSPropertyOp27
 70
     1
102
RTVSPropertyOp28
 70
     1
102
RTVSPropertyOp29
 70
     1
102
RTVSPropertyOp30
 70
     1
102
RTVSPropertyOp31
 70
     1
102
RTVSPropertyOp32
 70
     1
  0
XRECORD
  5
667
102
{ACAD_REACTORS
330
666
102
}
330
666
100
AcDbXrecord
280
     1
102
RTVSPropertyOp0
 70
     1
102
RTVSPropertyOp1
 70
     1
102
RTVSPropertyOp2
 70
     1
102
RTVSPropertyOp3
 70
     1
102
RTVSPropertyOp4
 70
     1
102
RTVSPropertyOp5
 70
     1
102
RTVSPropertyOp6
 70
     1
102
RTVSPropertyOp7
 70
     1
102
RTVSPropertyOp8
 70
     1
102
RTVSPropertyOp9
 70
     1
102
RTVSPropertyOp10
 70
     1
102
RTVSPropertyOp11
 70
     1
102
RTVSPropertyOp12
 70
     1
102
RTVSPropertyOp13
 70
     1
102
RTVSPropertyOp14
 70
     1
102
RTVSPropertyOp15
 70
     1
102
RTVSPropertyOp16
 70
     1
102
RTVSPropertyOp17
 70
     1
102
RTVSPropertyOp18
 70
     1
102
RTVSPropertyOp19
 70
     1
102
RTVSPropertyOp20
 70
     1
102
RTVSPropertyOp21
 70
     1
102
RTVSPropertyOp22
 70
     1
102
RTVSPropertyOp23
 70
     1
102
RTVSPropertyOp24
 70
     1
102
RTVSPropertyOp25
 70
     1
102
RTVSPropertyOp26
 70
     1
102
RTVSPropertyOp27
 70
     1
102
RTVSPropertyOp28
 70
     1
102
RTVSPropertyOp29
 70
     1
102
RTVSPropertyOp30
 70
     1
102
RTVSPropertyOp31
 70
     1
102
RTVSPropertyOp32
 70
     1
  0
XRECORD
  5
669
102
{ACAD_REACTORS
330
668
102
}
330
668
100
AcDbXrecord
280
     1
102
RTVSPropertyOp0
 70
     1
102
RTVSPropertyOp1
 70
     1
102
RTVSPropertyOp2
 70
     1
102
RTVSPropertyOp3
 70
     1
102
RTVSPropertyOp4
 70
     1
102
RTVSPropertyOp5
 70
     1
102
RTVSPropertyOp6
 70
     1
102
RTVSPropertyOp7
 70
     1
102
RTVSPropertyOp8
 70
     1
102
RTVSPropertyOp9
 70
     1
102
RTVSPropertyOp10
 70
     1
102
RTVSPropertyOp11
 70
     1
102
RTVSPropertyOp12
 70
     1
102
RTVSPropertyOp13
 70
     1
102
RTVSPropertyOp14
 70
     1
102
RTVSPropertyOp15
 70
     1
102
RTVSPropertyOp16
 70
     1
102
RTVSPropertyOp17
 70
     1
102
RTVSPropertyOp18
 70
     1
102
RTVSPropertyOp19
 70
     1
102
RTVSPropertyOp20
 70
     1
102
RTVSPropertyOp21
 70
     1
102
RTVSPropertyOp22
 70
     1
102
RTVSPropertyOp23
 70
     1
102
RTVSPropertyOp24
 70
     1
102
RTVSPropertyOp25
 70
     1
102
RTVSPropertyOp26
 70
     1
102
RTVSPropertyOp27
 70
     1
102
RTVSPropertyOp28
 70
     1
102
RTVSPropertyOp29
 70
     1
102
RTVSPropertyOp30
 70
     1
102
RTVSPropertyOp31
 70
     1
102
RTVSPropertyOp32
 70
     1
  0
XRECORD
  5
66B
102
{ACAD_REACTORS
330
66A
102
}
330
66A
100
AcDbXrecord
280
     1
102
RTVSPropertyOp0
 70
     1
102
RTVSPropertyOp1
 70
     1
102
RTVSPropertyOp2
 70
     1
102
RTVSPropertyOp3
 70
     1
102
RTVSPropertyOp4
 70
     1
102
RTVSPropertyOp5
 70
     1
102
RTVSPropertyOp6
 70
     1
102
RTVSPropertyOp7
 70
     1
102
RTVSPropertyOp8
 70
     1
102
RTVSPropertyOp9
 70
     1
102
RTVSPropertyOp10
 70
     1
102
RTVSPropertyOp11
 70
     1
102
RTVSPropertyOp12
 70
     1
102
RTVSPropertyOp13
 70
     1
102
RTVSPropertyOp14
 70
     1
102
RTVSPropertyOp15
 70
     1
102
RTVSPropertyOp16
 70
     1
102
RTVSPropertyOp17
 70
     1
102
RTVSPropertyOp18
 70
     1
102
RTVSPropertyOp19
 70
     1
102
RTVSPropertyOp20
 70
     1
102
RTVSPropertyOp21
 70
     1
102
RTVSPropertyOp22
 70
     1
102
RTVSPropertyOp23
 70
     1
102
RTVSPropertyOp24
 70
     1
102
RTVSPropertyOp25
 70
     1
102
RTVSPropertyOp26
 70
     1
102
RTVSPropertyOp27
 70
     1
102
RTVSPropertyOp28
 70
     1
102
RTVSPropertyOp29
 70
     1
102
RTVSPropertyOp30
 70
     1
102
RTVSPropertyOp31
 70
     1
102
RTVSPropertyOp32
 70
     1
  0
XRECORD
  5
66D
102
{ACAD_REACTORS
330
66C
102
}
330
66C
100
AcDbXrecord
280
     1
102
RTVSPropertyOp0
 70
     1
102
RTVSPropertyOp1
 70
     1
102
RTVSPropertyOp2
 70
     1
102
RTVSPropertyOp3
 70
     1
102
RTVSPropertyOp4
 70
     1
102
RTVSPropertyOp5
 70
     1
102
RTVSPropertyOp6
 70
     1
102
RTVSPropertyOp7
 70
     1
102
RTVSPropertyOp8
 70
     1
102
RTVSPropertyOp9
 70
     1
102
RTVSPropertyOp10
 70
     1
102
RTVSPropertyOp11
 70
     1
102
RTVSPropertyOp12
 70
     1
102
RTVSPropertyOp13
 70
     1
102
RTVSPropertyOp14
 70
     1
102
RTVSPropertyOp15
 70
     1
102
RTVSPropertyOp16
 70
     1
102
RTVSPropertyOp17
 70
     1
102
RTVSPropertyOp18
 70
     1
102
RTVSPropertyOp19
 70
     1
102
RTVSPropertyOp20
 70
     1
102
RTVSPropertyOp21
 70
     1
102
RTVSPropertyOp22
 70
     1
102
RTVSPropertyOp23
 70
     1
102
RTVSPropertyOp24
 70
     1
102
RTVSPropertyOp25
 70
     1
102
RTVSPropertyOp26
 70
     1
102
RTVSPropertyOp27
 70
     1
102
RTVSPropertyOp28
 70
     1
102
RTVSPropertyOp29
 70
     1
102
RTVSPropertyOp30
 70
     1
102
RTVSPropertyOp31
 70
     1
102
RTVSPropertyOp32
 70
     1
  0
XRECORD
  5
675
102
{ACAD_REACTORS
330
674
102
}
330
674
100
AcDbXrecord
280
     1
102
RTVSPropertyOp0
 70
     1
102
RTVSPropertyOp1
 70
     1
102
RTVSPropertyOp2
 70
     1
102
RTVSPropertyOp3
 70
     1
102
RTVSPropertyOp4
 70
     1
102
RTVSPropertyOp5
 70
     1
102
RTVSPropertyOp6
 70
     1
102
RTVSPropertyOp7
 70
     1
102
RTVSPropertyOp8
 70
     1
102
RTVSPropertyOp9
 70
     1
102
RTVSPropertyOp10
 70
     1
102
RTVSPropertyOp11
 70
     1
102
RTVSPropertyOp12
 70
     1
102
RTVSPropertyOp13
 70
     1
102
RTVSPropertyOp14
 70
     1
102
RTVSPropertyOp15
 70
     1
102
RTVSPropertyOp16
 70
     1
102
RTVSPropertyOp17
 70
     1
102
RTVSPropertyOp18
 70
     1
102
RTVSPropertyOp19
 70
     1
102
RTVSPropertyOp20
 70
     1
102
RTVSPropertyOp21
 70
     1
102
RTVSPropertyOp22
 70
     1
102
RTVSPropertyOp23
 70
     1
102
RTVSPropertyOp24
 70
     1
102
RTVSPropertyOp25
 70
     1
102
RTVSPropertyOp26
 70
     1
102
RTVSPropertyOp27
 70
     1
102
RTVSPropertyOp28
 70
     1
102
RTVSPropertyOp29
 70
     1
102
RTVSPropertyOp30
 70
     1
102
RTVSPropertyOp31
 70
     1
102
RTVSPropertyOp32
 70
     1
  0
XRECORD
  5
691
102
{ACAD_REACTORS
330
690
102
}
330
690
100
AcDbXrecord
280
     1
102
RTVSPropertyOp0
 70
     0
102
RTVSPropertyOp1
 70
     0
102
RTVSPropertyOp2
 70
     0
102
RTVSPropertyOp3
 70
     0
102
RTVSPropertyOp4
 70
     0
102
RTVSPropertyOp5
 70
     0
102
RTVSPropertyOp6
 70
     0
102
RTVSPropertyOp7
 70
     0
102
RTVSPropertyOp8
 70
     0
102
RTVSPropertyOp9
 70
     0
102
RTVSPropertyOp10
 70
     0
102
RTVSPropertyOp11
 70
     0
102
RTVSPropertyOp12
 70
     0
102
RTVSPropertyOp13
 70
     0
102
RTVSPropertyOp14
 70
     2
102
RTVSPropertyOp15
 70
     0
102
RTVSPropertyOp16
 70
     0
102
RTVSPropertyOp17
 70
     0
102
RTVSPropertyOp18
 70
     0
102
RTVSPropertyOp19
 70
     0
102
RTVSPropertyOp20
 70
     0
102
RTVSPropertyOp21
 70
     0
102
RTVSPropertyOp22
 70
     0
102
RTVSPropertyOp23
 70
     0
102
RTVSPropertyOp24
 70
     0
102
RTVSPropertyOp25
 70
     0
102
RTVSPropertyOp26
 70
     0
102
RTVSPropertyOp27
 70
     0
102
RTVSPropertyOp28
 70
     0
102
RTVSPropertyOp29
 70
     0
102
RTVSPropertyOp30
 70
     0
102
RTVSPropertyOp31
 70
     0
102
RTVSPropertyOp32
 70
     0
  0
XRECORD
  5
681
102
{ACAD_REACTORS
330
680
102
}
330
680
100
AcDbXrecord
280
     1
102
RTVSPropertyOp0
 70
     1
102
RTVSPropertyOp1
 70
     1
102
RTVSPropertyOp2
 70
     1
102
RTVSPropertyOp3
 70
     1
102
RTVSPropertyOp4
 70
     1
102
RTVSPropertyOp5
 70
     1
102
RTVSPropertyOp6
 70
     1
102
RTVSPropertyOp7
 70
     1
102
RTVSPropertyOp8
 70
     1
102
RTVSPropertyOp9
 70
     1
102
RTVSPropertyOp10
 70
     1
102
RTVSPropertyOp11
 70
     1
102
RTVSPropertyOp12
 70
     1
102
RTVSPropertyOp13
 70
     1
102
RTVSPropertyOp14
 70
     1
102
RTVSPropertyOp15
 70
     1
102
RTVSPropertyOp16
 70
     1
102
RTVSPropertyOp17
 70
     1
102
RTVSPropertyOp18
 70
     1
102
RTVSPropertyOp19
 70
     1
102
RTVSPropertyOp20
 70
     1
102
RTVSPropertyOp21
 70
     1
102
RTVSPropertyOp22
 70
     1
102
RTVSPropertyOp23
 70
     1
102
RTVSPropertyOp24
 70
     1
102
RTVSPropertyOp25
 70
     1
102
RTVSPropertyOp26
 70
     1
102
RTVSPropertyOp27
 70
     1
102
RTVSPropertyOp28
 70
     1
102
RTVSPropertyOp29
 70
     1
102
RTVSPropertyOp30
 70
     1
102
RTVSPropertyOp31
 70
     1
102
RTVSPropertyOp32
 70
     1
  0
XRECORD
  5
693
102
{ACAD_REACTORS
330
692
102
}
330
692
100
AcDbXrecord
280
     1
102
RTVSPropertyOp0
 70
     0
102
RTVSPropertyOp1
 70
     0
102
RTVSPropertyOp2
 70
     0
102
RTVSPropertyOp3
 70
     0
102
RTVSPropertyOp4
 70
     0
102
RTVSPropertyOp5
 70
     0
102
RTVSPropertyOp6
 70
     0
102
RTVSPropertyOp7
 70
     0
102
RTVSPropertyOp8
 70
     0
102
RTVSPropertyOp9
 70
     0
102
RTVSPropertyOp10
 70
     0
102
RTVSPropertyOp11
 70
     0
102
RTVSPropertyOp12
 70
     0
102
RTVSPropertyOp13
 70
     0
102
RTVSPropertyOp14
 70
     2
102
RTVSPropertyOp15
 70
     0
102
RTVSPropertyOp16
 70
     0
102
RTVSPropertyOp17
 70
     0
102
RTVSPropertyOp18
 70
     0
102
RTVSPropertyOp19
 70
     0
102
RTVSPropertyOp20
 70
     0
102
RTVSPropertyOp21
 70
     0
102
RTVSPropertyOp22
 70
     0
102
RTVSPropertyOp23
 70
     0
102
RTVSPropertyOp24
 70
     0
102
RTVSPropertyOp25
 70
     0
102
RTVSPropertyOp26
 70
     0
102
RTVSPropertyOp27
 70
     0
102
RTVSPropertyOp28
 70
     0
102
RTVSPropertyOp29
 70
     0
102
RTVSPropertyOp30
 70
     0
102
RTVSPropertyOp31
 70
     0
102
RTVSPropertyOp32
 70
     0
  0
XRECORD
  5
679
102
{ACAD_REACTORS
330
678
102
}
330
678
100
AcDbXrecord
280
     1
102
RTVSPropertyOp0
 70
     1
102
RTVSPropertyOp1
 70
     1
102
RTVSPropertyOp2
 70
     1
102
RTVSPropertyOp3
 70
     1
102
RTVSPropertyOp4
 70
     1
102
RTVSPropertyOp5
 70
     1
102
RTVSPropertyOp6
 70
     1
102
RTVSPropertyOp7
 70
     1
102
RTVSPropertyOp8
 70
     1
102
RTVSPropertyOp9
 70
     1
102
RTVSPropertyOp10
 70
     1
102
RTVSPropertyOp11
 70
     1
102
RTVSPropertyOp12
 70
     1
102
RTVSPropertyOp13
 70
     1
102
RTVSPropertyOp14
 70
     1
102
RTVSPropertyOp15
 70
     1
102
RTVSPropertyOp16
 70
     1
102
RTVSPropertyOp17
 70
     1
102
RTVSPropertyOp18
 70
     1
102
RTVSPropertyOp19
 70
     1
102
RTVSPropertyOp20
 70
     1
102
RTVSPropertyOp21
 70
     1
102
RTVSPropertyOp22
 70
     1
102
RTVSPropertyOp23
 70
     1
102
RTVSPropertyOp24
 70
     1
102
RTVSPropertyOp25
 70
     1
102
RTVSPropertyOp26
 70
     1
102
RTVSPropertyOp27
 70
     1
102
RTVSPropertyOp28
 70
     1
102
RTVSPropertyOp29
 70
     1
102
RTVSPropertyOp30
 70
     1
102
RTVSPropertyOp31
 70
     1
102
RTVSPropertyOp32
 70
     1
  0
XRECORD
  5
68F
102
{ACAD_REACTORS
330
68E
102
}
330
68E
100
AcDbXrecord
280
     1
102
RTVSPropertyOp0
 70
     1
102
RTVSPropertyOp1
 70
     1
102
RTVSPropertyOp2
 70
     1
102
RTVSPropertyOp3
 70
     1
102
RTVSPropertyOp4
 70
     1
102
RTVSPropertyOp5
 70
     1
102
RTVSPropertyOp6
 70
     1
102
RTVSPropertyOp7
 70
     1
102
RTVSPropertyOp8
 70
     1
102
RTVSPropertyOp9
 70
     1
102
RTVSPropertyOp10
 70
     1
102
RTVSPropertyOp11
 70
     1
102
RTVSPropertyOp12
 70
     1
102
RTVSPropertyOp13
 70
     1
102
RTVSPropertyOp14
 70
     1
102
RTVSPropertyOp15
 70
     1
102
RTVSPropertyOp16
 70
     1
102
RTVSPropertyOp17
 70
     1
102
RTVSPropertyOp18
 70
     1
102
RTVSPropertyOp19
 70
     1
102
RTVSPropertyOp20
 70
     1
102
RTVSPropertyOp21
 70
     1
102
RTVSPropertyOp22
 70
     1
102
RTVSPropertyOp23
 70
     1
102
RTVSPropertyOp24
 70
     1
102
RTVSPropertyOp25
 70
     1
102
RTVSPropertyOp26
 70
     1
102
RTVSPropertyOp27
 70
     1
102
RTVSPropertyOp28
 70
     1
102
RTVSPropertyOp29
 70
     1
102
RTVSPropertyOp30
 70
     1
102
RTVSPropertyOp31
 70
     1
102
RTVSPropertyOp32
 70
     1
  0
XRECORD
  5
68D
102
{ACAD_REACTORS
330
68C
102
}
330
68C
100
AcDbXrecord
280
     1
102
RTVSPropertyOp0
 70
     1
102
RTVSPropertyOp1
 70
     1
102
RTVSPropertyOp2
 70
     1
102
RTVSPropertyOp3
 70
     1
102
RTVSPropertyOp4
 70
     1
102
RTVSPropertyOp5
 70
     1
102
RTVSPropertyOp6
 70
     1
102
RTVSPropertyOp7
 70
     1
102
RTVSPropertyOp8
 70
     1
102
RTVSPropertyOp9
 70
     1
102
RTVSPropertyOp10
 70
     1
102
RTVSPropertyOp11
 70
     1
102
RTVSPropertyOp12
 70
     1
102
RTVSPropertyOp13
 70
     1
102
RTVSPropertyOp14
 70
     1
102
RTVSPropertyOp15
 70
     1
102
RTVSPropertyOp16
 70
     1
102
RTVSPropertyOp17
 70
     1
102
RTVSPropertyOp18
 70
     1
102
RTVSPropertyOp19
 70
     1
102
RTVSPropertyOp20
 70
     1
102
RTVSPropertyOp21
 70
     1
102
RTVSPropertyOp22
 70
     1
102
RTVSPropertyOp23
 70
     1
102
RTVSPropertyOp24
 70
     1
102
RTVSPropertyOp25
 70
     1
102
RTVSPropertyOp26
 70
     1
102
RTVSPropertyOp27
 70
     1
102
RTVSPropertyOp28
 70
     1
102
RTVSPropertyOp29
 70
     1
102
RTVSPropertyOp30
 70
     1
102
RTVSPropertyOp31
 70
     1
102
RTVSPropertyOp32
 70
     1
  0
XRECORD
  5
687
102
{ACAD_REACTORS
330
686
102
}
330
686
100
AcDbXrecord
280
     1
102
RTVSPropertyOp0
 70
     1
102
RTVSPropertyOp1
 70
     1
102
RTVSPropertyOp2
 70
     1
102
RTVSPropertyOp3
 70
     1
102
RTVSPropertyOp4
 70
     1
102
RTVSPropertyOp5
 70
     1
102
RTVSPropertyOp6
 70
     1
102
RTVSPropertyOp7
 70
     1
102
RTVSPropertyOp8
 70
     1
102
RTVSPropertyOp9
 70
     1
102
RTVSPropertyOp10
 70
     1
102
RTVSPropertyOp11
 70
     1
102
RTVSPropertyOp12
 70
     1
102
RTVSPropertyOp13
 70
     1
102
RTVSPropertyOp14
 70
     1
102
RTVSPropertyOp15
 70
     1
102
RTVSPropertyOp16
 70
     1
102
RTVSPropertyOp17
 70
     1
102
RTVSPropertyOp18
 70
     1
102
RTVSPropertyOp19
 70
     1
102
RTVSPropertyOp20
 70
     1
102
RTVSPropertyOp21
 70
     1
102
RTVSPropertyOp22
 70
     1
102
RTVSPropertyOp23
 70
     1
102
RTVSPropertyOp24
 70
     1
102
RTVSPropertyOp25
 70
     1
102
RTVSPropertyOp26
 70
     1
102
RTVSPropertyOp27
 70
     1
102
RTVSPropertyOp28
 70
     1
102
RTVSPropertyOp29
 70
     1
102
RTVSPropertyOp30
 70
     1
102
RTVSPropertyOp31
 70
     1
102
RTVSPropertyOp32
 70
     1
  0
XRECORD
  5
689
102
{ACAD_REACTORS
330
688
102
}
330
688
100
AcDbXrecord
280
     1
102
RTVSPropertyOp0
 70
     1
102
RTVSPropertyOp1
 70
     1
102
RTVSPropertyOp2
 70
     1
102
RTVSPropertyOp3
 70
     1
102
RTVSPropertyOp4
 70
     1
102
RTVSPropertyOp5
 70
     1
102
RTVSPropertyOp6
 70
     1
102
RTVSPropertyOp7
 70
     1
102
RTVSPropertyOp8
 70
     1
102
RTVSPropertyOp9
 70
     1
102
RTVSPropertyOp10
 70
     1
102
RTVSPropertyOp11
 70
     1
102
RTVSPropertyOp12
 70
     1
102
RTVSPropertyOp13
 70
     1
102
RTVSPropertyOp14
 70
     1
102
RTVSPropertyOp15
 70
     1
102
RTVSPropertyOp16
 70
     1
102
RTVSPropertyOp17
 70
     1
102
RTVSPropertyOp18
 70
     1
102
RTVSPropertyOp19
 70
     1
102
RTVSPropertyOp20
 70
     1
102
RTVSPropertyOp21
 70
     1
102
RTVSPropertyOp22
 70
     1
102
RTVSPropertyOp23
 70
     1
102
RTVSPropertyOp24
 70
     1
102
RTVSPropertyOp25
 70
     1
102
RTVSPropertyOp26
 70
     1
102
RTVSPropertyOp27
 70
     1
102
RTVSPropertyOp28
 70
     1
102
RTVSPropertyOp29
 70
     1
102
RTVSPropertyOp30
 70
     1
102
RTVSPropertyOp31
 70
     1
102
RTVSPropertyOp32
 70
     1
  0
XRECORD
  5
67F
102
{ACAD_REACTORS
330
67E
102
}
330
67E
100
AcDbXrecord
280
     1
102
RTVSPropertyOp0
 70
     1
102
RTVSPropertyOp1
 70
     1
102
RTVSPropertyOp2
 70
     1
102
RTVSPropertyOp3
 70
     1
102
RTVSPropertyOp4
 70
     1
102
RTVSPropertyOp5
 70
     1
102
RTVSPropertyOp6
 70
     1
102
RTVSPropertyOp7
 70
     1
102
RTVSPropertyOp8
 70
     1
102
RTVSPropertyOp9
 70
     1
102
RTVSPropertyOp10
 70
     1
102
RTVSPropertyOp11
 70
     1
102
RTVSPropertyOp12
 70
     1
102
RTVSPropertyOp13
 70
     1
102
RTVSPropertyOp14
 70
     1
102
RTVSPropertyOp15
 70
     1
102
RTVSPropertyOp16
 70
     1
102
RTVSPropertyOp17
 70
     1
102
RTVSPropertyOp18
 70
     1
102
RTVSPropertyOp19
 70
     1
102
RTVSPropertyOp20
 70
     1
102
RTVSPropertyOp21
 70
     1
102
RTVSPropertyOp22
 70
     1
102
RTVSPropertyOp23
 70
     1
102
RTVSPropertyOp24
 70
     1
102
RTVSPropertyOp25
 70
     1
102
RTVSPropertyOp26
 70
     1
102
RTVSPropertyOp27
 70
     1
102
RTVSPropertyOp28
 70
     1
102
RTVSPropertyOp29
 70
     1
102
RTVSPropertyOp30
 70
     1
102
RTVSPropertyOp31
 70
     1
102
RTVSPropertyOp32
 70
     1
  0
XRECORD
  5
673
102
{ACAD_REACTORS
330
672
102
}
330
672
100
AcDbXrecord
280
     1
102
RTVSPropertyOp0
 70
     1
102
RTVSPropertyOp1
 70
     1
102
RTVSPropertyOp2
 70
     1
102
RTVSPropertyOp3
 70
     1
102
RTVSPropertyOp4
 70
     1
102
RTVSPropertyOp5
 70
     1
102
RTVSPropertyOp6
 70
     1
102
RTVSPropertyOp7
 70
     1
102
RTVSPropertyOp8
 70
     1
102
RTVSPropertyOp9
 70
     1
102
RTVSPropertyOp10
 70
     1
102
RTVSPropertyOp11
 70
     1
102
RTVSPropertyOp12
 70
     1
102
RTVSPropertyOp13
 70
     1
102
RTVSPropertyOp14
 70
     1
102
RTVSPropertyOp15
 70
     1
102
RTVSPropertyOp16
 70
     1
102
RTVSPropertyOp17
 70
     1
102
RTVSPropertyOp18
 70
     1
102
RTVSPropertyOp19
 70
     1
102
RTVSPropertyOp20
 70
     1
102
RTVSPropertyOp21
 70
     1
102
RTVSPropertyOp22
 70
     1
102
RTVSPropertyOp23
 70
     1
102
RTVSPropertyOp24
 70
     1
102
RTVSPropertyOp25
 70
     1
102
RTVSPropertyOp26
 70
     1
102
RTVSPropertyOp27
 70
     1
102
RTVSPropertyOp28
 70
     1
102
RTVSPropertyOp29
 70
     1
102
RTVSPropertyOp30
 70
     1
102
RTVSPropertyOp31
 70
     1
102
RTVSPropertyOp32
 70
     1
  0
XRECORD
  5
68B
102
{ACAD_REACTORS
330
68A
102
}
330
68A
100
AcDbXrecord
280
     1
102
RTVSPropertyOp0
 70
     1
102
RTVSPropertyOp1
 70
     1
102
RTVSPropertyOp2
 70
     1
102
RTVSPropertyOp3
 70
     1
102
RTVSPropertyOp4
 70
     1
102
RTVSPropertyOp5
 70
     1
102
RTVSPropertyOp6
 70
     1
102
RTVSPropertyOp7
 70
     1
102
RTVSPropertyOp8
 70
     1
102
RTVSPropertyOp9
 70
     1
102
RTVSPropertyOp10
 70
     1
102
RTVSPropertyOp11
 70
     1
102
RTVSPropertyOp12
 70
     1
102
RTVSPropertyOp13
 70
     1
102
RTVSPropertyOp14
 70
     1
102
RTVSPropertyOp15
 70
     1
102
RTVSPropertyOp16
 70
     1
102
RTVSPropertyOp17
 70
     1
102
RTVSPropertyOp18
 70
     1
102
RTVSPropertyOp19
 70
     1
102
RTVSPropertyOp20
 70
     1
102
RTVSPropertyOp21
 70
     1
102
RTVSPropertyOp22
 70
     1
102
RTVSPropertyOp23
 70
     1
102
RTVSPropertyOp24
 70
     1
102
RTVSPropertyOp25
 70
     1
102
RTVSPropertyOp26
 70
     1
102
RTVSPropertyOp27
 70
     1
102
RTVSPropertyOp28
 70
     1
102
RTVSPropertyOp29
 70
     1
102
RTVSPropertyOp30
 70
     1
102
RTVSPropertyOp31
 70
     1
102
RTVSPropertyOp32
 70
     1
  0
ENDSEC
  0
EOF
