  0
SECTION
  2
HEADER
  9
$ACADVER
  1
AC1009
  9
$INSBASE
 10
0.0
 20
0.0
 30
0.0
  9
$EXTMIN
 10
74.945224031849307
 20
-0.0080055348198584
 30
-0.0015258207003583
  9
$EXTMAX
 10
425.7504080198417
 20
262.35338679201362
 30
0.0000000349246037
  9
$LIMMIN
 10
0.0
 20
0.0
  9
$LIMMAX
 10
12.0
 20
9.0
  9
$ORTHOMODE
 70
     1
  9
$REGENMODE
 70
     1
  9
$FILLMODE
 70
     1
  9
$QTEXTMODE
 70
     0
  9
$MIRRTEXT
 70
     0
  9
$DRAGMODE
 70
     2
  9
$LTSCALE
 40
1.0
  9
$OSMODE
 70
    37
  9
$ATTMODE
 70
     1
  9
$TEXTSIZE
 40
0.2
  9
$TRACEWID
 40
0.05
  9
$TEXTSTYLE
  7
ROMANS
  9
$CLAYER
  8
0
  9
$CELTYPE
  6
BYLAYER
  9
$CECOLOR
 62
   256
  9
$DIMSCALE
 40
1.0
  9
$DIMASZ
 40
0.09375
  9
$DIMEXO
 40
0.0625
  9
$DIMDLI
 40
0.375
  9
$DIMRND
 40
0.0
  9
$DIMDLE
 40
0.0
  9
$DIMEXE
 40
0.03125
  9
$DIMTP
 40
0.0
  9
$DIMTM
 40
0.0
  9
$DIMTXT
 40
0.09375
  9
$DIMCEN
 40
0.09375
  9
$DIMTSZ
 40
0.0
  9
$DIMTOL
 70
     0
  9
$DIMLIM
 70
     0
  9
$DIMTIH
 70
     0
  9
$DIMTOH
 70
     0
  9
$DIMSE1
 70
     0
  9
$DIMSE2
 70
     0
  9
$DIMTAD
 70
     0
  9
$DIMZIN
 70
     0
  9
$DIMBLK
  1

  9
$DIMASO
 70
     1
  9
$DIMSHO
 70
     1
  9
$DIMPOST
  1

  9
$DIMAPOST
  1

  9
$DIMALT
 70
     0
  9
$DIMALTD
 70
     2
  9
$DIMALTF
 40
25.399999999999999
  9
$DIMLFAC
 40
1.0
  9
$DIMTOFL
 70
     0
  9
$DIMTVP
 40
0.0
  9
$DIMTIX
 70
     0
  9
$DIMSOXD
 70
     0
  9
$DIMSAH
 70
     0
  9
$DIMBLK1
  1

  9
$DIMBLK2
  1

  9
$DIMSTYLE
  2
BAC
  9
$DIMCLRD
 70
     0
  9
$DIMCLRE
 70
     6
  9
$DIMCLRT
 70
     0
  9
$DIMTFAC
 40
1.0
  9
$DIMGAP
 40
0.0625
  9
$LUNITS
 70
     5
  9
$LUPREC
 70
     6
  9
$SKETCHINC
 40
0.1
  9
$FILLETRAD
 40
0.5
  9
$AUNITS
 70
     0
  9
$AUPREC
 70
     0
  9
$MENU
  1
.
  9
$ELEVATION
 40
0.0
  9
$PELEVATION
 40
0.0
  9
$THICKNESS
 40
0.0
  9
$LIMCHECK
 70
     0
  9
$BLIPMODE
 70
     0
  9
$CHAMFERA
 40
0.5
  9
$CHAMFERB
 40
0.5
  9
$SKPOLY
 70
     0
  9
$TDCREATE
 40
2456827.642915498
  9
$TDUPDATE
 40
2456827.6438420019
  9
$TDINDWG
 40
0.0009282176
  9
$TDUSRTIMER
 40
0.0009277315
  9
$USRTIMER
 70
     1
  9
$ANGBASE
 50
0.0
  9
$ANGDIR
 70
     0
  9
$PDMODE
 70
     0
  9
$PDSIZE
 40
0.0
  9
$PLINEWID
 40
0.0
  9
$COORDS
 70
     1
  9
$SPLFRAME
 70
     0
  9
$SPLINETYPE
 70
     6
  9
$SPLINESEGS
 70
     8
  9
$ATTDIA
 70
     0
  9
$ATTREQ
 70
     1
  9
$HANDLING
 70
     1
  9
$HANDSEED
  5
682
  9
$SURFTAB1
 70
     6
  9
$SURFTAB2
 70
     6
  9
$SURFTYPE
 70
     6
  9
$SURFU
 70
     6
  9
$SURFV
 70
     6
  9
$UCSNAME
  2

  9
$UCSORG
 10
0.0
 20
0.0
 30
0.0
  9
$UCSXDIR
 10
1.0
 20
0.0
 30
0.0
  9
$UCSYDIR
 10
0.0
 20
1.0
 30
0.0
  9
$PUCSNAME
  2

  9
$PUCSORG
 10
0.0
 20
0.0
 30
0.0
  9
$PUCSXDIR
 10
1.0
 20
0.0
 30
0.0
  9
$PUCSYDIR
 10
0.0
 20
1.0
 30
0.0
  9
$USERI1
 70
     0
  9
$USERI2
 70
     0
  9
$USERI3
 70
     0
  9
$USERI4
 70
     0
  9
$USERI5
 70
     0
  9
$USERR1
 40
0.0
  9
$USERR2
 40
0.0
  9
$USERR3
 40
0.0
  9
$USERR4
 40
0.0
  9
$USERR5
 40
0.0
  9
$WORLDVIEW
 70
     1
  9
$SHADEDGE
 70
     3
  9
$SHADEDIF
 70
    70
  9
$TILEMODE
 70
     1
  9
$MAXACTVP
 70
    48
  9
$PLIMCHECK
 70
     0
  9
$PEXTMIN
 10
1.0000000000000000E+020
 20
1.0000000000000000E+020
 30
1.0000000000000000E+020
  9
$PEXTMAX
 10
-1.0000000000000000E+020
 20
-1.0000000000000000E+020
 30
-1.0000000000000000E+020
  9
$PLIMMIN
 10
0.0
 20
0.0
  9
$PLIMMAX
 10
12.0
 20
9.0
  9
$UNITMODE
 70
     0
  9
$VISRETAIN
 70
     1
  9
$PLINEGEN
 70
     0
  9
$PSLTSCALE
 70
     1
  0
ENDSEC
  0
SECTION
  2
TABLES
  0
TABLE
  2
VPORT
 70
     1
  0
VPORT
  2
*ACTIVE
 70
     0
 10
0.0
 20
0.0
 11
1.0
 21
1.0
 12
250.34781602584559
 22
131.17269062859691
 13
0.0
 23
0.0
 14
0.5
 24
0.5
 15
0.5
 25
0.5
 16
0.0
 26
0.0
 36
1.0
 17
0.0
 27
0.0
 37
0.0
 40
264.1065900584976
 41
1.7702552719200879
 42
50.0
 43
0.0
 44
0.0
 50
0.0
 51
0.0
 71
     0
 72
   100
 73
     1
 74
     1
 75
     0
 76
     0
 77
     0
 78
     0
  0
ENDTAB
  0
TABLE
  2
LTYPE
 70
    19
  0
LTYPE
  2
CONTINUOUS
 70
     0
  3
Solid line
 72
    65
 73
     0
 40
0.0
  0
LTYPE
  2
CENTER
 70
     0
  3
Center ____ _ ____ _ ____ _ ____ _ ____ _ ____
 72
    65
 73
     4
 40
2.0
 49
1.25
 49
-0.25
 49
0.25
 49
-0.25
  0
LTYPE
  2
CENTER2
 70
     0
  3
Center (.5x) ___ _ ___ _ ___ _ ___ _ ___ _ ___
 72
    65
 73
     4
 40
1.125
 49
0.75
 49
-0.125
 49
0.125
 49
-0.125
  0
LTYPE
  2
HIDDEN
 70
     0
  3
Hidden __ __ __ __ __ __ __ __ __ __ __ __ __ _
 72
    65
 73
     2
 40
0.375
 49
0.25
 49
-0.125
  0
LTYPE
  2
HIDDEN2
 70
     0
  3
Hidden (.5x) _ _ _ _ _ _ _ _ _ _ _ _ _ _ _ _ _
 72
    65
 73
     2
 40
0.1875
 49
0.125
 49
-0.0625
  0
LTYPE
  2
PHANTOM2
 70
     0
  3
Phantom (.5x) ___ _ _ ___ _ _ ___ _ _ ___ _ _
 72
    65
 73
     6
 40
1.25
 49
0.625
 49
-0.125
 49
0.125
 49
-0.125
 49
0.125
 49
-0.125
  0
LTYPE
  2
AMCONSTR
 70
     0
  3
_______________________
 72
    65
 73
     2
 40
9999.0
 49
9999.0
 49
0.0
  0
LTYPE
  2
AMZIGZAG2
 70
     0
  3
/\/-/\/-/\/-/\/-/\/-/\/
 72
    65
 73
     2
 40
0.4401
 49
0.0001
 49
-0.4400000000000001
  0
LTYPE
  2
ACANSTGB
 70
     0
  3
__ . . __ . .
 72
    65
 73
     6
 40
0.35433070866
 49
0.15748031496
 49
-0.03937007874
 49
0.03937007874
 49
-0.03937007874
 49
0.03937007874
 49
-0.03937007874
  0
LTYPE
  2
ACANSTGL
 70
     0
  3
_ _ _ _ _
 72
    65
 73
     2
 40
0.11811023622
 49
0.07874015748
 49
-0.03937007874
  0
ENDTAB
  0
TABLE
  2
LAYER
 70
     8
  0
LAYER
  2
0
 70
     0
 62
     7
  6
CONTINUOUS
  0
ENDTAB
  0
TABLE
  2
STYLE
 70
    11
  0
STYLE
  2
STANDARD
 70
     0
 40
0.0
 41
1.0
 50
0.0
 71
     0
 42
0.2
  3
txt
  4

  0
STYLE
  2
ROMANS
 70
     0
 40
0.0
 41
0.75
 50
0.0
 71
     0
 42
0.2
  3
romans.shx
  4

  0
STYLE
  2

 70
     1
 40
0.0
 41
1.0
 50
0.0
 71
     0
 42
0.2
  3
genltshp.shx
  4

  0
STYLE
  2
ACANSGDT
 70
     0
 40
0.0
 41
1.0
 50
0.0
 71
     0
 42
0.2
  3
amgdt.shx
  4

  0
ENDTAB
  0
TABLE
  2
VIEW
 70
     0
  0
ENDTAB
  0
TABLE
  2
UCS
 70
     0
  0
ENDTAB
  0
TABLE
  2
APPID
 70
    14
  0
APPID
  2
ACAD
 70
     0
  0
APPID
  2
ACAD_MLEADERVER
 70
     0
  0
APPID
  2
ACAD_DSTYLE_DIMJAG
 70
     0
  0
APPID
  2
ACAD_DSTYLE_DIMTALN
 70
     0
  0
APPID
  2
ACAD_PSEXT
 70
     0
  0
APPID
  2
ACADANNOPO
 70
     0
  0
APPID
  2
MCAD_NO_VIS
 70
     0
  0
APPID
  2
ACAD_TEMP_GRAPHIC
 70
     0
  0
APPID
  2
ACATTRIBSERVICES
 70
     0
  0
APPID
  2
DESIGNERASSEMBLIES
 70
     0
  0
APPID
  2
ACAD_DSTYLE_DIMBREAK
 70
     0
  0
APPID
  2
ACAD_NAV_VCDISPLAY
 70
     0
  0
APPID
  2
GRADIENTCOLOR1ACI
 70
     0
  0
APPID
  2
GRADIENTCOLOR2ACI
 70
     0
  0
ENDTAB
  0
TABLE
  2
DIMSTYLE
 70
    13
  0
DIMSTYLE
  2
BAC
 70
     0
  3

  4

  5

  6

  7

 40
1.0
 41
0.09375
 42
0.0625
 43
0.375
 44
0.03125
 45
0.0
 46
0.0
 47
0.0
 48
0.0
140
0.09375
141
0.09375
142
0.0
143
25.399999999999999
144
1.0
145
0.0
146
1.0
147
0.0625
 71
     0
 72
     0
 73
     0
 74
     0
 75
     0
 76
     0
 77
     0
 78
     0
170
     0
171
     2
172
     0
173
     0
174
     0
175
     0
176
     0
177
     6
178
     0
  0
DIMSTYLE
  2
AM_ANSI
 70
     0
  3

  4
mm
  5

  6

  7

 40
1.0
 41
0.12
 42
0.05
 43
0.5
 44
0.1
 45
0.0
 46
0.0
 47
0.1
 48
0.1
140
0.12
141
0.0
142
0.0
143
25.399999999999999
144
1.0
145
0.0
146
0.71
147
0.06
 71
     0
 72
     0
 73
     1
 74
     1
 75
     0
 76
     0
 77
     0
 78
     7
170
     0
171
     2
172
     0
173
     0
174
     0
175
     0
176
   256
177
   256
178
     2
  0
DIMSTYLE
  2
AM_ANSI$3
 70
     0
  3

  4
mm
  5

  6

  7

 40
1.0
 41
0.12
 42
0.05
 43
0.5
 44
0.1
 45
0.0
 46
0.0
 47
0.1
 48
0.1
140
0.12
141
0.0
142
0.0
143
25.399999999999999
144
1.0
145
0.0
146
0.71
147
0.06
 71
     0
 72
     0
 73
     1
 74
     1
 75
     0
 76
     0
 77
     0
 78
     7
170
     0
171
     2
172
     0
173
     0
174
     0
175
     0
176
   256
177
   256
178
     2
  0
DIMSTYLE
  2
AM_ANSI$4
 70
     0
  3

  4
mm
  5

  6

  7

 40
1.0
 41
0.12
 42
0.05
 43
0.5
 44
0.1
 45
0.0
 46
0.0
 47
0.1
 48
0.1
140
0.12
141
0.0
142
0.0
143
25.399999999999999
144
1.0
145
0.0
146
0.71
147
0.06
 71
     0
 72
     0
 73
     1
 74
     1
 75
     0
 76
     0
 77
     0
 78
     7
170
     0
171
     2
172
     0
173
     0
174
     0
175
     0
176
   256
177
   256
178
     2
  0
DIMSTYLE
  2
AM_ANSI$7
 70
     0
  3

  4
mm
  5

  6

  7

 40
1.0
 41
0.12
 42
0.05
 43
0.5
 44
0.1
 45
0.0
 46
0.0
 47
0.1
 48
0.1
140
0.12
141
0.0
142
0.0
143
25.399999999999999
144
1.0
145
0.0
146
0.71
147
0.06
 71
     0
 72
     0
 73
     1
 74
     1
 75
     0
 76
     0
 77
     0
 78
     7
170
     0
171
     2
172
     0
173
     0
174
     0
175
     0
176
   256
177
   256
178
     2
  0
DIMSTYLE
  2
AM_ANSI$SF
 70
     0
  3

  4
mm
  5

  6

  7

 40
1.0
 41
0.12
 42
0.05
 43
0.5
 44
0.1
 45
0.0
 46
0.0
 47
0.1
 48
0.1
140
0.12
141
0.0
142
0.0
143
25.399999999999999
144
1.0
145
0.0
146
0.71
147
0.06
 71
     0
 72
     0
 73
     1
 74
     1
 75
     1
 76
     1
 77
     0
 78
     7
170
     0
171
     2
172
     0
173
     0
174
     0
175
     0
176
   256
177
   256
178
     2
  0
DIMSTYLE
  2
AM_ANSI$SH
 70
     0
  3

  4
mm
  5

  6
GENAXEH
  7

 40
1.0
 41
0.12
 42
0.05
 43
0.5
 44
0.1
 45
0.0
 46
0.0
 47
0.1
 48
0.1
140
0.12
141
0.0
142
0.0
143
25.399999999999999
144
1.0
145
0.0
146
0.71
147
0.06
 71
     0
 72
     0
 73
     1
 74
     1
 75
     1
 76
     1
 77
     0
 78
     7
170
     0
171
     2
172
     0
173
     1
174
     0
175
     0
176
   256
177
   256
178
     2
  0
DIMSTYLE
  2
STANDARD
 70
     0
  3

  4

  5

  6

  7

 40
1.0
 41
0.18
 42
0.0625
 43
0.38
 44
0.18
 45
0.0
 46
0.0
 47
0.0
 48
0.0
140
0.18
141
0.09
142
0.0
143
25.399999999999999
144
1.0
145
0.0
146
1.0
147
0.09
 71
     0
 72
     0
 73
     1
 74
     1
 75
     0
 76
     0
 77
     0
 78
     0
170
     0
171
     2
172
     0
173
     0
174
     0
175
     0
176
     0
177
     0
178
     0
  0
ENDTAB
  0
ENDSEC
  0
SECTION
  2
BLOCKS
  0
BLOCK
  8
0
  2
$MODEL_SPACE
 70
     0
 10
0.0
 20
0.0
 30
0.0
  3
$MODEL_SPACE
  1

  0
ENDBLK
  5
1A
  8
0
  0
BLOCK
 67
     1
  8
0
  2
$PAPER_SPACE
 70
     0
 10
0.0
 20
0.0
 30
0.0
  3
$PAPER_SPACE
  1

  0
ENDBLK
  5
17
 67
     1
  8
0
  0
BLOCK
  8
0
  2
*U0
 70
     1
 10
0.0
 20
0.0
 30
0.0
  3
*U0
  1

  0
ENDBLK
  5
17A
  8
0
  0
BLOCK
  8
0
  2
GENAXEH
 70
     0
 10
0.0
 20
0.0
 30
0.0
  3
GENAXEH
  1

  0
LINE
  5
1AD
  8
0
 10
-1.0
 20
0.0
 30
0.0
 11
1.0
 21
0.0
 31
0.0
  0
ENDBLK
  5
1AF
  8
0
  0
BLOCK
  8
0
  2
*X3
 70
     1
 10
0.0
 20
0.0
 30
0.0
  3
*X3
  1

  0
LINE
  5
5AF
  8
0
 62
     0
 10
422.82921019095659
 20
4.0000045037578316
 30
0.0
 11
422.82921019095659
 21
42.500004503758383
 31
0.0
  0
LINE
  5
5B0
  8
0
 62
     0
 10
421.3292101909567
 20
4.0000045037578156
 30
0.0
 11
421.3292101909567
 21
42.500004503758369
 31
0.0
  0
LINE
  5
5B1
  8
0
 62
     0
 10
419.8292101909567
 20
4.0000045037577996
 30
0.0
 11
419.8292101909567
 21
42.500004503758348
 31
0.0
  0
LINE
  5
5B2
  8
0
 62
     0
 10
418.32921019095659
 20
4.0000045037577836
 30
0.0
 11
418.32921019095659
 21
42.50000450375834
 31
0.0
  0
LINE
  5
5B3
  8
0
 62
     0
 10
398.8292101909567
 20
4.0000045037575802
 30
0.0
 11
398.8292101909567
 21
42.500004503758127
 31
0.0
  0
LINE
  5
5B4
  8
0
 62
     0
 10
397.3292101909567
 20
4.0000045037575651
 30
0.0
 11
397.3292101909567
 21
42.500004503758127
 31
0.0
  0
LINE
  5
5B5
  8
0
 62
     0
 10
395.8292101909567
 20
4.00000450375755
 30
0.0
 11
395.8292101909567
 21
42.500004503758113
 31
0.0
  0
LINE
  5
5B6
  8
0
 62
     0
 10
394.3292101909567
 20
4.000004503757534
 30
0.0
 11
394.3292101909567
 21
42.500004503758092
 31
0.0
  0
LINE
  5
5B7
  8
0
 62
     0
 10
392.8292101909567
 20
4.0000045037575189
 30
0.0
 11
392.8292101909567
 21
42.50000450375807
 31
0.0
  0
LINE
  5
5B8
  8
0
 62
     0
 10
391.3292101909567
 20
4.0000045037575038
 30
0.0
 11
391.3292101909567
 21
42.500004503758063
 31
0.0
  0
LINE
  5
5B9
  8
0
 62
     0
 10
389.8292101909567
 20
4.0000045037574887
 30
0.0
 11
389.8292101909567
 21
42.500004503758049
 31
0.0
  0
LINE
  5
5BA
  8
0
 62
     0
 10
388.3292101909567
 20
4.0000045037574736
 30
0.0
 11
388.3292101909567
 21
42.500004503758028
 31
0.0
  0
LINE
  5
5BB
  8
0
 62
     0
 10
386.8292101909567
 20
4.0000045037574594
 30
0.0
 11
386.8292101909567
 21
42.500004503758021
 31
0.0
  0
LINE
  5
5BC
  8
0
 62
     0
 10
385.3292101909567
 20
4.0000045037574443
 30
0.0
 11
385.3292101909567
 21
42.500004503757992
 31
0.0
  0
LINE
  5
5BD
  8
0
 62
     0
 10
383.8292101909567
 20
4.0000045037574292
 30
0.0
 11
383.8292101909567
 21
42.500004503757978
 31
0.0
  0
LINE
  5
5BE
  8
0
 62
     0
 10
382.3292101909567
 20
4.0000045037574141
 30
0.0
 11
382.3292101909567
 21
42.500004503757971
 31
0.0
  0
LINE
  5
5BF
  8
0
 62
     0
 10
362.8292101909567
 20
4.0000045037572143
 30
0.0
 11
362.8292101909567
 21
42.500004503757772
 31
0.0
  0
LINE
  5
5C0
  8
0
 62
     0
 10
361.3292101909567
 20
4.0000045037571983
 30
0.0
 11
361.3292101909567
 21
42.500004503757751
 31
0.0
  0
LINE
  5
5C1
  8
0
 62
     0
 10
359.8292101909567
 20
4.0000045037571832
 30
0.0
 11
359.8292101909567
 21
42.500004503757737
 31
0.0
  0
LINE
  5
5C2
  8
0
 62
     0
 10
358.3292101909567
 20
4.0000045037571681
 30
0.0
 11
358.3292101909567
 21
42.500004503757722
 31
0.0
  0
LINE
  5
5C3
  8
0
 62
     0
 10
356.8292101909567
 20
4.0000045037571521
 30
0.0
 11
356.8292101909567
 21
42.500004503757708
 31
0.0
  0
LINE
  5
5C4
  8
0
 62
     0
 10
355.3292101909567
 20
4.000004503757137
 30
0.0
 11
355.3292101909567
 21
42.500004503757687
 31
0.0
  0
LINE
  5
5C5
  8
0
 62
     0
 10
353.8292101909567
 20
4.000004503757121
 30
0.0
 11
353.8292101909567
 21
42.500004503757673
 31
0.0
  0
LINE
  5
5C6
  8
0
 62
     0
 10
352.3292101909567
 20
4.000004503757105
 30
0.0
 11
352.3292101909567
 21
42.500004503757658
 31
0.0
  0
LINE
  5
5C7
  8
0
 62
     0
 10
350.8292101909567
 20
4.0000045037570899
 30
0.0
 11
350.8292101909567
 21
42.500004503757651
 31
0.0
  0
LINE
  5
5C8
  8
0
 62
     0
 10
349.3292101909567
 20
4.0000045037570748
 30
0.0
 11
349.3292101909567
 21
42.50000450375763
 31
0.0
  0
LINE
  5
5C9
  8
0
 62
     0
 10
347.8292101909567
 20
4.0000045037570588
 30
0.0
 11
347.8292101909567
 21
42.500004503757609
 31
0.0
  0
LINE
  5
5CA
  8
0
 62
     0
 10
346.3292101909567
 20
4.0000045037570438
 30
0.0
 11
346.3292101909567
 21
42.500004503757602
 31
0.0
  0
LINE
  5
5CB
  8
0
 62
     0
 10
326.8292101909567
 20
4.0000045037568412
 30
0.0
 11
326.8292101909567
 21
42.50000450375741
 31
0.0
  0
LINE
  5
5CC
  8
0
 62
     0
 10
325.3292101909567
 20
4.0000045037568253
 30
0.0
 11
325.3292101909567
 21
42.500004503757388
 31
0.0
  0
LINE
  5
5CD
  8
0
 62
     0
 10
323.8292101909567
 20
4.0000045037568102
 30
0.0
 11
323.8292101909567
 21
42.500004503757367
 31
0.0
  0
LINE
  5
5CE
  8
0
 62
     0
 10
322.3292101909567
 20
4.0000045037567951
 30
0.0
 11
322.3292101909567
 21
42.500004503757353
 31
0.0
  0
LINE
  5
5CF
  8
0
 62
     0
 10
320.8292101909567
 20
4.0000045037567791
 30
0.0
 11
320.8292101909567
 21
42.500004503757339
 31
0.0
  0
LINE
  5
5D0
  8
0
 62
     0
 10
380.85259438385151
 20
4.5
 30
0.0
 11
398.86910843777639
 21
4.5
 31
0.0
  0
LINE
  5
5D1
  8
0
 62
     0
 10
344.86010878310498
 20
4.5
 30
0.0
 11
362.85733075427828
 21
4.5
 31
0.0
  0
LINE
  5
5D2
  8
0
 62
     0
 10
416.85212409987412
 20
4.5
 30
0.0
 11
424.11010878310509
 21
4.5
 31
0.0
  0
LINE
  5
5D3
  8
0
 62
     0
 10
319.61010878310572
 20
4.5
 30
0.0
 11
326.86010878310401
 21
4.5
 31
0.0
  0
LINE
  5
5D4
  8
0
 62
     0
 10
380.85259438385151
 20
6.0
 30
0.0
 11
398.86910843777639
 21
6.0
 31
0.0
  0
LINE
  5
5D5
  8
0
 62
     0
 10
344.86010878310498
 20
6.0
 30
0.0
 11
362.85733075427828
 21
6.0
 31
0.0
  0
LINE
  5
5D6
  8
0
 62
     0
 10
416.85212409987412
 20
6.0
 30
0.0
 11
424.11010878310509
 21
6.0
 31
0.0
  0
LINE
  5
5D7
  8
0
 62
     0
 10
319.61010878310572
 20
6.0
 30
0.0
 11
326.86010878310401
 21
6.0
 31
0.0
  0
LINE
  5
5D8
  8
0
 62
     0
 10
380.85259438385151
 20
7.5
 30
0.0
 11
398.86910843777639
 21
7.5
 31
0.0
  0
LINE
  5
5D9
  8
0
 62
     0
 10
344.86010878310498
 20
7.5
 30
0.0
 11
362.85733075427828
 21
7.5
 31
0.0
  0
LINE
  5
5DA
  8
0
 62
     0
 10
416.85212409987412
 20
7.5
 30
0.0
 11
424.11010878310509
 21
7.5
 31
0.0
  0
LINE
  5
5DB
  8
0
 62
     0
 10
319.6101087831056
 20
7.5
 30
0.0
 11
326.86010878310401
 21
7.5
 31
0.0
  0
LINE
  5
5DC
  8
0
 62
     0
 10
380.85259438385151
 20
9.0
 30
0.0
 11
398.86910843777639
 21
9.0
 31
0.0
  0
LINE
  5
5DD
  8
0
 62
     0
 10
344.86010878310498
 20
9.0
 30
0.0
 11
362.85733075427828
 21
9.0
 31
0.0
  0
LINE
  5
5DE
  8
0
 62
     0
 10
416.85212409987412
 20
9.0
 30
0.0
 11
424.11010878310509
 21
9.0
 31
0.0
  0
LINE
  5
5DF
  8
0
 62
     0
 10
319.6101087831056
 20
9.0
 30
0.0
 11
326.86010878310401
 21
9.0
 31
0.0
  0
LINE
  5
5E0
  8
0
 62
     0
 10
380.85259438385151
 20
10.5
 30
0.0
 11
398.86910843777639
 21
10.5
 31
0.0
  0
LINE
  5
5E1
  8
0
 62
     0
 10
344.86010878310498
 20
10.5
 30
0.0
 11
362.85733075427828
 21
10.5
 31
0.0
  0
LINE
  5
5E2
  8
0
 62
     0
 10
416.85212409987412
 20
10.5
 30
0.0
 11
424.11010878310509
 21
10.5
 31
0.0
  0
LINE
  5
5E3
  8
0
 62
     0
 10
319.6101087831056
 20
10.5
 30
0.0
 11
326.86010878310401
 21
10.5
 31
0.0
  0
LINE
  5
5E4
  8
0
 62
     0
 10
380.85259438385151
 20
12.0
 30
0.0
 11
398.86910843777639
 21
12.0
 31
0.0
  0
LINE
  5
5E5
  8
0
 62
     0
 10
344.86010878310498
 20
12.0
 30
0.0
 11
362.85733075427828
 21
12.0
 31
0.0
  0
LINE
  5
5E6
  8
0
 62
     0
 10
416.85212409987412
 20
12.0
 30
0.0
 11
424.11010878310509
 21
12.0
 31
0.0
  0
LINE
  5
5E7
  8
0
 62
     0
 10
319.6101087831056
 20
12.0
 30
0.0
 11
326.86010878310401
 21
12.0
 31
0.0
  0
LINE
  5
5E8
  8
0
 62
     0
 10
380.85259438385151
 20
13.5
 30
0.0
 11
398.86910843777639
 21
13.5
 31
0.0
  0
LINE
  5
5E9
  8
0
 62
     0
 10
344.86010878310498
 20
13.5
 30
0.0
 11
362.85733075427828
 21
13.5
 31
0.0
  0
LINE
  5
5EA
  8
0
 62
     0
 10
416.85212409987412
 20
13.5
 30
0.0
 11
424.11010878310498
 21
13.5
 31
0.0
  0
LINE
  5
5EB
  8
0
 62
     0
 10
319.61010878310549
 20
13.5
 30
0.0
 11
326.86010878310401
 21
13.5
 31
0.0
  0
LINE
  5
5EC
  8
0
 62
     0
 10
380.85259438385151
 20
15.0
 30
0.0
 11
398.86910843777639
 21
15.0
 31
0.0
  0
LINE
  5
5ED
  8
0
 62
     0
 10
344.86010878310498
 20
15.0
 30
0.0
 11
362.85733075427839
 21
15.0
 31
0.0
  0
LINE
  5
5EE
  8
0
 62
     0
 10
416.85212409987412
 20
15.0
 30
0.0
 11
424.11010878310498
 21
15.0
 31
0.0
  0
LINE
  5
5EF
  8
0
 62
     0
 10
319.61010878310549
 20
15.0
 30
0.0
 11
326.86010878310412
 21
15.0
 31
0.0
  0
LINE
  5
5F0
  8
0
 62
     0
 10
380.85259438385151
 20
16.5
 30
0.0
 11
398.86910843777639
 21
16.5
 31
0.0
  0
LINE
  5
5F1
  8
0
 62
     0
 10
344.86010878310498
 20
16.5
 30
0.0
 11
362.85733075427839
 21
16.5
 31
0.0
  0
LINE
  5
5F2
  8
0
 62
     0
 10
416.85212409987412
 20
16.5
 30
0.0
 11
424.11010878310498
 21
16.5
 31
0.0
  0
LINE
  5
5F3
  8
0
 62
     0
 10
319.61010878310549
 20
16.5
 30
0.0
 11
326.86010878310412
 21
16.5
 31
0.0
  0
LINE
  5
5F4
  8
0
 62
     0
 10
380.85259438385151
 20
18.0
 30
0.0
 11
398.86910843777639
 21
18.0
 31
0.0
  0
LINE
  5
5F5
  8
0
 62
     0
 10
344.86010878310498
 20
18.0
 30
0.0
 11
362.85733075427839
 21
18.0
 31
0.0
  0
LINE
  5
5F6
  8
0
 62
     0
 10
416.85212409987412
 20
18.0
 30
0.0
 11
424.11010878310492
 21
18.0
 31
0.0
  0
LINE
  5
5F7
  8
0
 62
     0
 10
319.61010878310549
 20
18.0
 30
0.0
 11
326.86010878310412
 21
18.0
 31
0.0
  0
LINE
  5
5F8
  8
0
 62
     0
 10
380.85259438385151
 20
19.5
 30
0.0
 11
398.86910843777639
 21
19.5
 31
0.0
  0
LINE
  5
5F9
  8
0
 62
     0
 10
344.86010878310498
 20
19.5
 30
0.0
 11
362.85733075427839
 21
19.5
 31
0.0
  0
LINE
  5
5FA
  8
0
 62
     0
 10
416.85212409987412
 20
19.5
 30
0.0
 11
424.11010878310492
 21
19.5
 31
0.0
  0
LINE
  5
5FB
  8
0
 62
     0
 10
319.61010878310549
 20
19.5
 30
0.0
 11
326.86010878310412
 21
19.5
 31
0.0
  0
LINE
  5
5FC
  8
0
 62
     0
 10
380.85259438385151
 20
21.0
 30
0.0
 11
398.86910843777639
 21
21.0
 31
0.0
  0
LINE
  5
5FD
  8
0
 62
     0
 10
344.86010878310498
 20
21.0
 30
0.0
 11
362.85733075427839
 21
21.0
 31
0.0
  0
LINE
  5
5FE
  8
0
 62
     0
 10
416.85212409987412
 20
21.0
 30
0.0
 11
424.11010878310492
 21
21.0
 31
0.0
  0
LINE
  5
5FF
  8
0
 62
     0
 10
319.61010878310549
 20
21.0
 30
0.0
 11
326.86010878310412
 21
21.0
 31
0.0
  0
LINE
  5
600
  8
0
 62
     0
 10
380.85259438385151
 20
22.5
 30
0.0
 11
398.86910843777639
 21
22.5
 31
0.0
  0
LINE
  5
601
  8
0
 62
     0
 10
344.86010878310498
 20
22.5
 30
0.0
 11
362.85733075427839
 21
22.5
 31
0.0
  0
LINE
  5
602
  8
0
 62
     0
 10
416.85212409987412
 20
22.5
 30
0.0
 11
424.11010878310492
 21
22.5
 31
0.0
  0
LINE
  5
603
  8
0
 62
     0
 10
319.61010878310549
 20
22.5
 30
0.0
 11
326.86010878310412
 21
22.5
 31
0.0
  0
LINE
  5
604
  8
0
 62
     0
 10
380.85259438385151
 20
24.0
 30
0.0
 11
398.86910843777639
 21
24.0
 31
0.0
  0
LINE
  5
605
  8
0
 62
     0
 10
344.86010878310498
 20
24.0
 30
0.0
 11
362.85733075427839
 21
24.0
 31
0.0
  0
LINE
  5
606
  8
0
 62
     0
 10
416.85212409987412
 20
24.0
 30
0.0
 11
424.11010878310492
 21
24.0
 31
0.0
  0
LINE
  5
607
  8
0
 62
     0
 10
319.61010878310537
 20
24.0
 30
0.0
 11
326.86010878310412
 21
24.0
 31
0.0
  0
LINE
  5
608
  8
0
 62
     0
 10
380.85259438385151
 20
25.5
 30
0.0
 11
398.86910843777639
 21
25.5
 31
0.0
  0
LINE
  5
609
  8
0
 62
     0
 10
344.86010878310498
 20
25.5
 30
0.0
 11
362.85733075427839
 21
25.5
 31
0.0
  0
LINE
  5
60A
  8
0
 62
     0
 10
416.85212409987412
 20
25.5
 30
0.0
 11
424.11010878310492
 21
25.5
 31
0.0
  0
LINE
  5
60B
  8
0
 62
     0
 10
319.61010878310537
 20
25.5
 30
0.0
 11
326.86010878310412
 21
25.5
 31
0.0
  0
LINE
  5
60C
  8
0
 62
     0
 10
380.85259438385151
 20
27.0
 30
0.0
 11
398.86910843777639
 21
27.0
 31
0.0
  0
LINE
  5
60D
  8
0
 62
     0
 10
344.86010878310498
 20
27.0
 30
0.0
 11
362.85733075427839
 21
27.0
 31
0.0
  0
LINE
  5
60E
  8
0
 62
     0
 10
416.85212409987412
 20
27.0
 30
0.0
 11
424.11010878310492
 21
27.0
 31
0.0
  0
LINE
  5
60F
  8
0
 62
     0
 10
319.61010878310537
 20
27.0
 30
0.0
 11
326.86010878310412
 21
27.0
 31
0.0
  0
LINE
  5
610
  8
0
 62
     0
 10
380.85259438385151
 20
28.5
 30
0.0
 11
398.86910843777639
 21
28.5
 31
0.0
  0
LINE
  5
611
  8
0
 62
     0
 10
344.86010878310498
 20
28.5
 30
0.0
 11
362.85733075427839
 21
28.5
 31
0.0
  0
LINE
  5
612
  8
0
 62
     0
 10
416.85212409987412
 20
28.5
 30
0.0
 11
424.11010878310492
 21
28.5
 31
0.0
  0
LINE
  5
613
  8
0
 62
     0
 10
319.61010878310537
 20
28.5
 30
0.0
 11
326.86010878310412
 21
28.5
 31
0.0
  0
LINE
  5
614
  8
0
 62
     0
 10
380.85259438385151
 20
30.0
 30
0.0
 11
398.86910843777639
 21
30.0
 31
0.0
  0
LINE
  5
615
  8
0
 62
     0
 10
344.86010878310498
 20
30.0
 30
0.0
 11
362.85733075427839
 21
30.0
 31
0.0
  0
LINE
  5
616
  8
0
 62
     0
 10
416.85212409987412
 20
30.0
 30
0.0
 11
424.11010878310481
 21
30.0
 31
0.0
  0
LINE
  5
617
  8
0
 62
     0
 10
319.61010878310537
 20
30.0
 30
0.0
 11
326.86010878310412
 21
30.0
 31
0.0
  0
LINE
  5
618
  8
0
 62
     0
 10
380.85259438385151
 20
31.5
 30
0.0
 11
398.86910843777639
 21
31.5
 31
0.0
  0
LINE
  5
619
  8
0
 62
     0
 10
344.86010878310498
 20
31.5
 30
0.0
 11
362.85733075427839
 21
31.5
 31
0.0
  0
LINE
  5
61A
  8
0
 62
     0
 10
416.85212409987412
 20
31.5
 30
0.0
 11
424.11010878310481
 21
31.5
 31
0.0
  0
LINE
  5
61B
  8
0
 62
     0
 10
319.61010878310537
 20
31.5
 30
0.0
 11
326.86010878310412
 21
31.5
 31
0.0
  0
LINE
  5
61C
  8
0
 62
     0
 10
380.85259438385151
 20
33.0
 30
0.0
 11
398.86910843777639
 21
33.0
 31
0.0
  0
LINE
  5
61D
  8
0
 62
     0
 10
344.86010878310498
 20
33.0
 30
0.0
 11
362.85733075427839
 21
33.0
 31
0.0
  0
LINE
  5
61E
  8
0
 62
     0
 10
416.85212409987412
 20
33.0
 30
0.0
 11
424.11010878310481
 21
33.0
 31
0.0
  0
LINE
  5
61F
  8
0
 62
     0
 10
319.61010878310537
 20
33.0
 30
0.0
 11
326.86010878310418
 21
33.0
 31
0.0
  0
LINE
  5
620
  8
0
 62
     0
 10
380.85259438385151
 20
34.5
 30
0.0
 11
398.86910843777639
 21
34.5
 31
0.0
  0
LINE
  5
621
  8
0
 62
     0
 10
344.86010878310498
 20
34.5
 30
0.0
 11
362.85733075427839
 21
34.5
 31
0.0
  0
LINE
  5
622
  8
0
 62
     0
 10
416.85212409987412
 20
34.5
 30
0.0
 11
424.11010878310469
 21
34.5
 31
0.0
  0
LINE
  5
623
  8
0
 62
     0
 10
319.61010878310532
 20
34.5
 30
0.0
 11
326.86010878310418
 21
34.5
 31
0.0
  0
LINE
  5
624
  8
0
 62
     0
 10
380.85259438385151
 20
36.0
 30
0.0
 11
398.86910843777639
 21
36.0
 31
0.0
  0
LINE
  5
625
  8
0
 62
     0
 10
344.86010878310498
 20
36.0
 30
0.0
 11
362.85733075427839
 21
36.0
 31
0.0
  0
LINE
  5
626
  8
0
 62
     0
 10
416.85212409987412
 20
36.0
 30
0.0
 11
424.11010878310469
 21
36.0
 31
0.0
  0
LINE
  5
627
  8
0
 62
     0
 10
319.61010878310532
 20
36.0
 30
0.0
 11
326.86010878310418
 21
36.0
 31
0.0
  0
LINE
  5
628
  8
0
 62
     0
 10
380.85259438385151
 20
37.5
 30
0.0
 11
398.86910843777639
 21
37.5
 31
0.0
  0
LINE
  5
629
  8
0
 62
     0
 10
344.86010878310498
 20
37.5
 30
0.0
 11
362.85733075427839
 21
37.5
 31
0.0
  0
LINE
  5
62A
  8
0
 62
     0
 10
416.85212409987412
 20
37.5
 30
0.0
 11
424.11010878310469
 21
37.5
 31
0.0
  0
LINE
  5
62B
  8
0
 62
     0
 10
319.61010878310532
 20
37.5
 30
0.0
 11
326.86010878310418
 21
37.5
 31
0.0
  0
LINE
  5
62C
  8
0
 62
     0
 10
380.85259438385151
 20
39.0
 30
0.0
 11
398.86910843777639
 21
39.0
 31
0.0
  0
LINE
  5
62D
  8
0
 62
     0
 10
344.86010878310498
 20
39.0
 30
0.0
 11
362.85733075427839
 21
39.0
 31
0.0
  0
LINE
  5
62E
  8
0
 62
     0
 10
416.85212409987412
 20
39.0
 30
0.0
 11
424.11010878310469
 21
39.0
 31
0.0
  0
LINE
  5
62F
  8
0
 62
     0
 10
319.61010878310532
 20
39.0
 30
0.0
 11
326.86010878310418
 21
39.0
 31
0.0
  0
LINE
  5
630
  8
0
 62
     0
 10
380.85259438385151
 20
40.499999999999993
 30
0.0
 11
398.86910843777639
 21
40.499999999999993
 31
0.0
  0
LINE
  5
631
  8
0
 62
     0
 10
344.86010878310498
 20
40.499999999999993
 30
0.0
 11
362.85733075427839
 21
40.499999999999993
 31
0.0
  0
LINE
  5
632
  8
0
 62
     0
 10
416.85212409987412
 20
40.499999999999993
 30
0.0
 11
424.11010878310469
 21
40.499999999999993
 31
0.0
  0
LINE
  5
633
  8
0
 62
     0
 10
319.61010878310532
 20
40.499999999999993
 30
0.0
 11
326.86010878310418
 21
40.499999999999993
 31
0.0
  0
LINE
  5
634
  8
0
 62
     0
 10
380.85259438385151
 20
42.0
 30
0.0
 11
398.86910843777639
 21
42.0
 31
0.0
  0
LINE
  5
635
  8
0
 62
     0
 10
344.86010878310498
 20
42.0
 30
0.0
 11
362.85733075427839
 21
42.0
 31
0.0
  0
LINE
  5
636
  8
0
 62
     0
 10
416.85212409987412
 20
42.0
 30
0.0
 11
424.11010878310469
 21
42.0
 31
0.0
  0
LINE
  5
637
  8
0
 62
     0
 10
319.61010878310532
 20
42.0
 30
0.0
 11
326.86010878310418
 21
42.0
 31
0.0
  0
ENDBLK
  5
639
  8
0
  0
BLOCK
  8
0
  2
*X4
 70
     1
 10
0.0
 20
0.0
 30
0.0
  3
*X4
  1

  0
LINE
  5
63B
  8
0
 62
     0
 10
266.71131581321907
 20
259.49999999999989
 30
0.0
 11
229.2113158132191
 21
259.5
 31
0.0
  0
LINE
  5
63C
  8
0
 62
     0
 10
266.71131581321907
 20
258.0
 30
0.0
 11
229.2113158132191
 21
258.0
 31
0.0
  0
LINE
  5
63D
  8
0
 62
     0
 10
266.71131581321907
 20
256.49999999999989
 30
0.0
 11
229.2113158132191
 21
256.5
 31
0.0
  0
LINE
  5
63E
  8
0
 62
     0
 10
266.71131581321907
 20
255.0
 30
0.0
 11
229.2113158132191
 21
255.0
 31
0.0
  0
LINE
  5
63F
  8
0
 62
     0
 10
266.71131581321907
 20
253.5
 30
0.0
 11
229.2113158132191
 21
253.5
 31
0.0
  0
LINE
  5
640
  8
0
 62
     0
 10
266.71131581321907
 20
252.0
 30
0.0
 11
229.2113158132191
 21
252.0
 31
0.0
  0
LINE
  5
641
  8
0
 62
     0
 10
266.71131581321907
 20
250.5
 30
0.0
 11
229.2113158132191
 21
250.5
 31
0.0
  0
LINE
  5
642
  8
0
 62
     0
 10
266.71131581321907
 20
249.0
 30
0.0
 11
229.2113158132191
 21
249.0
 31
0.0
  0
LINE
  5
643
  8
0
 62
     0
 10
266.71131581321907
 20
247.5
 30
0.0
 11
229.2113158132191
 21
247.5
 31
0.0
  0
LINE
  5
644
  8
0
 62
     0
 10
266.71131581321907
 20
246.0
 30
0.0
 11
229.2113158132191
 21
246.0
 31
0.0
  0
LINE
  5
645
  8
0
 62
     0
 10
266.71131581321907
 20
244.5
 30
0.0
 11
229.2113158132191
 21
244.5
 31
0.0
  0
LINE
  5
646
  8
0
 62
     0
 10
266.71131581321902
 20
243.0
 30
0.0
 11
229.2113158132191
 21
243.0
 31
0.0
  0
LINE
  5
647
  8
0
 62
     0
 10
266.71131581321902
 20
241.5
 30
0.0
 11
229.2113158132191
 21
241.5
 31
0.0
  0
LINE
  5
648
  8
0
 62
     0
 10
266.71131581321902
 20
240.0
 30
0.0
 11
229.2113158132191
 21
240.0
 31
0.0
  0
LINE
  5
649
  8
0
 62
     0
 10
266.71131581321902
 20
238.5
 30
0.0
 11
229.2113158132191
 21
238.5
 31
0.0
  0
LINE
  5
64A
  8
0
 62
     0
 10
266.71131581321902
 20
237.0
 30
0.0
 11
229.21131581321899
 21
237.0
 31
0.0
  0
LINE
  5
64B
  8
0
 62
     0
 10
266.71131581321902
 20
235.5
 30
0.0
 11
229.21131581321899
 21
235.5
 31
0.0
  0
LINE
  5
64C
  8
0
 62
     0
 10
266.71131581321902
 20
234.0
 30
0.0
 11
229.21131581321899
 21
234.0
 31
0.0
  0
LINE
  5
64D
  8
0
 62
     0
 10
266.71131581321902
 20
232.5
 30
0.0
 11
229.21131581321899
 21
232.5
 31
0.0
  0
LINE
  5
64E
  8
0
 62
     0
 10
266.71131581321902
 20
231.0
 30
0.0
 11
229.21131581321899
 21
231.0
 31
0.0
  0
LINE
  5
64F
  8
0
 62
     0
 10
266.71131581321902
 20
229.5
 30
0.0
 11
229.21131581321899
 21
229.5
 31
0.0
  0
LINE
  5
650
  8
0
 62
     0
 10
266.71131581321902
 20
228.0
 30
0.0
 11
229.21131581321899
 21
228.0
 31
0.0
  0
LINE
  5
651
  8
0
 62
     0
 10
266.71131581321902
 20
226.5
 30
0.0
 11
229.21131581321899
 21
226.5
 31
0.0
  0
LINE
  5
652
  8
0
 62
     0
 10
266.71131581321902
 20
225.0
 30
0.0
 11
229.21131581321899
 21
225.0
 31
0.0
  0
LINE
  5
653
  8
0
 62
     0
 10
266.71131581321902
 20
223.5
 30
0.0
 11
229.21131581321899
 21
223.5
 31
0.0
  0
LINE
  5
654
  8
0
 62
     0
 10
266.71131581321902
 20
222.0
 30
0.0
 11
229.21131581321899
 21
222.0
 31
0.0
  0
LINE
  5
655
  8
0
 62
     0
 10
266.71131581321902
 20
220.5
 30
0.0
 11
229.21131581321899
 21
220.5
 31
0.0
  0
LINE
  5
656
  8
0
 62
     0
 10
266.71131581321902
 20
219.0
 30
0.0
 11
229.21131581321899
 21
219.0
 31
0.0
  0
LINE
  5
657
  8
0
 62
     0
 10
266.71131581321902
 20
217.5
 30
0.0
 11
229.21131581321899
 21
217.5
 31
0.0
  0
LINE
  5
658
  8
0
 62
     0
 10
266.71131581321902
 20
216.0
 30
0.0
 11
229.21131581321899
 21
216.0
 31
0.0
  0
LINE
  5
659
  8
0
 62
     0
 10
266.71131581321902
 20
214.5
 30
0.0
 11
229.21131581321899
 21
214.5
 31
0.0
  0
LINE
  5
65A
  8
0
 62
     0
 10
266.71131581321902
 20
213.0
 30
0.0
 11
229.21131581321899
 21
213.0
 31
0.0
  0
LINE
  5
65B
  8
0
 62
     0
 10
266.71131581321902
 20
211.5
 30
0.0
 11
229.21131581321899
 21
211.5
 31
0.0
  0
LINE
  5
65C
  8
0
 62
     0
 10
266.71131581321902
 20
210.0
 30
0.0
 11
229.21131581321899
 21
210.0
 31
0.0
  0
LINE
  5
65D
  8
0
 62
     0
 10
266.71131581321902
 20
208.5
 30
0.0
 11
229.21131581321899
 21
208.5
 31
0.0
  0
LINE
  5
65E
  8
0
 62
     0
 10
266.71131581321902
 20
207.0
 30
0.0
 11
229.21131581321899
 21
207.0
 31
0.0
  0
LINE
  5
65F
  8
0
 62
     0
 10
266.71131581321902
 20
205.5
 30
0.0
 11
229.21131581321899
 21
205.5
 31
0.0
  0
LINE
  5
660
  8
0
 62
     0
 10
266.71131581321902
 20
204.0
 30
0.0
 11
229.21131581321899
 21
204.0
 31
0.0
  0
LINE
  5
661
  8
0
 62
     0
 10
266.71131581321902
 20
202.5
 30
0.0
 11
229.21131581321899
 21
202.5
 31
0.0
  0
LINE
  5
662
  8
0
 62
     0
 10
266.71131581321902
 20
201.0
 30
0.0
 11
229.21131581321899
 21
201.0
 31
0.0
  0
LINE
  5
663
  8
0
 62
     0
 10
266.71131581321902
 20
199.49999999999989
 30
0.0
 11
229.21131581321899
 21
199.49999999999989
 31
0.0
  0
LINE
  5
664
  8
0
 62
     0
 10
266.71131581321902
 20
198.0
 30
0.0
 11
229.21131581321899
 21
198.0
 31
0.0
  0
LINE
  5
665
  8
0
 62
     0
 10
266.71131581321902
 20
196.5
 30
0.0
 11
229.21131581321899
 21
196.5
 31
0.0
  0
LINE
  5
666
  8
0
 62
     0
 10
266.71131581321902
 20
195.0
 30
0.0
 11
229.21131581321899
 21
195.0
 31
0.0
  0
LINE
  5
667
  8
0
 62
     0
 10
266.71131581321902
 20
193.5
 30
0.0
 11
229.21131581321899
 21
193.5
 31
0.0
  0
LINE
  5
668
  8
0
 62
     0
 10
266.71131581321902
 20
191.99999999999989
 30
0.0
 11
229.21131581321899
 21
191.99999999999989
 31
0.0
  0
LINE
  5
669
  8
0
 62
     0
 10
266.71131581321902
 20
190.5
 30
0.0
 11
229.21131581321899
 21
190.5
 31
0.0
  0
LINE
  5
66A
  8
0
 62
     0
 10
266.71131581321902
 20
188.99999999999989
 30
0.0
 11
229.21131581321899
 21
188.99999999999989
 31
0.0
  0
LINE
  5
66B
  8
0
 62
     0
 10
266.71131581321902
 20
187.5
 30
0.0
 11
229.21131581321899
 21
187.5
 31
0.0
  0
LINE
  5
66C
  8
0
 62
     0
 10
266.71131581321902
 20
185.99999999999989
 30
0.0
 11
229.21131581321899
 21
185.99999999999989
 31
0.0
  0
LINE
  5
66D
  8
0
 62
     0
 10
266.71131581321902
 20
184.49999999999989
 30
0.0
 11
229.21131581321899
 21
184.49999999999989
 31
0.0
  0
LINE
  5
66E
  8
0
 62
     0
 10
266.71131581321902
 20
183.0
 30
0.0
 11
229.21131581321899
 21
183.0
 31
0.0
  0
LINE
  5
66F
  8
0
 62
     0
 10
266.71131581321902
 20
181.49999999999989
 30
0.0
 11
229.21131581321899
 21
181.49999999999989
 31
0.0
  0
LINE
  5
670
  8
0
 62
     0
 10
266.71131581321902
 20
180.0
 30
0.0
 11
229.21131581321899
 21
180.0
 31
0.0
  0
LINE
  5
671
  8
0
 62
     0
 10
266.71131581321902
 20
178.49999999999989
 30
0.0
 11
229.2113158132189
 21
178.49999999999989
 31
0.0
  0
LINE
  5
672
  8
0
 62
     0
 10
266.71131581321902
 20
177.0
 30
0.0
 11
229.2113158132189
 21
177.0
 31
0.0
  0
LINE
  5
673
  8
0
 62
     0
 10
266.71131581321902
 20
175.49999999999989
 30
0.0
 11
229.2113158132189
 21
175.49999999999989
 31
0.0
  0
LINE
  5
674
  8
0
 62
     0
 10
266.71131581321902
 20
174.0
 30
0.0
 11
229.2113158132189
 21
174.0
 31
0.0
  0
LINE
  5
675
  8
0
 62
     0
 10
266.7113158132189
 20
172.49999999999989
 30
0.0
 11
229.2113158132189
 21
172.49999999999989
 31
0.0
  0
LINE
  5
676
  8
0
 62
     0
 10
266.7113158132189
 20
170.99999999999989
 30
0.0
 11
229.2113158132189
 21
170.99999999999989
 31
0.0
  0
LINE
  5
677
  8
0
 62
     0
 10
266.7113158132189
 20
169.5
 30
0.0
 11
229.2113158132189
 21
169.5
 31
0.0
  0
LINE
  5
678
  8
0
 62
     0
 10
266.7113158132189
 20
167.99999999999989
 30
0.0
 11
229.2113158132189
 21
167.99999999999989
 31
0.0
  0
LINE
  5
679
  8
0
 62
     0
 10
266.7113158132189
 20
166.5
 30
0.0
 11
229.2113158132189
 21
166.5
 31
0.0
  0
LINE
  5
67A
  8
0
 62
     0
 10
266.7113158132189
 20
164.99999999999989
 30
0.0
 11
229.2113158132189
 21
164.99999999999989
 31
0.0
  0
LINE
  5
67B
  8
0
 62
     0
 10
266.7113158132189
 20
163.49999999999989
 30
0.0
 11
229.2113158132189
 21
163.49999999999989
 31
0.0
  0
LINE
  5
67C
  8
0
 62
     0
 10
266.7113158132189
 20
161.99999999999989
 30
0.0
 11
229.2113158132189
 21
161.99999999999989
 31
0.0
  0
LINE
  5
67D
  8
0
 62
     0
 10
266.7113158132189
 20
160.49999999999989
 30
0.0
 11
229.2113158132189
 21
160.49999999999989
 31
0.0
  0
LINE
  5
67E
  8
0
 62
     0
 10
266.7113158132189
 20
159.0
 30
0.0
 11
229.2113158132189
 21
159.0
 31
0.0
  0
LINE
  5
67F
  8
0
 62
     0
 10
266.7113158132189
 20
157.5
 30
0.0
 11
229.2113158132189
 21
157.5
 31
0.0
  0
ENDBLK
  5
681
  8
0
  0
ENDSEC
  0
SECTION
  2
ENTITIES
  0
LINE
  5
38C
  8
0
 10
227.58631581321879
 20
108.12500450375749
 30
0.0
 11
268.336315813216
 21
108.12500450375749
 31
0.0
  0
LINE
  5
38D
  8
0
 10
268.336315813216
 20
44.125004503757758
 30
0.0
 11
227.58631581321879
 21
44.125004503757758
 31
0.0
  0
LINE
  5
38E
  8
0
 10
227.58631581321879
 20
44.125004503757758
 30
0.0
 11
227.58631581321879
 21
108.12500450375749
 31
0.0
  0
LINE
  5
38F
  8
0
 10
268.336315813216
 20
44.125004503757758
 30
0.0
 11
268.336315813216
 21
108.12500450375749
 31
0.0
  0
LINE
  5
390
  8
0
 10
227.5863158132195
 20
44.125004503757708
 30
0.0
 11
275.08631581321953
 21
44.125004503757708
 31
0.0
  0
LINE
  5
391
  8
0
 10
275.08631581321953
 20
0.0000045037577352
 30
0.0
 11
227.5863158132195
 21
0.0000045037577352
 31
0.0
  0
LINE
  5
392
  8
0
 10
227.5863158132195
 20
44.125004503757708
 30
0.0
 11
227.5863158132195
 21
0.0000045037577352
 31
0.0
  0
LINE
  5
393
  8
0
 10
275.08631581321953
 20
0.0000045037577352
 30
0.0
 11
275.08631581321953
 21
44.125004503757708
 31
0.0
  0
ARC
  5
394
  8
0
 10
247.9613158132191
 20
97.875004503758163
 30
0.0
 40
1.9999999999999769
 50
359.99999999999898
 51
179.9999999999998
  0
ARC
  5
395
  8
0
 10
247.9613158132191
 20
97.875004503758163
 30
0.0
 40
2.0000000000000062
 50
180.0000000000006
 51
359.99999999999858
  0
ARC
  5
396
  8
0
 10
257.58631581321902
 20
39.000004503757737
 30
0.0
 40
0.5000000000000151
 50
359.99999999999841
 51
179.99999999999881
  0
ARC
  5
397
  8
0
 10
257.58631581321902
 20
39.000004503757737
 30
0.0
 40
0.4999999999999966
 50
180.00000000000119
 51
359.9999999999992
  0
ARC
  5
398
  8
0
 10
244.83631581321899
 20
26.125004503757729
 30
0.0
 40
1.0
 50
0.0
 51
179.9999999999998
  0
ARC
  5
399
  8
0
 10
244.83631581321899
 20
26.125004503757729
 30
0.0
 40
1.0000000000000051
 50
180.0000000000002
 51
359.99999999999949
  0
ARC
  5
39A
  8
0
 10
229.8363158132189
 20
8.3750045037577348
 30
0.0
 40
0.9999999999999996
 50
359.9999999999996
 51
179.9999999999996
  0
ARC
  5
39B
  8
0
 10
229.8363158132189
 20
8.3750045037577348
 30
0.0
 40
1.0000000000000071
 50
180.0000000000002
 51
359.9999999999992
  0
ARC
  5
39C
  8
0
 10
231.71131581321919
 20
12.875004503758159
 30
0.0
 40
2.0000000000000062
 50
359.9999999999992
 51
179.9999999999996
  0
ARC
  5
39D
  8
0
 10
231.71131581321919
 20
12.875004503758159
 30
0.0
 40
1.999999999999998
 50
180.0000000000004
 51
359.99999999999937
  0
LINE
  5
39E
  8
0
 10
317.98510878311072
 20
108.12500450375749
 30
0.0
 11
425.7351087831052
 21
108.12500450375749
 31
0.0
  0
LINE
  5
39F
  8
0
 10
317.98510878311072
 20
44.125004503757758
 30
0.0
 11
317.98510878311072
 21
108.12500450375749
 31
0.0
  0
LINE
  5
3A0
  8
0
 10
425.73510878310509
 20
44.125004503757758
 30
0.0
 11
425.73510878310509
 21
108.12500450375749
 31
0.0
  0
LINE
  5
3A1
  8
0
 10
363.86010878310498
 20
5.0000045037579612
 30
0.0
 11
379.86010878310429
 21
5.0000045037581318
 31
0.0
  0
LINE
  5
3A2
  8
0
 10
363.86010878310532
 20
39.80109554017713
 30
0.0
 11
379.86010878310469
 21
39.801095540177307
 31
0.0
  0
LINE
  5
3A3
  8
0
 10
379.86010878310498
 20
4.0000045037577907
 30
0.0
 11
379.86010878310509
 21
42.50000450375834
 31
0.0
  0
LINE
  5
3A4
  8
0
 10
380.85259438385162
 20
42.50000450375834
 30
0.0
 11
380.85259438385151
 21
4.0000045037577889
 31
0.0
  0
LINE
  5
3A5
  8
0
 10
379.86010878310498
 20
4.0000045037577907
 30
0.0
 11
380.85259438385151
 21
4.0000045037577889
 31
0.0
  0
LINE
  5
3A6
  8
0
 10
380.85259438385162
 20
42.50000450375834
 30
0.0
 11
379.86010878310509
 21
42.50000450375834
 31
0.0
  0
LINE
  5
3A7
  8
0
 10
362.85733075427828
 20
4.0000045037578156
 30
0.0
 11
362.85733075427839
 21
42.500004503758369
 31
0.0
  0
LINE
  5
3A8
  8
0
 10
363.8601087831052
 20
42.500004503758369
 30
0.0
 11
363.86010878310498
 21
4.0000045037578147
 31
0.0
  0
LINE
  5
3A9
  8
0
 10
362.85733075427828
 20
4.0000045037578156
 30
0.0
 11
363.86010878310498
 21
4.0000045037578147
 31
0.0
  0
LINE
  5
3AA
  8
0
 10
363.8601087831052
 20
42.500004503758369
 30
0.0
 11
362.85733075427839
 21
42.500004503758369
 31
0.0
  0
LINE
  5
3AB
  8
0
 10
399.86010878310469
 20
5.0000045037576202
 30
0.0
 11
415.86010878310469
 21
5.0000045037576202
 31
0.0
  0
LINE
  5
3AC
  8
0
 10
399.86010878310509
 20
39.801095540176988
 30
0.0
 11
415.86010878310509
 21
39.801095540176959
 31
0.0
  0
LINE
  5
3AD
  8
0
 10
398.86910843777639
 20
4.0000045037577632
 30
0.0
 11
398.86910843777639
 21
42.500004503758312
 31
0.0
  0
LINE
  5
3AE
  8
0
 10
399.86010878310509
 20
42.500004503758312
 30
0.0
 11
399.86010878310498
 21
4.0000045037577632
 31
0.0
  0
LINE
  5
3AF
  8
0
 10
398.86910843777639
 20
4.0000045037577632
 30
0.0
 11
399.86010878310498
 21
4.0000045037577632
 31
0.0
  0
LINE
  5
3B0
  8
0
 10
399.86010878310509
 20
42.500004503758312
 30
0.0
 11
398.86910843777639
 21
42.500004503758312
 31
0.0
  0
LINE
  5
3B1
  8
0
 10
415.86010878310492
 20
4.0000045037577321
 30
0.0
 11
415.86010878310509
 21
42.500004503758369
 31
0.0
  0
LINE
  5
3B2
  8
0
 10
416.85212409987412
 20
42.500004503758369
 30
0.0
 11
416.85212409987412
 21
4.0000045037577294
 31
0.0
  0
LINE
  5
3B3
  8
0
 10
416.85212409987412
 20
4.0000045037577294
 30
0.0
 11
415.86010878310492
 21
4.0000045037577321
 31
0.0
  0
LINE
  5
3B4
  8
0
 10
416.85212409987412
 20
42.500004503758369
 30
0.0
 11
415.86010878310509
 21
42.500004503758369
 31
0.0
  0
LINE
  5
3B5
  8
0
 10
327.86010878310469
 20
5.0000045037576202
 30
0.0
 11
343.86010878310429
 21
5.0000045037577907
 31
0.0
  0
LINE
  5
3B6
  8
0
 10
327.86010878310469
 20
39.801095540176782
 30
0.0
 11
343.86010878310469
 21
39.801095540176938
 31
0.0
  0
LINE
  5
3B7
  8
0
 10
343.86010878310498
 20
4.0000045037578467
 30
0.0
 11
343.86010878310498
 21
42.50000450375839
 31
0.0
  0
LINE
  5
3B8
  8
0
 10
344.86010878310498
 20
42.50000450375839
 30
0.0
 11
344.86010878310498
 21
4.0000045037578467
 31
0.0
  0
LINE
  5
3B9
  8
0
 10
343.86010878310498
 20
4.0000045037578467
 30
0.0
 11
344.86010878310498
 21
4.0000045037578467
 31
0.0
  0
LINE
  5
3BA
  8
0
 10
344.86010878310498
 20
42.50000450375839
 30
0.0
 11
343.86010878310498
 21
42.50000450375839
 31
0.0
  0
LINE
  5
3BB
  8
0
 10
326.86010878310498
 20
4.0000045037578751
 30
0.0
 11
326.86010878310498
 21
42.500004503758419
 31
0.0
  0
LINE
  5
3BC
  8
0
 10
327.86010878310498
 20
42.500004503758419
 30
0.0
 11
327.86010878310498
 21
4.0000045037578751
 31
0.0
  0
LINE
  5
3BD
  8
0
 10
326.86010878310498
 20
4.0000045037578751
 30
0.0
 11
327.86010878310498
 21
4.0000045037578751
 31
0.0
  0
LINE
  5
3BE
  8
0
 10
327.86010878310498
 20
42.500004503758419
 30
0.0
 11
326.86010878310498
 21
42.500004503758419
 31
0.0
  0
LINE
  5
3BF
  8
0
 10
319.61010878310492
 20
42.500004503759563
 30
0.0
 11
319.61010878310492
 21
4.0000045037577294
 31
0.0
  0
LINE
  5
3C0
  8
0
 10
319.61010878310492
 20
4.0000045037577294
 30
0.0
 11
326.86010878310401
 21
4.0000045037577294
 31
0.0
  0
LINE
  5
3C1
  8
0
 10
326.86010878310401
 20
4.0000045037577294
 30
0.0
 11
326.86010878310418
 21
42.500004503759008
 31
0.0
1001
ACAD
1000
ASC_BOUNDS
1002
{
1070
    19
1005
553
1002
}
  0
LINE
  5
3C2
  8
0
 10
326.86010878310418
 20
42.500004503759008
 30
0.0
 11
319.61010878310492
 21
42.500004503759563
 31
0.0
  0
LINE
  5
3C3
  8
0
 10
362.85733075427839
 20
42.50000450375839
 30
0.0
 11
344.86010878310498
 21
42.50000450375839
 31
0.0
  0
LINE
  5
3C4
  8
0
 10
344.86010878310498
 20
42.50000450375839
 30
0.0
 11
344.86010878310498
 21
4.0000045037578467
 31
0.0
1001
ACAD
1000
ASC_BOUNDS
1002
{
1070
    19
1005
553
1002
}
  0
LINE
  5
3C5
  8
0
 10
344.86010878310498
 20
4.0000045037578467
 30
0.0
 11
362.85733075427828
 21
4.0000045037578467
 31
0.0
  0
LINE
  5
3C6
  8
0
 10
362.85733075427828
 20
4.0000045037578467
 30
0.0
 11
362.85733075427839
 21
42.50000450375839
 31
0.0
1001
ACAD
1000
ASC_BOUNDS
1002
{
1070
    19
1005
553
1002
}
  0
LINE
  5
3C7
  8
0
 10
424.11010878310492
 20
42.50000450375839
 30
0.0
 11
416.85212409987412
 21
42.50000450375839
 31
0.0
  0
LINE
  5
3C8
  8
0
 10
416.85212409987412
 20
42.50000450375839
 30
0.0
 11
416.85212409987412
 21
4.0000045037578467
 31
0.0
1001
ACAD
1000
ASC_BOUNDS
1002
{
1070
    19
1005
553
1002
}
  0
LINE
  5
3C9
  8
0
 10
416.85212409987412
 20
4.0000045037578467
 30
0.0
 11
424.11010878310492
 21
4.0000045037578467
 31
0.0
  0
LINE
  5
3CA
  8
0
 10
424.11010878310492
 20
4.0000045037578467
 30
0.0
 11
424.11010878310492
 21
42.50000450375839
 31
0.0
  0
LINE
  5
3CB
  8
0
 10
398.86910843777639
 20
42.50000450375839
 30
0.0
 11
380.85259438385151
 21
42.50000450375839
 31
0.0
  0
LINE
  5
3CC
  8
0
 10
380.85259438385151
 20
42.50000450375839
 30
0.0
 11
380.85259438385151
 21
4.0000045037578467
 31
0.0
1001
ACAD
1000
ASC_BOUNDS
1002
{
1070
    19
1005
553
1002
}
  0
LINE
  5
3CD
  8
0
 10
380.85259438385151
 20
4.0000045037578467
 30
0.0
 11
398.86910843777639
 21
4.0000045037578467
 31
0.0
  0
LINE
  5
3CE
  8
0
 10
398.86910843777639
 20
4.0000045037578467
 30
0.0
 11
398.86910843777639
 21
42.50000450375839
 31
0.0
1001
ACAD
1000
ASC_BOUNDS
1002
{
1070
    19
1005
553
1002
}
  0
LINE
  5
3CF
  8
0
 10
317.98510878310537
 20
44.125004503757708
 30
0.0
 11
425.73510878310532
 21
44.125004503757708
 31
0.0
  0
LINE
  5
3D0
  8
0
 10
425.73510878310532
 20
0.0000045037577352
 30
0.0
 11
317.98510878310537
 21
0.0000045037577352
 31
0.0
  0
LINE
  5
3D1
  8
0
 10
317.98510878310537
 20
0.0000045037577352
 30
0.0
 11
317.98510878310537
 21
44.125004503757708
 31
0.0
  0
LINE
  5
3D2
  8
0
 10
319.61010878310572
 20
4.0000045037567711
 30
0.0
 11
319.61010878310532
 21
42.500004503757332
 31
0.0
1001
ACAD
1000
ASC_BOUNDS
1002
{
1070
    19
1005
553
1002
}
  0
LINE
  5
3D3
  8
0
 10
319.61010878310532
 20
42.500004503757332
 30
0.0
 11
424.11010878310469
 21
42.50000450375839
 31
0.0
1001
ACAD
1000
ASC_BOUNDS
1002
{
1070
    19
1005
553
1005
553
1005
553
1005
553
1002
}
  0
LINE
  5
3D4
  8
0
 10
424.11010878310469
 20
42.50000450375839
 30
0.0
 11
424.11010878310509
 21
4.0000045037578467
 31
0.0
1001
ACAD
1000
ASC_BOUNDS
1002
{
1070
    19
1005
553
1002
}
  0
LINE
  5
3D5
  8
0
 10
424.11010878310509
 20
4.0000045037578467
 30
0.0
 11
319.61010878310572
 21
4.0000045037567658
 31
0.0
1001
ACAD
1000
ASC_BOUNDS
1002
{
1070
    19
1005
553
1005
553
1005
553
1005
553
1002
}
  0
LINE
  5
3D6
  8
0
 10
425.73510878310532
 20
0.0000045037577352
 30
0.0
 11
425.73510878310532
 21
44.125004503757708
 31
0.0
  0
ARC
  5
3D7
  8
0
 10
371.86010878310481
 20
78.125004503758888
 30
0.0
 40
8.2500000000000053
 50
179.9999999999996
 51
359.99999999999881
  0
ARC
  5
3D8
  8
0
 10
371.86010878310481
 20
78.125004503758888
 30
0.0
 40
8.2500000000000089
 50
359.99999999999949
 51
179.9999999999996
  0
ARC
  5
3D9
  8
0
 10
371.86010878310481
 20
78.125004503758888
 30
0.0
 40
7.687499999999992
 50
0.000000000000687
 51
180.00000000000011
  0
ARC
  5
3DA
  8
0
 10
371.86010878310481
 20
78.125004503758888
 30
0.0
 40
7.687499999999992
 50
180.00000000000011
 51
359.9999999999996
  0
LINE
  5
3DB
  8
0
 10
376.98260955709259
 20
75.683148654961499
 30
0.0
 11
376.78766908090222
 21
75.23423992480275
 31
0.0
  0
LINE
  5
3DC
  8
0
 10
376.78766908090222
 20
75.23423992480275
 30
0.0
 11
376.33677622375927
 21
75.076997861310701
 31
0.0
  0
LINE
  5
3DD
  8
0
 10
376.33677622375927
 20
75.076997861310701
 30
0.0
 11
376.01224745391801
 21
75.141233972421801
 31
0.0
  0
LINE
  5
3DE
  8
0
 10
376.01224745391801
 20
75.141233972421801
 30
0.0
 11
375.77675638248951
 21
75.333942305755144
 31
0.0
  0
LINE
  5
3DF
  8
0
 10
375.77675638248951
 20
75.333942305755144
 30
0.0
 11
375.58578416026722
 21
76.091878813691679
 31
0.0
  0
LINE
  5
3E0
  8
0
 10
375.58578416026722
 20
76.091878813691679
 30
0.0
 11
375.769811938045
 21
76.85576770258055
 31
0.0
  0
LINE
  5
3E1
  8
0
 10
375.769811938045
 20
76.85576770258055
 30
0.0
 11
375.99959864439421
 21
77.045499845437689
 31
0.0
  0
LINE
  5
3E2
  8
0
 10
375.99959864439421
 20
77.045499845437689
 30
0.0
 11
376.3209032078862
 21
77.10874389305674
 31
0.0
  0
LINE
  5
3E3
  8
0
 10
376.3209032078862
 20
77.10874389305674
 30
0.0
 11
376.78915717614018
 21
76.965390718453548
 31
0.0
  0
LINE
  5
3E4
  8
0
 10
376.78915717614018
 20
76.965390718453548
 30
0.0
 11
376.98260955709259
 21
76.540291512104361
 31
0.0
  0
LINE
  5
3E5
  8
0
 10
376.98260955709259
 20
76.540291512104361
 30
0.0
 11
378.1254666999497
 21
76.540291512104361
 31
0.0
  0
LINE
  5
3E6
  8
0
 10
378.1254666999497
 20
76.540291512104361
 30
0.0
 11
377.9652484459815
 21
77.187984964485295
 31
0.0
  0
LINE
  5
3E7
  8
0
 10
377.9652484459815
 20
77.187984964485295
 30
0.0
 11
377.59768892217198
 21
77.666779607342434
 31
0.0
  0
LINE
  5
3E8
  8
0
 10
377.59768892217198
 20
77.666779607342434
 30
0.0
 11
377.0386611443941
 21
77.962538535913865
 31
0.0
  0
LINE
  5
3E9
  8
0
 10
377.0386611443941
 20
77.962538535913865
 30
0.0
 11
376.3040381285212
 21
78.061124845437689
 31
0.0
  0
LINE
  5
3EA
  8
0
 10
376.3040381285212
 20
78.061124845437689
 30
0.0
 11
375.50604705709259
 21
77.929180400993232
 31
0.0
  0
LINE
  5
3EB
  8
0
 10
375.50604705709259
 20
77.929180400993232
 30
0.0
 11
374.8958040015371
 21
77.533347067659918
 31
0.0
  0
LINE
  5
3EC
  8
0
 10
374.8958040015371
 20
77.533347067659918
 30
0.0
 11
374.50852721582282
 21
76.909339131151981
 31
0.0
  0
LINE
  5
3ED
  8
0
 10
374.50852721582282
 20
76.909339131151981
 30
0.0
 11
374.37943495391801
 21
76.092870877183714
 31
0.0
  0
LINE
  5
3EE
  8
0
 10
374.37943495391801
 20
76.092870877183714
 30
0.0
 11
374.5091472555053
 21
75.274542504167869
 31
0.0
  0
LINE
  5
3EF
  8
0
 10
374.5091472555053
 20
75.274542504167869
 30
0.0
 11
374.89828416026722
 21
74.650906591469436
 31
0.0
  0
LINE
  5
3F0
  8
0
 10
374.89828416026722
 20
74.650906591469436
 30
0.0
 11
375.51361154121957
 21
74.256189329564677
 31
0.0
  0
LINE
  5
3F1
  8
0
 10
375.51361154121957
 20
74.256189329564677
 30
0.0
 11
376.32189527137831
 21
74.124616908929752
 31
0.0
  0
LINE
  5
3F2
  8
0
 10
376.32189527137831
 20
74.124616908929752
 30
0.0
 11
377.04498554915608
 21
74.226799448612283
 31
0.0
  0
LINE
  5
3F3
  8
0
 10
377.04498554915608
 20
74.226799448612283
 30
0.0
 11
377.60116114439421
 21
74.533347067659918
 31
0.0
  0
LINE
  5
3F4
  8
0
 10
377.60116114439421
 20
74.533347067659918
 30
0.0
 11
377.96859666026722
 21
75.025162543850399
 31
0.0
  0
LINE
  5
3F5
  8
0
 10
377.96859666026722
 20
75.025162543850399
 30
0.0
 11
378.1254666999497
 21
75.683148654961499
 31
0.0
  0
LINE
  5
3F6
  8
0
 10
378.1254666999497
 20
75.683148654961499
 30
0.0
 11
376.98260955709259
 21
75.683148654961499
 31
0.0
  0
LINE
  5
3F7
  8
0
 10
369.76088217932499
 20
76.457222843884708
 30
0.0
 11
370.93846154440428
 21
76.457222843884708
 31
0.0
  0
LINE
  5
3F8
  8
0
 10
370.93846154440428
 20
76.457222843884708
 30
0.0
 11
371.0852869412297
 21
76.965159351821185
 31
0.0
  0
LINE
  5
3F9
  8
0
 10
371.0852869412297
 20
76.965159351821185
 30
0.0
 11
372.2886599571026
 21
76.965159351821185
 31
0.0
  0
LINE
  5
3FA
  8
0
 10
372.2886599571026
 20
76.965159351821185
 30
0.0
 11
372.43052503646783
 21
76.457222843884708
 31
0.0
  0
LINE
  5
3FB
  8
0
 10
372.43052503646783
 20
76.457222843884708
 30
0.0
 11
373.63389805234078
 21
76.457222843884708
 31
0.0
  0
LINE
  5
3FC
  8
0
 10
373.63389805234078
 20
76.457222843884708
 30
0.0
 11
372.30453297297578
 21
80.266746653408518
 31
0.0
  0
LINE
  5
3FD
  8
0
 10
372.30453297297578
 20
80.266746653408518
 30
0.0
 11
371.07536630630909
 21
80.266746653408518
 31
0.0
  0
LINE
  5
3FE
  8
0
 10
371.07536630630909
 20
80.266746653408518
 30
0.0
 11
369.76088217932499
 21
76.457222843884708
 31
0.0
  0
LINE
  5
3FF
  8
0
 10
371.30552503646783
 20
77.790556177218036
 30
0.0
 11
371.69143773488042
 21
79.094127605789467
 31
0.0
  0
LINE
  5
400
  8
0
 10
371.69143773488042
 20
79.094127605789467
 30
0.0
 11
372.06842186186458
 21
77.790556177218036
 31
0.0
  0
LINE
  5
401
  8
0
 10
372.06842186186458
 20
77.790556177218036
 30
0.0
 11
371.30552503646783
 21
77.790556177218036
 31
0.0
  0
LINE
  5
402
  8
0
 10
366.00015098906363
 20
78.197611153064983
 30
0.0
 11
367.69955575096827
 21
78.197611153064983
 31
0.0
  0
LINE
  5
403
  8
0
 10
367.69955575096827
 20
78.197611153064983
 30
0.0
 11
368.46741289382538
 21
78.236301629255436
 31
0.0
  0
LINE
  5
404
  8
0
 10
368.46741289382538
 20
78.236301629255436
 30
0.0
 11
368.88011130652387
 21
78.368246073699893
 31
0.0
  0
LINE
  5
405
  8
0
 10
368.88011130652387
 20
78.368246073699893
 30
0.0
 11
369.28834543350803
 21
78.751182581636414
 31
0.0
  0
LINE
  5
406
  8
0
 10
369.28834543350803
 20
78.751182581636414
 30
0.0
 11
369.42872241763502
 21
79.338484168937967
 31
0.0
  0
LINE
  5
407
  8
0
 10
369.42872241763502
 20
79.338484168937967
 30
0.0
 11
369.2848732112858
 21
79.90148020068402
 31
0.0
  0
LINE
  5
408
  8
0
 10
369.2848732112858
 20
79.90148020068402
 30
0.0
 11
368.84142083033339
 21
80.226380994334818
 31
0.0
  0
LINE
  5
409
  8
0
 10
368.84142083033339
 20
80.226380994334818
 30
0.0
 11
369.18665892557141
 21
80.543841311795148
 31
0.0
  0
LINE
  5
40A
  8
0
 10
369.18665892557141
 20
80.543841311795148
 30
0.0
 11
369.3017382906508
 21
80.996222264176083
 31
0.0
  0
LINE
  5
40B
  8
0
 10
369.3017382906508
 20
80.996222264176083
 30
0.0
 11
369.14796844938098
 21
81.556242105445918
 31
0.0
  0
LINE
  5
40C
  8
0
 10
369.14796844938098
 20
81.556242105445918
 30
0.0
 11
368.70550813192062
 21
81.896023851477651
 31
0.0
  0
LINE
  5
40D
  8
0
 10
368.70550813192062
 20
81.896023851477651
 30
0.0
 11
368.31017083033339
 21
81.981341311795134
 31
0.0
  0
LINE
  5
40E
  8
0
 10
368.31017083033339
 20
81.981341311795134
 30
0.0
 11
367.57653987795248
 21
82.007134962588765
 31
0.0
  0
LINE
  5
40F
  8
0
 10
367.57653987795248
 20
82.007134962588765
 30
0.0
 11
366.00015098906363
 21
82.007134962588765
 31
0.0
  0
LINE
  5
410
  8
0
 10
366.00015098906363
 20
82.007134962588765
 30
0.0
 11
366.00015098906363
 21
78.197611153064983
 31
0.0
  0
LINE
  5
411
  8
0
 10
367.20650019541279
 20
79.086500041953855
 30
0.0
 11
367.20650019541279
 21
79.784912740366565
 31
0.0
  0
LINE
  5
412
  8
0
 10
367.20650019541279
 20
79.784912740366565
 30
0.0
 11
367.75511130652387
 21
79.784912740366565
 31
0.0
  0
LINE
  5
413
  8
0
 10
367.75511130652387
 20
79.784912740366565
 30
0.0
 11
368.16433749700008
 21
79.705547661001489
 31
0.0
  0
LINE
  5
414
  8
0
 10
368.16433749700008
 20
79.705547661001489
 30
0.0
 11
368.28586527477779
 21
79.438682581636385
 31
0.0
  0
LINE
  5
415
  8
0
 10
368.28586527477779
 20
79.438682581636385
 30
0.0
 11
368.16681765573009
 21
79.16884131179512
 31
0.0
  0
LINE
  5
416
  8
0
 10
368.16681765573009
 20
79.16884131179512
 30
0.0
 11
367.76602400493653
 21
79.086500041953855
 31
0.0
  0
LINE
  5
417
  8
0
 10
367.76602400493653
 20
79.086500041953855
 30
0.0
 11
367.20650019541279
 21
79.086500041953855
 31
0.0
  0
LINE
  5
418
  8
0
 10
367.20650019541279
 20
80.483325438779246
 30
0.0
 11
367.20650019541279
 21
81.118246073699908
 31
0.0
  0
LINE
  5
419
  8
0
 10
367.20650019541279
 20
81.118246073699908
 30
0.0
 11
367.54082559223809
 21
81.118246073699908
 31
0.0
  0
LINE
  5
41A
  8
0
 10
367.54082559223809
 20
81.118246073699908
 30
0.0
 11
368.04925813192062
 21
81.050785756239577
 31
0.0
  0
LINE
  5
41B
  8
0
 10
368.04925813192062
 20
81.050785756239577
 30
0.0
 11
368.15888114779358
 21
80.800785756239549
 31
0.0
  0
LINE
  5
41C
  8
0
 10
368.15888114779358
 20
80.800785756239549
 30
0.0
 11
368.05669860811122
 21
80.555746073699879
 31
0.0
  0
LINE
  5
41D
  8
0
 10
368.05669860811122
 20
80.555746073699879
 30
0.0
 11
367.70451606842857
 21
80.483325438779246
 31
0.0
  0
LINE
  5
41E
  8
0
 10
367.70451606842857
 20
80.483325438779246
 30
0.0
 11
367.20650019541279
 21
80.483325438779246
 31
0.0
  0
ARC
  5
41F
  8
0
 10
371.86010878310429
 20
78.125004503759556
 30
0.0
 40
8.9999999999999964
 50
179.9999999999998
 51
359.99999999999881
  0
ARC
  5
420
  8
0
 10
371.86010878310429
 20
78.125004503759556
 30
0.0
 40
9.0000000000000391
 50
359.99999999999937
 51
179.9999999999996
  0
LINE
  5
421
  8
0
 10
317.73510878310469
 20
95.875004503758177
 30
0.0
 11
317.98510878310481
 21
95.875004503758177
 31
0.0
  0
LINE
  5
422
  8
0
 10
317.98510878310452
 20
99.875004503758134
 30
0.0
 11
317.73510878310469
 21
99.875004503758134
 31
0.0
  0
LINE
  5
423
  8
0
 10
317.7351087831052
 20
97.87500450375812
 30
0.0
 11
317.7351087831052
 21
98.392642593963174
 31
0.0
  0
LINE
  5
424
  8
0
 10
317.7351087831052
 20
98.392643715809015
 30
0.0
 11
317.7351087831052
 21
98.875000917705606
 31
0.0
  0
LINE
  5
425
  8
0
 10
317.7351087831052
 20
98.875004503758134
 30
0.0
 11
317.7351087831052
 21
99.289218066131227
 31
0.0
  0
LINE
  5
426
  8
0
 10
317.7351087831052
 20
99.289219843164815
 30
0.0
 11
317.7351087831052
 21
99.607055311327031
 31
0.0
  0
LINE
  5
427
  8
0
 10
317.7351087831052
 20
99.607056676392446
 30
0.0
 11
317.7351087831052
 21
99.806856156336281
 31
0.0
  0
LINE
  5
428
  8
0
 10
317.7351087831052
 20
99.806861317494324
 30
0.0
 11
317.7351087831052
 21
99.875004503758134
 31
0.0
  0
LINE
  5
429
  8
0
 10
317.7351087831052
 20
95.875004503758134
 30
0.0
 11
317.7351087831052
 21
95.943147690019956
 31
0.0
  0
LINE
  5
42A
  8
0
 10
317.7351087831052
 20
95.943152851180017
 30
0.0
 11
317.7351087831052
 21
96.142952331122714
 31
0.0
  0
LINE
  5
42B
  8
0
 10
317.7351087831052
 20
96.142953696189295
 30
0.0
 11
317.7351087831052
 21
96.460789164350459
 31
0.0
  0
LINE
  5
42C
  8
0
 10
317.7351087831052
 20
96.460790941385071
 30
0.0
 11
317.7351087831052
 21
96.875004503758134
 31
0.0
  0
LINE
  5
42D
  8
0
 10
317.7351087831052
 20
96.875008089809739
 30
0.0
 11
317.7351087831052
 21
97.35736529170633
 31
0.0
  0
LINE
  5
42E
  8
0
 10
317.7351087831052
 20
97.357366413553095
 30
0.0
 11
317.7351087831052
 21
97.87500450375812
 31
0.0
  0
LINE
  5
42F
  8
0
 10
317.73510878310469
 20
38.500004503757673
 30
0.0
 11
317.98510878310429
 21
38.500004503757673
 31
0.0
  0
LINE
  5
430
  8
0
 10
317.98510878310429
 20
39.500004503757779
 30
0.0
 11
317.73510878310469
 21
39.500004503757779
 31
0.0
  0
LINE
  5
431
  8
0
 10
317.73510878310469
 20
25.12500450375757
 30
0.0
 11
317.98510878310492
 21
25.12500450375757
 31
0.0
  0
LINE
  5
432
  8
0
 10
317.98510878310492
 20
27.1250045037578
 30
0.0
 11
317.73510878310469
 21
27.1250045037578
 31
0.0
  0
LINE
  5
433
  8
0
 10
317.73510878310481
 20
7.375004503757677
 30
0.0
 11
317.98510878310469
 21
7.375004503757677
 31
0.0
  0
LINE
  5
434
  8
0
 10
317.98510878310469
 20
9.3750045037577312
 30
0.0
 11
317.73510878310481
 21
9.3750045037577312
 31
0.0
  0
LINE
  5
435
  8
0
 10
317.7351087831052
 20
39.000004503757722
 30
0.0
 11
317.7351087831052
 21
39.129414026309
 31
0.0
  0
LINE
  5
436
  8
0
 10
317.7351087831052
 20
39.129414306770492
 30
0.0
 11
317.7351087831052
 21
39.2500036072448
 31
0.0
  0
LINE
  5
437
  8
0
 10
317.7351087831052
 20
39.250004503757729
 30
0.0
 11
317.7351087831052
 21
39.353557894350992
 31
0.0
  0
LINE
  5
438
  8
0
 10
317.7351087831052
 20
39.353558338609638
 30
0.0
 11
317.7351087831052
 21
39.433017205649953
 31
0.0
  0
LINE
  5
439
  8
0
 10
317.7351087831052
 20
39.433017546916489
 30
0.0
 11
317.7351087831052
 21
39.482967416902262
 31
0.0
  0
LINE
  5
43A
  8
0
 10
317.7351087831052
 20
39.482968707191851
 30
0.0
 11
317.7351087831052
 21
39.500004503757729
 31
0.0
  0
LINE
  5
43B
  8
0
 10
317.7351087831052
 20
38.500004503757737
 30
0.0
 11
317.7351087831052
 21
38.517040300323622
 31
0.0
  0
LINE
  5
43C
  8
0
 10
317.7351087831052
 20
38.517041590613204
 30
0.0
 11
317.7351087831052
 21
38.56699146059897
 31
0.0
  0
LINE
  5
43D
  8
0
 10
317.7351087831052
 20
38.56699180186552
 30
0.0
 11
317.7351087831052
 21
38.646450668905807
 31
0.0
  0
LINE
  5
43E
  8
0
 10
317.7351087831052
 20
38.646451113164453
 30
0.0
 11
317.7351087831052
 21
38.750004503757737
 31
0.0
  0
LINE
  5
43F
  8
0
 10
317.7351087831052
 20
38.750005400270659
 30
0.0
 11
317.7351087831052
 21
38.870594700744967
 31
0.0
  0
LINE
  5
440
  8
0
 10
317.7351087831052
 20
38.87059498120648
 30
0.0
 11
317.7351087831052
 21
39.000004503757722
 31
0.0
  0
LINE
  5
441
  8
0
 10
317.7351087831052
 20
26.125004503757729
 30
0.0
 11
317.7351087831052
 21
26.832111114296492
 31
0.0
  0
LINE
  5
442
  8
0
 10
317.7351087831052
 20
26.832111284944268
 30
0.0
 11
317.7351087831052
 21
26.991029551068561
 31
0.0
  0
LINE
  5
443
  8
0
 10
317.7351087831052
 20
26.99102990754216
 30
0.0
 11
317.7351087831052
 21
27.090930330046799
 31
0.0
  0
LINE
  5
444
  8
0
 10
317.7351087831052
 20
27.090931014228559
 30
0.0
 11
317.7351087831052
 21
27.125004503757729
 31
0.0
  0
LINE
  5
445
  8
0
 10
317.7351087831052
 20
25.125004503757729
 30
0.0
 11
317.7351087831052
 21
25.159078677468671
 31
0.0
  0
LINE
  5
446
  8
0
 10
317.7351087831052
 20
25.159079090948161
 30
0.0
 11
317.7351087831052
 21
25.258979099973288
 31
0.0
  0
LINE
  5
447
  8
0
 10
317.7351087831052
 20
25.258980241980971
 30
0.0
 11
317.7351087831052
 21
25.41789772257118
 31
0.0
  0
LINE
  5
448
  8
0
 10
317.7351087831052
 20
25.41789874565108
 30
0.0
 11
317.7351087831052
 21
25.62500450375774
 31
0.0
  0
LINE
  5
449
  8
0
 10
317.7351087831052
 20
25.6250054002704
 30
0.0
 11
317.7351087831052
 21
26.125003539101641
 31
0.0
  0
LINE
  5
44A
  8
0
 10
317.73510878310537
 20
8.3750047449217195
 30
0.0
 11
317.73510878310537
 21
8.6338235488602528
 31
0.0
  0
LINE
  5
44B
  8
0
 10
317.73510878310537
 20
8.6338236098184726
 30
0.0
 11
317.73510878310537
 21
8.8750042796296125
 31
0.0
  0
LINE
  5
44C
  8
0
 10
317.73510878310537
 20
8.8750045037577312
 30
0.0
 11
317.73510878310537
 21
9.0821112849442791
 31
0.0
  0
LINE
  5
44D
  8
0
 10
317.73510878310537
 20
9.0821116180067101
 30
0.0
 11
317.73510878310537
 21
9.2410299075421651
 31
0.0
  0
LINE
  5
44E
  8
0
 10
317.73510878310537
 20
9.24102996527537
 30
0.0
 11
317.73510878310537
 21
9.3409303300468007
 31
0.0
  0
LINE
  5
44F
  8
0
 10
317.73510878310537
 20
9.3409305401211054
 30
0.0
 11
317.73510878310537
 21
9.3750045037577348
 31
0.0
  0
LINE
  5
450
  8
0
 10
317.73510878310537
 20
7.375004503757733
 30
0.0
 11
317.73510878310537
 21
7.4090779932866191
 31
0.0
  0
LINE
  5
451
  8
0
 10
317.73510878310537
 20
7.4090786774686661
 30
0.0
 11
317.73510878310537
 21
7.5089787298400807
 31
0.0
  0
LINE
  5
452
  8
0
 10
317.73510878310537
 20
7.5089790999732946
 30
0.0
 11
317.73510878310537
 21
7.667897722571186
 31
0.0
  0
LINE
  5
453
  8
0
 10
317.73510878310537
 20
7.6678978932189779
 30
0.0
 11
317.73510878310537
 21
8.1161851477145905
 31
0.0
  0
LINE
  5
454
  8
0
 10
317.73510878310537
 20
8.1161854586552131
 30
0.0
 11
317.73510878310537
 21
8.3750045037577312
 31
0.0
  0
LINE
  5
455
  8
0
 10
317.73510878310498
 20
10.875004503758079
 30
0.0
 11
317.98510878310492
 21
10.875004503758079
 31
0.0
  0
LINE
  5
456
  8
0
 10
317.98510878310492
 20
14.87500450375801
 30
0.0
 11
317.73510878310498
 21
14.87500450375801
 31
0.0
  0
LINE
  5
457
  8
0
 10
317.73510878310537
 20
12.87500450375815
 30
0.0
 11
317.73510878310537
 21
13.392642593963201
 31
0.0
  0
LINE
  5
458
  8
0
 10
317.73510878310537
 20
13.39264321584413
 30
0.0
 11
317.73510878310537
 21
14.60705531132704
 31
0.0
  0
LINE
  5
459
  8
0
 10
317.73510878310537
 20
14.607056051593091
 30
0.0
 11
317.73510878310537
 21
14.8068561563363
 31
0.0
  0
LINE
  5
45A
  8
0
 10
317.73510878310537
 20
14.80685752469925
 30
0.0
 11
317.73510878310537
 21
14.87500450375815
 31
0.0
  0
LINE
  5
45B
  8
0
 10
317.73510878310537
 20
10.87500450375815
 30
0.0
 11
317.73510878310537
 21
10.943152431030271
 31
0.0
  0
LINE
  5
45C
  8
0
 10
317.73510878310537
 20
10.94315285118002
 30
0.0
 11
317.73510878310537
 21
11.14295358072231
 31
0.0
  0
LINE
  5
45D
  8
0
 10
317.73510878310537
 20
11.142953696189281
 30
0.0
 11
317.73510878310537
 21
11.87500424275499
 31
0.0
  0
LINE
  5
45E
  8
0
 10
317.73510878310537
 20
11.87500450375815
 30
0.0
 11
317.73510878310537
 21
12.35736629163606
 31
0.0
  0
LINE
  5
45F
  8
0
 10
317.73510878310537
 20
12.35736641355312
 30
0.0
 11
317.73510878310537
 21
12.87500402142974
 31
0.0
  0
CIRCLE
  5
460
  8
0
 10
163.83887895339379
 20
34.687504503757737
 30
0.0
 40
8.5
  0
CIRCLE
  5
461
  8
0
 10
93.838878953393817
 20
34.687504503757737
 30
0.0
 40
8.5000000000000089
  0
LINE
  5
462
  8
0
 10
74.96387895339393
 20
108.12500450375749
 30
0.0
 11
182.7138789533885
 21
108.12500450375749
 31
0.0
  0
LINE
  5
463
  8
0
 10
182.7138789533885
 20
44.125004503757758
 30
0.0
 11
74.96387895339393
 21
44.125004503757758
 31
0.0
  0
LINE
  5
464
  8
0
 10
74.96387895339393
 20
108.12500450375749
 30
0.0
 11
74.96387895339393
 21
44.125004503757758
 31
0.0
  0
LINE
  5
465
  8
0
 10
182.7138789533885
 20
44.125004503757758
 30
0.0
 11
182.7138789533885
 21
108.12500450375749
 31
0.0
  0
LINE
  5
466
  8
0
 10
74.963878953393873
 20
44.125004503757708
 30
0.0
 11
182.71387895339379
 21
44.125004503757708
 31
0.0
  0
LINE
  5
467
  8
0
 10
182.71387895339379
 20
0.0000045037577352
 30
0.0
 11
74.963878953393873
 21
0.0000045037577352
 31
0.0
  0
LINE
  5
468
  8
0
 10
182.71387895339379
 20
44.125004503757708
 30
0.0
 11
182.71387895339379
 21
0.0000045037577352
 31
0.0
  0
LINE
  5
469
  8
0
 10
74.963878953393873
 20
0.0000045037577352
 30
0.0
 11
74.963878953393873
 21
44.125004503757708
 31
0.0
  0
ARC
  5
46A
  8
0
 10
128.8388789533947
 20
78.125004503759556
 30
0.0
 40
8.2500000000000053
 50
179.9999999999996
 51
359.99999999999881
  0
ARC
  5
46B
  8
0
 10
128.8388789533947
 20
78.125004503759556
 30
0.0
 40
8.2500000000000089
 50
359.99999999999949
 51
179.9999999999996
  0
ARC
  5
46C
  8
0
 10
128.8388789533947
 20
78.125004503759556
 30
0.0
 40
7.6875000000000062
 50
0.0000000000005852
 51
180.0
  0
ARC
  5
46D
  8
0
 10
128.8388789533947
 20
78.125004503759556
 30
0.0
 40
7.687499999999992
 50
180.00000000000011
 51
359.9999999999996
  0
LINE
  5
46E
  8
0
 10
133.96137972738251
 20
75.683148654962153
 30
0.0
 11
133.766439251192
 21
75.234239924803447
 31
0.0
  0
LINE
  5
46F
  8
0
 10
133.766439251192
 20
75.234239924803447
 30
0.0
 11
133.31554639404919
 21
75.076997861311355
 31
0.0
  0
LINE
  5
470
  8
0
 10
133.31554639404919
 20
75.076997861311355
 30
0.0
 11
132.9910176242079
 21
75.141233972422484
 31
0.0
  0
LINE
  5
471
  8
0
 10
132.9910176242079
 20
75.141233972422484
 30
0.0
 11
132.75552655277929
 21
75.333942305755812
 31
0.0
  0
LINE
  5
472
  8
0
 10
132.75552655277929
 20
75.333942305755812
 30
0.0
 11
132.56455433055709
 21
76.091878813692318
 31
0.0
  0
LINE
  5
473
  8
0
 10
132.56455433055709
 20
76.091878813692318
 30
0.0
 11
132.74858210833489
 21
76.855767702581204
 31
0.0
  0
LINE
  5
474
  8
0
 10
132.74858210833489
 20
76.855767702581204
 30
0.0
 11
132.9783688146841
 21
77.045499845438357
 31
0.0
  0
LINE
  5
475
  8
0
 10
132.9783688146841
 20
77.045499845438357
 30
0.0
 11
133.29967337817621
 21
77.108743893057394
 31
0.0
  0
LINE
  5
476
  8
0
 10
133.29967337817621
 20
77.108743893057394
 30
0.0
 11
133.7679273464301
 21
76.965390718454216
 31
0.0
  0
LINE
  5
477
  8
0
 10
133.7679273464301
 20
76.965390718454216
 30
0.0
 11
133.96137972738251
 21
76.540291512105014
 31
0.0
  0
LINE
  5
478
  8
0
 10
133.96137972738251
 20
76.540291512105014
 30
0.0
 11
135.1042368702397
 21
76.540291512105014
 31
0.0
  0
LINE
  5
479
  8
0
 10
135.1042368702397
 20
76.540291512105014
 30
0.0
 11
134.94401861627139
 21
77.187984964485977
 31
0.0
  0
LINE
  5
47A
  8
0
 10
134.94401861627139
 20
77.187984964485977
 30
0.0
 11
134.5764590924619
 21
77.666779607343116
 31
0.0
  0
LINE
  5
47B
  8
0
 10
134.5764590924619
 20
77.666779607343116
 30
0.0
 11
134.0174313146841
 21
77.962538535914547
 31
0.0
  0
LINE
  5
47C
  8
0
 10
134.0174313146841
 20
77.962538535914547
 30
0.0
 11
133.28280829881109
 21
78.061124845438357
 31
0.0
  0
LINE
  5
47D
  8
0
 10
133.28280829881109
 20
78.061124845438357
 30
0.0
 11
132.48481722738251
 21
77.929180400993928
 31
0.0
  0
LINE
  5
47E
  8
0
 10
132.48481722738251
 20
77.929180400993928
 30
0.0
 11
131.87457417182691
 21
77.533347067660557
 31
0.0
  0
LINE
  5
47F
  8
0
 10
131.87457417182691
 20
77.533347067660557
 30
0.0
 11
131.48729738611269
 21
76.909339131152635
 31
0.0
  0
LINE
  5
480
  8
0
 10
131.48729738611269
 20
76.909339131152635
 30
0.0
 11
131.3582051242079
 21
76.092870877184396
 31
0.0
  0
LINE
  5
481
  8
0
 10
131.3582051242079
 20
76.092870877184396
 30
0.0
 11
131.48791742579519
 21
75.274542504168508
 31
0.0
  0
LINE
  5
482
  8
0
 10
131.48791742579519
 20
75.274542504168508
 30
0.0
 11
131.87705433055709
 21
74.650906591470076
 31
0.0
  0
LINE
  5
483
  8
0
 10
131.87705433055709
 20
74.650906591470076
 30
0.0
 11
132.49238171150949
 21
74.256189329565345
 31
0.0
  0
LINE
  5
484
  8
0
 10
132.49238171150949
 20
74.256189329565345
 30
0.0
 11
133.3006654416682
 21
74.124616908930435
 31
0.0
  0
LINE
  5
485
  8
0
 10
133.3006654416682
 20
74.124616908930435
 30
0.0
 11
134.023755719446
 21
74.226799448612937
 31
0.0
  0
LINE
  5
486
  8
0
 10
134.023755719446
 20
74.226799448612937
 30
0.0
 11
134.5799313146841
 21
74.533347067660586
 31
0.0
  0
LINE
  5
487
  8
0
 10
134.5799313146841
 20
74.533347067660586
 30
0.0
 11
134.94736683055709
 21
75.025162543851039
 31
0.0
  0
LINE
  5
488
  8
0
 10
134.94736683055709
 20
75.025162543851039
 30
0.0
 11
135.1042368702397
 21
75.683148654962153
 31
0.0
  0
LINE
  5
489
  8
0
 10
135.1042368702397
 20
75.683148654962153
 30
0.0
 11
133.96137972738251
 21
75.683148654962153
 31
0.0
  0
LINE
  5
48A
  8
0
 10
126.7396523496148
 20
76.457222843885361
 30
0.0
 11
127.9172317146942
 21
76.457222843885361
 31
0.0
  0
LINE
  5
48B
  8
0
 10
127.9172317146942
 20
76.457222843885361
 30
0.0
 11
128.06405711151959
 21
76.965159351821868
 31
0.0
  0
LINE
  5
48C
  8
0
 10
128.06405711151959
 20
76.965159351821868
 30
0.0
 11
129.2674301273926
 21
76.965159351821868
 31
0.0
  0
LINE
  5
48D
  8
0
 10
129.2674301273926
 20
76.965159351821868
 30
0.0
 11
129.40929520675769
 21
76.457222843885361
 31
0.0
  0
LINE
  5
48E
  8
0
 10
129.40929520675769
 20
76.457222843885361
 30
0.0
 11
130.6126682226307
 21
76.457222843885361
 31
0.0
  0
LINE
  5
48F
  8
0
 10
130.6126682226307
 20
76.457222843885361
 30
0.0
 11
129.2833031432657
 21
80.266746653409186
 31
0.0
  0
LINE
  5
490
  8
0
 10
129.2833031432657
 20
80.266746653409186
 30
0.0
 11
128.05413647659901
 21
80.266746653409186
 31
0.0
  0
LINE
  5
491
  8
0
 10
128.05413647659901
 20
80.266746653409186
 30
0.0
 11
126.7396523496148
 21
76.457222843885361
 31
0.0
  0
LINE
  5
492
  8
0
 10
128.28429520675769
 20
77.79055617721869
 30
0.0
 11
128.6702079051704
 21
79.094127605790106
 31
0.0
  0
LINE
  5
493
  8
0
 10
128.6702079051704
 20
79.094127605790106
 30
0.0
 11
129.0471920321545
 21
77.79055617721869
 31
0.0
  0
LINE
  5
494
  8
0
 10
129.0471920321545
 20
77.79055617721869
 30
0.0
 11
128.28429520675769
 21
77.79055617721869
 31
0.0
  0
LINE
  5
495
  8
0
 10
122.9789211593534
 20
78.197611153065651
 30
0.0
 11
124.67832592125821
 21
78.197611153065651
 31
0.0
  0
LINE
  5
496
  8
0
 10
124.67832592125821
 20
78.197611153065651
 30
0.0
 11
125.4461830641153
 21
78.236301629256104
 31
0.0
  0
LINE
  5
497
  8
0
 10
125.4461830641153
 20
78.236301629256104
 30
0.0
 11
125.85888147681371
 21
78.368246073700547
 31
0.0
  0
LINE
  5
498
  8
0
 10
125.85888147681371
 20
78.368246073700547
 30
0.0
 11
126.2671156037979
 21
78.751182581637053
 31
0.0
  0
LINE
  5
499
  8
0
 10
126.2671156037979
 20
78.751182581637053
 30
0.0
 11
126.40749258792491
 21
79.338484168938635
 31
0.0
  0
LINE
  5
49A
  8
0
 10
126.40749258792491
 20
79.338484168938635
 30
0.0
 11
126.2636433815757
 21
79.901480200684688
 31
0.0
  0
LINE
  5
49B
  8
0
 10
126.2636433815757
 20
79.901480200684688
 30
0.0
 11
125.8201910006233
 21
80.226380994335486
 31
0.0
  0
LINE
  5
49C
  8
0
 10
125.8201910006233
 20
80.226380994335486
 30
0.0
 11
126.1654290958614
 21
80.543841311795774
 31
0.0
  0
LINE
  5
49D
  8
0
 10
126.1654290958614
 20
80.543841311795774
 30
0.0
 11
126.28050846094069
 21
80.996222264176751
 31
0.0
  0
LINE
  5
49E
  8
0
 10
126.28050846094069
 20
80.996222264176751
 30
0.0
 11
126.1267386196709
 21
81.556242105446586
 31
0.0
  0
LINE
  5
49F
  8
0
 10
126.1267386196709
 20
81.556242105446586
 30
0.0
 11
125.6842783022106
 21
81.896023851478347
 31
0.0
  0
LINE
  5
4A0
  8
0
 10
125.6842783022106
 20
81.896023851478347
 30
0.0
 11
125.2889410006233
 21
81.981341311795802
 31
0.0
  0
LINE
  5
4A1
  8
0
 10
125.2889410006233
 20
81.981341311795802
 30
0.0
 11
124.5553100482423
 21
82.007134962589433
 31
0.0
  0
LINE
  5
4A2
  8
0
 10
124.5553100482423
 20
82.007134962589433
 30
0.0
 11
122.9789211593534
 21
82.007134962589475
 31
0.0
  0
LINE
  5
4A3
  8
0
 10
122.9789211593534
 20
82.007134962589475
 30
0.0
 11
122.9789211593534
 21
78.197611153065651
 31
0.0
  0
LINE
  5
4A4
  8
0
 10
124.18527036570271
 20
79.086500041954523
 30
0.0
 11
124.18527036570271
 21
79.784912740367218
 31
0.0
  0
LINE
  5
4A5
  8
0
 10
124.18527036570271
 20
79.784912740367218
 30
0.0
 11
124.73388147681371
 21
79.784912740367218
 31
0.0
  0
LINE
  5
4A6
  8
0
 10
124.73388147681371
 20
79.784912740367218
 30
0.0
 11
125.14310766729
 21
79.705547661002143
 31
0.0
  0
LINE
  5
4A7
  8
0
 10
125.14310766729
 20
79.705547661002143
 30
0.0
 11
125.2646354450677
 21
79.438682581637067
 31
0.0
  0
LINE
  5
4A8
  8
0
 10
125.2646354450677
 20
79.438682581637067
 30
0.0
 11
125.1455878260201
 21
79.168841311795802
 31
0.0
  0
LINE
  5
4A9
  8
0
 10
125.1455878260201
 20
79.168841311795802
 30
0.0
 11
124.7447941752265
 21
79.086500041954523
 31
0.0
  0
LINE
  5
4AA
  8
0
 10
124.7447941752265
 20
79.086500041954523
 30
0.0
 11
124.18527036570271
 21
79.086500041954523
 31
0.0
  0
LINE
  5
4AB
  8
0
 10
124.18527036570271
 20
80.483325438779929
 30
0.0
 11
124.18527036570271
 21
81.118246073700547
 31
0.0
  0
LINE
  5
4AC
  8
0
 10
124.18527036570271
 20
81.118246073700547
 30
0.0
 11
124.519595762528
 21
81.118246073700547
 31
0.0
  0
LINE
  5
4AD
  8
0
 10
124.519595762528
 20
81.118246073700547
 30
0.0
 11
125.0280283022106
 21
81.050785756240217
 31
0.0
  0
LINE
  5
4AE
  8
0
 10
125.0280283022106
 20
81.050785756240217
 30
0.0
 11
125.1376513180836
 21
80.800785756240259
 31
0.0
  0
LINE
  5
4AF
  8
0
 10
125.1376513180836
 20
80.800785756240259
 30
0.0
 11
125.035468778401
 21
80.555746073700547
 31
0.0
  0
LINE
  5
4B0
  8
0
 10
125.035468778401
 20
80.555746073700547
 30
0.0
 11
124.68328623871849
 21
80.483325438779929
 31
0.0
  0
LINE
  5
4B1
  8
0
 10
124.68328623871849
 20
80.483325438779929
 30
0.0
 11
124.18527036570271
 21
80.483325438779929
 31
0.0
  0
ARC
  5
4B2
  8
0
 10
128.83887895339419
 20
78.125004503760195
 30
0.0
 40
9.0000000000000089
 50
179.99999999999969
 51
359.99999999999881
  0
ARC
  5
4B3
  8
0
 10
128.83887895339419
 20
78.125004503760195
 30
0.0
 40
9.0000000000000178
 50
359.99999999999949
 51
179.99999999999969
  0
LINE
  5
4B4
  8
0
 10
182.71387895339441
 20
95.875004503758177
 30
0.0
 11
182.9638789533945
 21
95.875004503758177
 31
0.0
  0
LINE
  5
4B5
  8
0
 10
182.9638789533945
 20
99.875004503758134
 30
0.0
 11
182.71387895339441
 21
99.875004503758134
 31
0.0
  0
LINE
  5
4B6
  8
0
 10
182.9638789533941
 20
99.875004503758134
 30
0.0
 11
182.9638789533941
 21
99.806861317494324
 31
0.0
  0
LINE
  5
4B7
  8
0
 10
182.9638789533941
 20
99.806856156336281
 30
0.0
 11
182.9638789533941
 21
99.607056676392446
 31
0.0
  0
LINE
  5
4B8
  8
0
 10
182.9638789533941
 20
99.607055311327031
 30
0.0
 11
182.9638789533941
 21
99.289219843164858
 31
0.0
  0
LINE
  5
4B9
  8
0
 10
182.9638789533941
 20
99.289218066131255
 30
0.0
 11
182.9638789533941
 21
98.875004503758134
 31
0.0
  0
LINE
  5
4BA
  8
0
 10
182.9638789533941
 20
98.875000917705606
 30
0.0
 11
182.9638789533941
 21
98.392643715809058
 31
0.0
  0
LINE
  5
4BB
  8
0
 10
182.9638789533941
 20
98.392642593963231
 30
0.0
 11
182.9638789533941
 21
97.875004503758177
 31
0.0
  0
LINE
  5
4BC
  8
0
 10
182.9638789533941
 20
97.87500450375812
 30
0.0
 11
182.9638789533941
 21
97.357366413553095
 31
0.0
  0
LINE
  5
4BD
  8
0
 10
182.9638789533941
 20
97.357365291706301
 30
0.0
 11
182.9638789533941
 21
96.875008089809711
 31
0.0
  0
LINE
  5
4BE
  8
0
 10
182.9638789533941
 20
96.875004503758134
 30
0.0
 11
182.9638789533941
 21
96.460790941385071
 31
0.0
  0
LINE
  5
4BF
  8
0
 10
182.9638789533941
 20
96.460789164350459
 30
0.0
 11
182.9638789533941
 21
96.142953696189238
 31
0.0
  0
LINE
  5
4C0
  8
0
 10
182.9638789533941
 20
96.142952331122714
 30
0.0
 11
182.9638789533941
 21
95.943152851180017
 31
0.0
  0
LINE
  5
4C1
  8
0
 10
182.9638789533941
 20
95.943147690019956
 30
0.0
 11
182.9638789533941
 21
95.875004503758134
 31
0.0
  0
LINE
  5
4C2
  8
0
 10
182.71387895339441
 20
38.500004503757673
 30
0.0
 11
182.9638789533943
 21
38.500004503757673
 31
0.0
  0
LINE
  5
4C3
  8
0
 10
182.9638789533943
 20
39.500004503757779
 30
0.0
 11
182.71387895339441
 21
39.500004503757779
 31
0.0
  0
LINE
  5
4C4
  8
0
 10
182.71387895339441
 20
25.12500450375757
 30
0.0
 11
182.9638789533945
 21
25.12500450375757
 31
0.0
  0
LINE
  5
4C5
  8
0
 10
182.9638789533945
 20
27.1250045037578
 30
0.0
 11
182.71387895339441
 21
27.1250045037578
 31
0.0
  0
LINE
  5
4C6
  8
0
 10
182.71387895339441
 20
7.375004503757677
 30
0.0
 11
182.9638789533945
 21
7.375004503757677
 31
0.0
  0
LINE
  5
4C7
  8
0
 10
182.9638789533945
 20
9.3750045037577312
 30
0.0
 11
182.71387895339441
 21
9.3750045037577312
 31
0.0
  0
LINE
  5
4C8
  8
0
 10
182.9638789533941
 20
39.500004503757729
 30
0.0
 11
182.9638789533941
 21
39.482968707191858
 31
0.0
  0
LINE
  5
4C9
  8
0
 10
182.9638789533941
 20
39.482967416902262
 30
0.0
 11
182.9638789533941
 21
39.433017546916489
 31
0.0
  0
LINE
  5
4CA
  8
0
 10
182.9638789533941
 20
39.433017205649961
 30
0.0
 11
182.9638789533941
 21
39.353558338609659
 31
0.0
  0
LINE
  5
4CB
  8
0
 10
182.9638789533941
 20
39.353557894351013
 30
0.0
 11
182.9638789533941
 21
39.250004503757729
 31
0.0
  0
LINE
  5
4CC
  8
0
 10
182.9638789533941
 20
39.2500036072448
 30
0.0
 11
182.9638789533941
 21
39.129414306770492
 31
0.0
  0
LINE
  5
4CD
  8
0
 10
182.9638789533941
 20
39.129414026309
 30
0.0
 11
182.9638789533941
 21
39.000004503757737
 31
0.0
  0
LINE
  5
4CE
  8
0
 10
182.9638789533941
 20
39.000004503757722
 30
0.0
 11
182.9638789533941
 21
38.870594981206459
 31
0.0
  0
LINE
  5
4CF
  8
0
 10
182.9638789533941
 20
38.870594700744967
 30
0.0
 11
182.9638789533941
 21
38.750005400270659
 31
0.0
  0
LINE
  5
4D0
  8
0
 10
182.9638789533941
 20
38.750004503757737
 30
0.0
 11
182.9638789533941
 21
38.646451113164453
 31
0.0
  0
LINE
  5
4D1
  8
0
 10
182.9638789533941
 20
38.646450668905807
 30
0.0
 11
182.9638789533941
 21
38.566991801865512
 31
0.0
  0
LINE
  5
4D2
  8
0
 10
182.9638789533941
 20
38.56699146059897
 30
0.0
 11
182.9638789533941
 21
38.517041590613204
 31
0.0
  0
LINE
  5
4D3
  8
0
 10
182.9638789533941
 20
38.517040300323622
 30
0.0
 11
182.9638789533941
 21
38.500004503757737
 31
0.0
  0
LINE
  5
4D4
  8
0
 10
182.9638789533941
 20
27.125004503757729
 30
0.0
 11
182.9638789533941
 21
27.090931014228559
 31
0.0
  0
LINE
  5
4D5
  8
0
 10
182.9638789533941
 20
27.090930330046799
 30
0.0
 11
182.9638789533941
 21
26.99102990754216
 31
0.0
  0
LINE
  5
4D6
  8
0
 10
182.9638789533941
 20
26.991029551068561
 30
0.0
 11
182.9638789533941
 21
26.832111284944268
 31
0.0
  0
LINE
  5
4D7
  8
0
 10
182.9638789533941
 20
26.832111114296492
 30
0.0
 11
182.9638789533941
 21
26.38382354886026
 31
0.0
  0
LINE
  5
4D8
  8
0
 10
182.9638789533941
 20
26.383823139771209
 30
0.0
 11
182.9638789533941
 21
26.12500450375774
 31
0.0
  0
LINE
  5
4D9
  8
0
 10
182.9638789533941
 20
26.125003539101641
 30
0.0
 11
182.9638789533941
 21
25.866186799530571
 31
0.0
  0
LINE
  5
4DA
  8
0
 10
182.9638789533941
 20
25.86618545865521
 30
0.0
 11
182.9638789533941
 21
25.6250054002704
 31
0.0
  0
LINE
  5
4DB
  8
0
 10
182.9638789533941
 20
25.625004503757729
 30
0.0
 11
182.9638789533941
 21
25.417898745651069
 31
0.0
  0
LINE
  5
4DC
  8
0
 10
182.9638789533941
 20
25.41789772257118
 30
0.0
 11
182.9638789533941
 21
25.258980241980971
 31
0.0
  0
LINE
  5
4DD
  8
0
 10
182.9638789533941
 20
25.258979099973288
 30
0.0
 11
182.9638789533941
 21
25.159079090948161
 31
0.0
  0
LINE
  5
4DE
  8
0
 10
182.9638789533941
 20
25.159078677468671
 30
0.0
 11
182.9638789533941
 21
25.125004503757729
 31
0.0
  0
LINE
  5
4DF
  8
0
 10
182.9638789533941
 20
9.3750045037577348
 30
0.0
 11
182.9638789533941
 21
9.3409305401211071
 31
0.0
  0
LINE
  5
4E0
  8
0
 10
182.9638789533941
 20
9.3409303300468043
 30
0.0
 11
182.9638789533941
 21
9.2410299652753771
 31
0.0
  0
LINE
  5
4E1
  8
0
 10
182.9638789533941
 20
9.2410299075421758
 30
0.0
 11
182.9638789533941
 21
9.0821116180067172
 31
0.0
  0
LINE
  5
4E2
  8
0
 10
182.9638789533941
 20
9.0821112849442844
 30
0.0
 11
182.9638789533941
 21
8.8750045037577419
 31
0.0
  0
LINE
  5
4E3
  8
0
 10
182.9638789533941
 20
8.8750042796296231
 30
0.0
 11
182.9638789533941
 21
8.6338236098184815
 31
0.0
  0
LINE
  5
4E4
  8
0
 10
182.9638789533941
 20
8.6338235488602617
 30
0.0
 11
182.9638789533941
 21
8.3750047449217302
 31
0.0
  0
LINE
  5
4E5
  8
0
 10
182.9638789533941
 20
8.3750045037577276
 30
0.0
 11
182.9638789533941
 21
8.1161854586552078
 31
0.0
  0
LINE
  5
4E6
  8
0
 10
182.9638789533941
 20
8.1161851477145852
 30
0.0
 11
182.9638789533941
 21
7.6678978932189752
 31
0.0
  0
LINE
  5
4E7
  8
0
 10
182.9638789533941
 20
7.6678977225711833
 30
0.0
 11
182.9638789533941
 21
7.5089790999732937
 31
0.0
  0
LINE
  5
4E8
  8
0
 10
182.9638789533941
 20
7.5089787298400781
 30
0.0
 11
182.9638789533941
 21
7.4090786774686643
 31
0.0
  0
LINE
  5
4E9
  8
0
 10
182.9638789533941
 20
7.4090779932866191
 30
0.0
 11
182.9638789533941
 21
7.375004503757733
 31
0.0
  0
LINE
  5
4EA
  8
0
 10
182.71387895339441
 20
10.875004503758079
 30
0.0
 11
182.9638789533945
 21
10.875004503758079
 31
0.0
  0
LINE
  5
4EB
  8
0
 10
182.9638789533945
 20
14.87500450375801
 30
0.0
 11
182.71387895339441
 21
14.87500450375801
 31
0.0
  0
LINE
  5
4EC
  8
0
 10
182.9638789533941
 20
14.87500450375815
 30
0.0
 11
182.9638789533941
 21
14.80685752469925
 31
0.0
  0
LINE
  5
4ED
  8
0
 10
182.9638789533941
 20
14.8068561563363
 30
0.0
 11
182.9638789533941
 21
14.607056051593091
 31
0.0
  0
LINE
  5
4EE
  8
0
 10
182.9638789533941
 20
14.60705531132705
 30
0.0
 11
182.9638789533941
 21
13.392643215844149
 31
0.0
  0
LINE
  5
4EF
  8
0
 10
182.9638789533941
 20
13.39264259396321
 30
0.0
 11
182.9638789533941
 21
12.87500450375817
 31
0.0
  0
LINE
  5
4F0
  8
0
 10
182.9638789533941
 20
12.87500402142973
 30
0.0
 11
182.9638789533941
 21
12.35736641355312
 31
0.0
  0
LINE
  5
4F1
  8
0
 10
182.9638789533941
 20
12.35736629163606
 30
0.0
 11
182.9638789533941
 21
11.87500450375815
 31
0.0
  0
LINE
  5
4F2
  8
0
 10
182.9638789533941
 20
11.87500424275499
 30
0.0
 11
182.9638789533941
 21
11.142953696189281
 31
0.0
  0
LINE
  5
4F3
  8
0
 10
182.9638789533941
 20
11.14295358072231
 30
0.0
 11
182.9638789533941
 21
10.94315285118002
 31
0.0
  0
LINE
  5
4F4
  8
0
 10
182.9638789533941
 20
10.94315243103026
 30
0.0
 11
182.9638789533941
 21
10.87500450375815
 31
0.0
  0
LINE
  5
4F5
  8
0
 10
227.58631581321879
 20
262.34538003555269
 30
0.0
 11
227.58631581321879
 21
154.59538003555809
 31
0.0
  0
LINE
  5
4F6
  8
0
 10
227.58631581321879
 20
154.59538003555809
 30
0.0
 11
268.336315813216
 21
154.59538003555801
 31
0.0
  0
LINE
  5
4F7
  8
0
 10
268.336315813216
 20
154.59538003555801
 30
0.0
 11
268.33631581321617
 21
262.34538003555258
 31
0.0
  0
LINE
  5
4F8
  8
0
 10
268.33631581321617
 20
262.34538003555258
 30
0.0
 11
227.58631581321879
 21
262.34538003555269
 31
0.0
  0
LINE
  5
4F9
  8
0
 10
266.71131581321907
 20
260.72038003555281
 30
0.0
 11
266.7113158132189
 21
156.22038003555281
 31
0.0
1001
ACAD
1000
ASC_BOUNDS
1002
{
1070
    19
1005
55C
1002
}
  0
LINE
  5
4FA
  8
0
 10
266.7113158132189
 20
156.22038003555281
 30
0.0
 11
229.2113158132189
 21
156.22038003555289
 31
0.0
1001
ACAD
1000
ASC_BOUNDS
1002
{
1070
    19
1005
55C
1002
}
  0
LINE
  5
4FB
  8
0
 10
229.2113158132189
 20
156.22038003555289
 30
0.0
 11
229.2113158132191
 21
260.72038003555292
 31
0.0
1001
ACAD
1000
ASC_BOUNDS
1002
{
1070
    19
1005
55C
1002
}
  0
LINE
  5
4FC
  8
0
 10
229.2113158132191
 20
260.72038003555292
 30
0.0
 11
266.71131581321907
 21
260.72038003555281
 31
0.0
1001
ACAD
1000
ASC_BOUNDS
1002
{
1070
    19
1005
55C
1002
}
  0
LINE
  5
4FD
  8
0
 10
268.336315813216
 20
154.59538003555269
 30
0.0
 11
275.08631581321953
 21
154.59538003555269
 31
0.0
  0
LINE
  5
4FE
  8
0
 10
275.08631581321953
 20
154.59538003555269
 30
0.0
 11
275.08631581321953
 21
262.34538003555269
 31
0.0
  0
LINE
  5
4FF
  8
0
 10
275.08631581321953
 20
262.34538003555281
 30
0.0
 11
268.33631581321617
 21
262.34538003555281
 31
0.0
  0
LINE
  5
500
  8
0
 10
249.96131581321919
 20
154.34538003555241
 30
0.0
 11
249.96131581321919
 21
154.59538003555241
 31
0.0
  0
LINE
  5
501
  8
0
 10
245.9613158132191
 20
154.59538003555241
 30
0.0
 11
245.9613158132191
 21
154.34538003555241
 31
0.0
  0
LINE
  5
502
  8
0
 10
249.9613158132191
 20
154.34538003555249
 30
0.0
 11
249.89316883417069
 21
154.34538003555249
 31
0.0
  0
LINE
  5
503
  8
0
 10
249.89316746579721
 20
154.34538003555249
 30
0.0
 11
249.69336736106081
 21
154.34538003555249
 31
0.0
  0
LINE
  5
504
  8
0
 10
249.693366620788
 20
154.34538003555249
 30
0.0
 11
249.37552937559221
 21
154.34538003555249
 31
0.0
  0
LINE
  5
505
  8
0
 10
249.3755290343008
 20
154.34538003555249
 30
0.0
 11
248.47895452531051
 21
154.34538003555249
 31
0.0
  0
LINE
  5
506
  8
0
 10
248.47895390342421
 20
154.34538003555249
 30
0.0
 11
247.9613158132191
 21
154.34538003555249
 31
0.0
  0
LINE
  5
507
  8
0
 10
247.9613153308959
 20
154.34538003555249
 30
0.0
 11
247.44367772301399
 21
154.34538003555249
 31
0.0
  0
LINE
  5
508
  8
0
 10
247.44367760110239
 20
154.34538003555249
 30
0.0
 11
246.96131626147979
 21
154.34538003555249
 31
0.0
  0
LINE
  5
509
  8
0
 10
246.9613158132191
 20
154.34538003555249
 30
0.0
 11
246.547102250846
 21
154.34538003555249
 31
0.0
  0
LINE
  5
50A
  8
0
 10
246.54710158472651
 20
154.34538003555249
 30
0.0
 11
246.22926500565021
 21
154.34538003555249
 31
0.0
  0
LINE
  5
50B
  8
0
 10
246.22926489019
 20
154.34538003555249
 30
0.0
 11
246.02946416064091
 21
154.34538003555249
 31
0.0
  0
LINE
  5
50C
  8
0
 10
246.0294637405012
 20
154.34538003555249
 30
0.0
 11
245.9613158132191
 21
154.34538003555249
 31
0.0
  0
LINE
  5
50D
  8
0
 10
258.08631581321907
 20
154.34538003555241
 30
0.0
 11
258.08631581321907
 21
154.59538003555241
 31
0.0
  0
LINE
  5
50E
  8
0
 10
257.08631581321902
 20
154.59538003555241
 30
0.0
 11
257.08631581321902
 21
154.34538003555241
 31
0.0
  0
LINE
  5
50F
  8
0
 10
245.83631581321899
 20
154.34538003555241
 30
0.0
 11
245.83631581321899
 21
154.59538003555241
 31
0.0
  0
LINE
  5
510
  8
0
 10
243.8363158132191
 20
154.59538003555241
 30
0.0
 11
243.8363158132191
 21
154.34538003555241
 31
0.0
  0
LINE
  5
511
  8
0
 10
228.8363158132189
 20
154.59538003555241
 30
0.0
 11
228.8363158132189
 21
154.34538003555249
 31
0.0
  0
LINE
  5
512
  8
0
 10
258.08631581321902
 20
154.34538003555249
 30
0.0
 11
258.06927872636362
 21
154.34538003555249
 31
0.0
  0
LINE
  5
513
  8
0
 10
258.06927868133789
 20
154.34538003555249
 30
0.0
 11
258.01932885638422
 21
154.34538003555249
 31
0.0
  0
LINE
  5
514
  8
0
 10
258.01932851511123
 20
154.34538003555249
 30
0.0
 11
257.93986920381229
 21
154.34538003555249
 31
0.0
  0
LINE
  5
515
  8
0
 10
257.93986890538469
 20
154.34538003555249
 30
0.0
 11
257.83631581321902
 21
154.34538003555249
 31
0.0
  0
LINE
  5
516
  8
0
 10
257.83631558909548
 20
154.34538003555249
 30
0.0
 11
257.71572561623691
 21
154.34538003555249
 31
0.0
  0
LINE
  5
517
  8
0
 10
257.71572533577029
 20
154.34538003555249
 30
0.0
 11
257.45690629066769
 21
154.34538003555249
 31
0.0
  0
LINE
  5
518
  8
0
 10
257.4569060102113
 20
154.34538003555249
 30
0.0
 11
257.33631581321902
 21
154.34538003555249
 31
0.0
  0
LINE
  5
519
  8
0
 10
257.33631529121902
 20
154.34538003555249
 30
0.0
 11
257.23276242262568
 21
154.34538003555249
 31
0.0
  0
LINE
  5
51A
  8
0
 10
257.23276197837271
 20
154.34538003555249
 30
0.0
 11
257.15330311132681
 21
154.34538003555249
 31
0.0
  0
LINE
  5
51B
  8
0
 10
257.15330277006672
 20
154.34538003555249
 30
0.0
 11
257.10335290007453
 21
154.34538003555249
 31
0.0
  0
LINE
  5
51C
  8
0
 10
257.10335160979429
 20
154.34538003555249
 30
0.0
 11
257.08631581321902
 21
154.34538003555249
 31
0.0
  0
LINE
  5
51D
  8
0
 10
245.83631581321899
 20
154.34538003555249
 30
0.0
 11
245.7023418995428
 21
154.34538003555249
 31
0.0
  0
LINE
  5
51E
  8
0
 10
245.70234121700341
 20
154.34538003555249
 30
0.0
 11
245.5434234829284
 21
154.34538003555249
 31
0.0
  0
LINE
  5
51F
  8
0
 10
245.5434225944056
 20
154.34538003555249
 30
0.0
 11
245.33631685723481
 21
154.34538003555249
 31
0.0
  0
LINE
  5
520
  8
0
 10
245.33631581321899
 20
154.34538003555249
 30
0.0
 11
245.0951354192496
 21
154.34538003555249
 31
0.0
  0
LINE
  5
521
  8
0
 10
245.0951348583215
 20
154.34538003555249
 30
0.0
 11
244.5774967681165
 21
154.34538003555249
 31
0.0
  0
LINE
  5
522
  8
0
 10
244.57749620719849
 20
154.34538003555249
 30
0.0
 11
244.33631581321899
 21
154.34538003555249
 31
0.0
  0
LINE
  5
523
  8
0
 10
244.3363147692138
 20
154.34538003555249
 30
0.0
 11
244.12920903203249
 21
154.34538003555249
 31
0.0
  0
LINE
  5
524
  8
0
 10
244.129208143521
 20
154.34538003555249
 30
0.0
 11
243.9702904094346
 21
154.34538003555249
 31
0.0
  0
LINE
  5
525
  8
0
 10
243.97028972690811
 20
154.34538003555249
 30
0.0
 11
243.87038998692989
 21
154.34538003555249
 31
0.0
  0
LINE
  5
526
  8
0
 10
243.8703874063599
 20
154.34538003555249
 30
0.0
 11
243.83631581321899
 21
154.34538003555249
 31
0.0
  0
LINE
  5
527
  8
0
 10
229.71021208817839
 20
154.34538003555249
 30
0.0
 11
229.57749676811639
 21
154.34538003555249
 31
0.0
  0
LINE
  5
528
  8
0
 10
229.57749620719841
 20
154.34538003555249
 30
0.0
 11
229.33631581321899
 21
154.34538003555249
 31
0.0
  0
LINE
  5
529
  8
0
 10
229.33631476921391
 20
154.34538003555249
 30
0.0
 11
229.12920903203241
 21
154.34538003555249
 31
0.0
  0
LINE
  5
52A
  8
0
 10
229.12920814352111
 20
154.34538003555249
 30
0.0
 11
228.97029040943451
 21
154.34538003555249
 31
0.0
  0
LINE
  5
52B
  8
0
 10
228.97028972690799
 20
154.34538003555249
 30
0.0
 11
228.87038998692989
 21
154.34538003555249
 31
0.0
  0
LINE
  5
52C
  8
0
 10
228.87038740636009
 20
154.34538003555249
 30
0.0
 11
228.8363158132189
 21
154.34538003555249
 31
0.0
  0
LINE
  5
52D
  8
0
 10
233.7113158132193
 20
154.34538003555241
 30
0.0
 11
233.7113158132193
 21
154.59538003555241
 31
0.0
  0
LINE
  5
52E
  8
0
 10
229.71131581321919
 20
154.59538003555261
 30
0.0
 11
229.71131581321919
 21
154.34538003555249
 31
0.0
  0
LINE
  5
52F
  8
0
 10
233.71131581321919
 20
154.34538003555249
 30
0.0
 11
233.6431674657974
 21
154.34538003555249
 31
0.0
  0
LINE
  5
530
  8
0
 10
233.643167285685
 20
154.34538003555249
 30
0.0
 11
233.44336798585991
 21
154.34538003555249
 31
0.0
  0
LINE
  5
531
  8
0
 10
233.44336662078811
 20
154.34538003555249
 30
0.0
 11
232.71131581321919
 21
154.34538003555249
 31
0.0
  0
LINE
  5
532
  8
0
 10
232.7113149167109
 20
154.34538003555249
 30
0.0
 11
232.22895502527521
 21
154.34538003555249
 31
0.0
  0
LINE
  5
533
  8
0
 10
232.2289539034243
 20
154.34538003555249
 30
0.0
 11
231.19367772301419
 21
154.34538003555249
 31
0.0
  0
LINE
  5
534
  8
0
 10
231.1936766011728
 20
154.34538003555249
 30
0.0
 11
230.7113167097362
 21
154.34538003555249
 31
0.0
  0
LINE
  5
535
  8
0
 10
230.71131581321919
 20
154.34538003555249
 30
0.0
 11
229.97926500565029
 21
154.34538003555249
 31
0.0
  0
LINE
  5
536
  8
0
 10
229.9792636405906
 20
154.34538003555249
 30
0.0
 11
229.77946434075969
 21
154.34538003555249
 31
0.0
  0
LINE
  5
537
  8
0
 10
229.77946416064111
 20
154.34538003555249
 30
0.0
 11
229.7113158132193
 21
154.34538003555249
 31
0.0
  0
INSERT
  5
553
  8
0
  6
CONTINUOUS
  2
*X3
 10
0.0
 20
0.0
 30
0.0
1001
GRADIENTCOLOR1ACI
1070
     5
1001
GRADIENTCOLOR2ACI
1070
     2
1001
ACAD
1000
HATCH
1002
{
1070
    19
1000
NET
1040
12.0
1040
0.0
1000
ASC_BOUNDS
1070
     4
1070
     1
1070
     4
1005
3D4
1005
3D5
1005
3C8
1005
3D3
1070
     1
1070
     4
1005
3CE
1005
3D5
1005
3CC
1005
3D3
1070
     1
1070
     4
1005
3C6
1005
3D5
1005
3C4
1005
3D3
1070
     1
1070
     4
1005
3C1
1005
3D5
1005
3D2
1005
3D3
1000
ASC_SEEDPOINT
1011
324.9418103995219
1021
0.0
1031
0.0
1021
33.88222889685585
1031
0.0
1000
R14_HATCH_DATA
1000
553
1011
1.0
1021
0.0
1031
0.0
1021
0.0
1031
0.0
1011
0.0
1021
0.0
1031
0.0
1021
1.0
1031
0.0
1011
0.0
1021
0.0
1031
0.0
1021
0.0
1031
1.0
1040
0.0
1010
0.0
1020
0.0
1030
1.0
1000
NET
1070
     0
1070
     1
1071
        4
1071
        7
1070
     0
1070
     1
1071
        4
1040
326.86010878310418
1040
42.50000450375741
1040
319.61010878310532
1040
42.500004503757332
1040
319.61010878310572
1040
4.0000045037567658
1040
326.86010878310401
1040
4.0000045037568412
1071
        4
1005
3D3
1005
3D2
1005
3D5
1005
3C1
1071
        7
1070
     0
1070
     1
1071
        4
1040
362.85733075427839
1040
42.500004503757772
1040
344.86010878310498
1040
42.50000450375758
1040
344.86010878310498
1040
4.0000045037570287
1040
362.85733075427828
1040
4.0000045037572143
1071
        4
1005
3D3
1005
3C4
1005
3D5
1005
3C6
1071
        7
1070
     0
1070
     1
1071
        4
1040
380.85259438385151
1040
4.000004503757399
1040
398.86910843777639
1040
4.0000045037575802
1040
398.86910843777639
1040
42.500004503758127
1040
380.85259438385151
1040
42.500004503757957
1071
        4
1005
3D3
1005
3CC
1005
3D5
1005
3CE
1071
        7
1070
     0
1070
     1
1071
        4
1040
424.11010878310469
1040
42.50000450375839
1040
416.85212409987412
1040
42.500004503758319
1040
416.85212409987412
1040
4.0000045037577676
1040
424.11010878310509
1040
4.0000045037578458
1071
        4
1005
3D3
1005
3C8
1005
3D5
1005
3D4
1070
     1
1070
     1
1040
0.0
1040
12.0
1070
     0
1070
     2
1040
0.0
1040
-34.670789809043299
1040
0.0
1040
0.0
1040
1.5
1070
     0
1040
1.5707963267948959
1040
-34.670789809043299
1040
0.0
1040
-1.5
1040
0.0000000000000001
1070
     0
1040
0.1154694056001765
1071
        4
1040
324.9418103995219
1040
33.88222889685585
1040
0.0
1040
356.1335970277521
1040
30.071738452061371
1040
0.0
1040
386.40118224011962
1040
22.21981898986326
1040
0.0
1040
420.71214633382192
1040
22.681696135081548
1040
0.0
1002
}
  0
INSERT
  5
55C
  8
0
  6
CONTINUOUS
  2
*X4
 10
0.0
 20
0.0
 30
0.0
1001
GRADIENTCOLOR1ACI
1070
     5
1001
GRADIENTCOLOR2ACI
1070
     2
1001
ACAD
1000
HATCH
1002
{
1070
    19
1000
ANSI31
1040
12.0
1040
2.3561944901923439
1000
ASC_BOUNDS
1070
     1
1070
     1
1070
     4
1005
4F9
1005
4FA
1005
4FB
1005
4FC
1000
ASC_SEEDPOINT
1011
238.51183249573501
1021
0.0
1031
0.0
1021
230.1396392873952
1031
0.0
1000
R14_HATCH_DATA
1000
55C
1011
1.0
1021
0.0
1031
0.0
1021
0.0
1031
0.0
1011
0.0
1021
0.0
1031
0.0
1021
1.0
1031
0.0
1011
0.0
1021
0.0
1031
0.0
1021
0.0
1031
1.0
1040
0.0
1010
0.0
1020
0.0
1030
1.0
1000
ANSI31
1070
     0
1070
     1
1071
        1
1071
        7
1070
     0
1070
     1
1071
        4
1040
266.71131581321907
1040
260.72038003555281
1040
229.2113158132191
1040
260.72038003555292
1040
229.2113158132189
1040
156.22038003555289
1040
266.7113158132189
1040
156.22038003555281
1071
        4
1005
4FC
1005
4FB
1005
4FA
1005
4F9
1070
     1
1070
     1
1040
2.3561944901923439
1040
12.0
1070
     0
1070
     1
1040
3.1415926535897931
1040
0.0
1040
0.0
1040
-0.0000000000000002
1040
-1.5
1070
     0
1040
0.1857648565245144
1071
        1
1040
238.51183249573501
1040
230.1396392873952
1040
0.0
1002
}
  0
ENDSEC
  0
EOF
