  0
SECTION
  2
HEADER
  9
$ACADVER
  1
AC1009
  9
$INSBASE
 10
0.0
 20
0.0
 30
0.0
  9
$EXTMIN
 10
30.676068352911901
 20
9.7669693455616198
 30
-0.0000000349181948
  9
$EXTMAX
 10
544.24120355949844
 20
317.70624520493902
 30
0.0000000814935746
  9
$LIMMIN
 10
0.0
 20
0.0
  9
$LIMMAX
 10
12.0
 20
9.0
  9
$ORTHOMODE
 70
     1
  9
$REGENMODE
 70
     1
  9
$FILLMODE
 70
     1
  9
$QTEXTMODE
 70
     0
  9
$MIRRTEXT
 70
     0
  9
$DRAGMODE
 70
     2
  9
$LTSCALE
 40
48.0
  9
$OSMODE
 70
    37
  9
$ATTMODE
 70
     1
  9
$TEXTSIZE
 40
0.2
  9
$TRACEWID
 40
0.05
  9
$TEXTSTYLE
  7
ROMANS
  9
$CLAYER
  8
0
  9
$CELTYPE
  6
BYLAYER
  9
$CECOLOR
 62
   256
  9
$DIMSCALE
 40
1.0
  9
$DIMASZ
 40
0.09375
  9
$DIMEXO
 40
0.0625
  9
$DIMDLI
 40
0.375
  9
$DIMRND
 40
0.0
  9
$DIMDLE
 40
0.0
  9
$DIMEXE
 40
0.03125
  9
$DIMTP
 40
0.0
  9
$DIMTM
 40
0.0
  9
$DIMTXT
 40
0.09375
  9
$DIMCEN
 40
0.09375
  9
$DIMTSZ
 40
0.0
  9
$DIMTOL
 70
     0
  9
$DIMLIM
 70
     0
  9
$DIMTIH
 70
     0
  9
$DIMTOH
 70
     0
  9
$DIMSE1
 70
     0
  9
$DIMSE2
 70
     0
  9
$DIMTAD
 70
     0
  9
$DIMZIN
 70
     0
  9
$DIMBLK
  1

  9
$DIMASO
 70
     1
  9
$DIMSHO
 70
     1
  9
$DIMPOST
  1

  9
$DIMAPOST
  1

  9
$DIMALT
 70
     0
  9
$DIMALTD
 70
     2
  9
$DIMALTF
 40
25.399999999999999
  9
$DIMLFAC
 40
1.0
  9
$DIMTOFL
 70
     0
  9
$DIMTVP
 40
0.0
  9
$DIMTIX
 70
     0
  9
$DIMSOXD
 70
     0
  9
$DIMSAH
 70
     0
  9
$DIMBLK1
  1

  9
$DIMBLK2
  1

  9
$DIMSTYLE
  2
BAC
  9
$DIMCLRD
 70
     0
  9
$DIMCLRE
 70
     6
  9
$DIMCLRT
 70
     0
  9
$DIMTFAC
 40
1.0
  9
$DIMGAP
 40
0.0625
  9
$LUNITS
 70
     5
  9
$LUPREC
 70
     6
  9
$SKETCHINC
 40
0.1
  9
$FILLETRAD
 40
0.0
  9
$AUNITS
 70
     0
  9
$AUPREC
 70
     0
  9
$MENU
  1
.
  9
$ELEVATION
 40
0.0
  9
$PELEVATION
 40
0.0
  9
$THICKNESS
 40
0.0
  9
$LIMCHECK
 70
     0
  9
$BLIPMODE
 70
     0
  9
$CHAMFERA
 40
0.5
  9
$CHAMFERB
 40
0.5
  9
$SKPOLY
 70
     0
  9
$TDCREATE
 40
2456825.7040578821
  9
$TDUPDATE
 40
2456825.7081777658
  9
$TDINDWG
 40
0.0041218981
  9
$TDUSRTIMER
 40
0.0041214236
  9
$USRTIMER
 70
     1
  9
$ANGBASE
 50
0.0
  9
$ANGDIR
 70
     0
  9
$PDMODE
 70
     0
  9
$PDSIZE
 40
0.0
  9
$PLINEWID
 40
0.0
  9
$COORDS
 70
     1
  9
$SPLFRAME
 70
     0
  9
$SPLINETYPE
 70
     6
  9
$SPLINESEGS
 70
     8
  9
$ATTDIA
 70
     0
  9
$ATTREQ
 70
     1
  9
$HANDLING
 70
     1
  9
$HANDSEED
  5
10AF
  9
$SURFTAB1
 70
     6
  9
$SURFTAB2
 70
     6
  9
$SURFTYPE
 70
     6
  9
$SURFU
 70
     6
  9
$SURFV
 70
     6
  9
$UCSNAME
  2

  9
$UCSORG
 10
0.0
 20
0.0
 30
0.0
  9
$UCSXDIR
 10
1.0
 20
0.0
 30
0.0
  9
$UCSYDIR
 10
0.0
 20
1.0
 30
0.0
  9
$PUCSNAME
  2

  9
$PUCSORG
 10
0.0
 20
0.0
 30
0.0
  9
$PUCSXDIR
 10
1.0
 20
0.0
 30
0.0
  9
$PUCSYDIR
 10
0.0
 20
1.0
 30
0.0
  9
$USERI1
 70
     0
  9
$USERI2
 70
     0
  9
$USERI3
 70
     0
  9
$USERI4
 70
     0
  9
$USERI5
 70
     0
  9
$USERR1
 40
0.0
  9
$USERR2
 40
0.0
  9
$USERR3
 40
0.0
  9
$USERR4
 40
0.0
  9
$USERR5
 40
0.0
  9
$WORLDVIEW
 70
     1
  9
$SHADEDGE
 70
     3
  9
$SHADEDIF
 70
    70
  9
$TILEMODE
 70
     1
  9
$MAXACTVP
 70
    48
  9
$PLIMCHECK
 70
     0
  9
$PEXTMIN
 10
1.0000000000000000E+020
 20
1.0000000000000000E+020
 30
1.0000000000000000E+020
  9
$PEXTMAX
 10
-1.0000000000000000E+020
 20
-1.0000000000000000E+020
 30
-1.0000000000000000E+020
  9
$PLIMMIN
 10
0.0
 20
0.0
  9
$PLIMMAX
 10
12.0
 20
9.0
  9
$UNITMODE
 70
     0
  9
$VISRETAIN
 70
     1
  9
$PLINEGEN
 70
     0
  9
$PSLTSCALE
 70
     1
  0
ENDSEC
  0
SECTION
  2
TABLES
  0
TABLE
  2
VPORT
 70
     1
  0
VPORT
  2
*ACTIVE
 70
     0
 10
0.0
 20
0.0
 11
1.0
 21
1.0
 12
287.45863595620511
 22
163.73660727525029
 13
0.0
 23
0.0
 14
0.5
 24
0.5
 15
0.5
 25
0.5
 16
0.0
 26
0.0
 36
1.0
 17
0.0
 27
0.0
 37
0.0
 40
309.98765241720042
 41
1.7702552719200879
 42
50.0
 43
0.0
 44
0.0
 50
0.0
 51
0.0
 71
     0
 72
   100
 73
     1
 74
     1
 75
     0
 76
     0
 77
     0
 78
     0
  0
ENDTAB
  0
TABLE
  2
LTYPE
 70
    20
  0
LTYPE
  2
CONTINUOUS
 70
     0
  3
Solid line
 72
    65
 73
     0
 40
0.0
  0
LTYPE
  2
CENTER
 70
     0
  3
Center ____ _ ____ _ ____ _ ____ _ ____ _ ____
 72
    65
 73
     4
 40
2.0
 49
1.25
 49
-0.25
 49
0.25
 49
-0.25
  0
LTYPE
  2
CENTER2
 70
     0
  3
Center (.5x) ___ _ ___ _ ___ _ ___ _ ___ _ ___
 72
    65
 73
     4
 40
1.125
 49
0.75
 49
-0.125
 49
0.125
 49
-0.125
  0
LTYPE
  2
HIDDEN
 70
     0
  3
Hidden __ __ __ __ __ __ __ __ __ __ __ __ __ _
 72
    65
 73
     2
 40
0.375
 49
0.25
 49
-0.125
  0
LTYPE
  2
HIDDEN2
 70
     0
  3
Hidden (.5x) _ _ _ _ _ _ _ _ _ _ _ _ _ _ _ _ _
 72
    65
 73
     2
 40
0.1875
 49
0.125
 49
-0.0625
  0
LTYPE
  2
PHANTOM2
 70
     0
  3
Phantom (.5x) ___ _ _ ___ _ _ ___ _ _ ___ _ _
 72
    65
 73
     6
 40
1.25
 49
0.625
 49
-0.125
 49
0.125
 49
-0.125
 49
0.125
 49
-0.125
  0
LTYPE
  2
AMCONSTR
 70
     0
  3
_______________________
 72
    65
 73
     2
 40
9999.0
 49
9999.0
 49
0.0
  0
LTYPE
  2
AMZIGZAG2
 70
     0
  3
/\/-/\/-/\/-/\/-/\/-/\/
 72
    65
 73
     2
 40
0.4401
 49
0.0001
 49
-0.4400000000000001
  0
LTYPE
  2
ACANSTGB
 70
     0
  3
__ . . __ . .
 72
    65
 73
     6
 40
0.35433070866
 49
0.15748031496
 49
-0.03937007874
 49
0.03937007874
 49
-0.03937007874
 49
0.03937007874
 49
-0.03937007874
  0
LTYPE
  2
ACANSTGL
 70
     0
  3
_ _ _ _ _
 72
    65
 73
     2
 40
0.11811023622
 49
0.07874015748
 49
-0.03937007874
  0
ENDTAB
  0
TABLE
  2
LAYER
 70
     8
  0
LAYER
  2
0
 70
     0
 62
     7
  6
CONTINUOUS
  0
ENDTAB
  0
TABLE
  2
STYLE
 70
    11
  0
STYLE
  2
STANDARD
 70
     0
 40
0.0
 41
1.0
 50
0.0
 71
     0
 42
0.2
  3
txt
  4

  0
STYLE
  2
ROMANS
 70
     0
 40
0.0
 41
0.75
 50
0.0
 71
     0
 42
0.2
  3
romans.shx
  4

  0
STYLE
  2

 70
     1
 40
0.0
 41
1.0
 50
0.0
 71
     0
 42
0.2
  3
genltshp.shx
  4

  0
STYLE
  2
ACANSGDT
 70
     0
 40
0.0
 41
1.0
 50
0.0
 71
     0
 42
0.2
  3
amgdt.shx
  4

  0
ENDTAB
  0
TABLE
  2
VIEW
 70
     0
  0
ENDTAB
  0
TABLE
  2
UCS
 70
     0
  0
ENDTAB
  0
TABLE
  2
APPID
 70
    15
  0
APPID
  2
ACAD
 70
     0
  0
APPID
  2
ACAD_MLEADERVER
 70
     0
  0
APPID
  2
ACAD_DSTYLE_DIMJAG
 70
     0
  0
APPID
  2
ACAD_DSTYLE_DIMTALN
 70
     0
  0
APPID
  2
ACAD_PSEXT
 70
     0
  0
APPID
  2
ACADANNOPO
 70
     0
  0
APPID
  2
MCAD_NO_VIS
 70
     0
  0
APPID
  2
ACAD_TEMP_GRAPHIC
 70
     0
  0
APPID
  2
ACATTRIBSERVICES
 70
     0
  0
APPID
  2
DESIGNERASSEMBLIES
 70
     0
  0
APPID
  2
ACAD_DSTYLE_DIMBREAK
 70
     0
  0
APPID
  2
ACAD_NAV_VCDISPLAY
 70
     0
  0
APPID
  2
ACAD_EXEMPT_FROM_CAD_STANDARDS
 70
     0
  0
APPID
  2
GRADIENTCOLOR1ACI
 70
     0
  0
APPID
  2
GRADIENTCOLOR2ACI
 70
     0
  0
ENDTAB
  0
TABLE
  2
DIMSTYLE
 70
    14
  0
DIMSTYLE
  2
BAC
 70
     0
  3

  4

  5

  6

  7

 40
1.0
 41
0.09375
 42
0.0625
 43
0.375
 44
0.03125
 45
0.0
 46
0.0
 47
0.0
 48
0.0
140
0.09375
141
0.09375
142
0.0
143
25.399999999999999
144
1.0
145
0.0
146
1.0
147
0.0625
 71
     0
 72
     0
 73
     0
 74
     0
 75
     0
 76
     0
 77
     0
 78
     0
170
     0
171
     2
172
     0
173
     0
174
     0
175
     0
176
     0
177
     6
178
     0
  0
DIMSTYLE
  2
AM_ANSI
 70
     0
  3

  4
mm
  5

  6

  7

 40
1.0
 41
0.12
 42
0.05
 43
0.5
 44
0.1
 45
0.0
 46
0.0
 47
0.1
 48
0.1
140
0.12
141
0.0
142
0.0
143
25.399999999999999
144
1.0
145
0.0
146
0.71
147
0.06
 71
     0
 72
     0
 73
     1
 74
     1
 75
     0
 76
     0
 77
     0
 78
     7
170
     0
171
     2
172
     0
173
     0
174
     0
175
     0
176
   256
177
   256
178
     2
  0
DIMSTYLE
  2
AM_ANSI$3
 70
     0
  3

  4
mm
  5

  6

  7

 40
1.0
 41
0.12
 42
0.05
 43
0.5
 44
0.1
 45
0.0
 46
0.0
 47
0.1
 48
0.1
140
0.12
141
0.0
142
0.0
143
25.399999999999999
144
1.0
145
0.0
146
0.71
147
0.06
 71
     0
 72
     0
 73
     1
 74
     1
 75
     0
 76
     0
 77
     0
 78
     7
170
     0
171
     2
172
     0
173
     0
174
     0
175
     0
176
   256
177
   256
178
     2
  0
DIMSTYLE
  2
AM_ANSI$4
 70
     0
  3

  4
mm
  5

  6

  7

 40
1.0
 41
0.12
 42
0.05
 43
0.5
 44
0.1
 45
0.0
 46
0.0
 47
0.1
 48
0.1
140
0.12
141
0.0
142
0.0
143
25.399999999999999
144
1.0
145
0.0
146
0.71
147
0.06
 71
     0
 72
     0
 73
     1
 74
     1
 75
     0
 76
     0
 77
     0
 78
     7
170
     0
171
     2
172
     0
173
     0
174
     0
175
     0
176
   256
177
   256
178
     2
  0
DIMSTYLE
  2
AM_ANSI$7
 70
     0
  3

  4
mm
  5

  6

  7

 40
1.0
 41
0.12
 42
0.05
 43
0.5
 44
0.1
 45
0.0
 46
0.0
 47
0.1
 48
0.1
140
0.12
141
0.0
142
0.0
143
25.399999999999999
144
1.0
145
0.0
146
0.71
147
0.06
 71
     0
 72
     0
 73
     1
 74
     1
 75
     0
 76
     0
 77
     0
 78
     7
170
     0
171
     2
172
     0
173
     0
174
     0
175
     0
176
   256
177
   256
178
     2
  0
DIMSTYLE
  2
AM_ANSI$SF
 70
     0
  3

  4
mm
  5

  6

  7

 40
1.0
 41
0.12
 42
0.05
 43
0.5
 44
0.1
 45
0.0
 46
0.0
 47
0.1
 48
0.1
140
0.12
141
0.0
142
0.0
143
25.399999999999999
144
1.0
145
0.0
146
0.71
147
0.06
 71
     0
 72
     0
 73
     1
 74
     1
 75
     1
 76
     1
 77
     0
 78
     7
170
     0
171
     2
172
     0
173
     0
174
     0
175
     0
176
   256
177
   256
178
     2
  0
DIMSTYLE
  2
AM_ANSI$SH
 70
     0
  3

  4
mm
  5

  6
GENAXEH
  7

 40
1.0
 41
0.12
 42
0.05
 43
0.5
 44
0.1
 45
0.0
 46
0.0
 47
0.1
 48
0.1
140
0.12
141
0.0
142
0.0
143
25.399999999999999
144
1.0
145
0.0
146
0.71
147
0.06
 71
     0
 72
     0
 73
     1
 74
     1
 75
     1
 76
     1
 77
     0
 78
     7
170
     0
171
     2
172
     0
173
     1
174
     0
175
     0
176
   256
177
   256
178
     2
  0
DIMSTYLE
  2
STANDARD
 70
     0
  3

  4

  5

  6

  7

 40
1.0
 41
0.18
 42
0.0625
 43
0.38
 44
0.18
 45
0.0
 46
0.0
 47
0.0
 48
0.0
140
0.18
141
0.09
142
0.0
143
25.399999999999999
144
1.0
145
0.0
146
1.0
147
0.09
 71
     0
 72
     0
 73
     1
 74
     1
 75
     0
 76
     0
 77
     0
 78
     0
170
     0
171
     2
172
     0
173
     0
174
     0
175
     0
176
     0
177
     0
178
     0
  0
ENDTAB
  0
ENDSEC
  0
SECTION
  2
BLOCKS
  0
BLOCK
  8
0
  2
$MODEL_SPACE
 70
     0
 10
0.0
 20
0.0
 30
0.0
  3
$MODEL_SPACE
  1

  0
ENDBLK
  5
1A
  8
0
  0
BLOCK
 67
     1
  8
0
  2
$PAPER_SPACE
 70
     0
 10
0.0
 20
0.0
 30
0.0
  3
$PAPER_SPACE
  1

  0
ENDBLK
  5
17
 67
     1
  8
0
  0
BLOCK
  8
0
  2
*U0
 70
     1
 10
0.0
 20
0.0
 30
0.0
  3
*U0
  1

  0
ENDBLK
  5
17A
  8
0
  0
BLOCK
  8
0
  2
GENAXEH
 70
     0
 10
0.0
 20
0.0
 30
0.0
  3
GENAXEH
  1

  0
LINE
  5
1AD
  8
0
 10
-1.0
 20
0.0
 30
0.0
 11
1.0
 21
0.0
 31
0.0
  0
ENDBLK
  5
1AF
  8
0
  0
BLOCK
  8
0
  2
*X4
 70
     1
 10
0.0
 20
0.0
 30
0.0
  3
*X4
  1

  0
LINE
  5
AA1
  8
0
 62
     0
 10
320.7917981022174
 20
218.55910981038551
 30
0.0
 11
320.7917981022174
 21
359.43410981038539
 31
0.0
  0
LINE
  5
AA2
  8
0
 62
     0
 10
320.6755994339228
 20
218.63410981039431
 30
0.0
 11
320.8005994339228
 21
218.63410981039431
 31
0.0
  0
LINE
  5
AA3
  8
0
 62
     0
 10
320.6755994339228
 20
218.7521098103943
 30
0.0
 11
320.8005994339228
 21
218.7521098103943
 31
0.0
  0
LINE
  5
AA4
  8
0
 62
     0
 10
320.6755994339228
 20
218.8701098103943
 30
0.0
 11
320.8005994339228
 21
218.8701098103943
 31
0.0
  0
LINE
  5
AA5
  8
0
 62
     0
 10
320.6755994339228
 20
218.98810981039429
 30
0.0
 11
320.8005994339228
 21
218.98810981039429
 31
0.0
  0
LINE
  5
AA6
  8
0
 62
     0
 10
320.6755994339228
 20
219.1061098103944
 30
0.0
 11
320.8005994339228
 21
219.1061098103944
 31
0.0
  0
LINE
  5
AA7
  8
0
 62
     0
 10
320.6755994339228
 20
219.22410981039431
 30
0.0
 11
320.8005994339228
 21
219.22410981039431
 31
0.0
  0
LINE
  5
AA8
  8
0
 62
     0
 10
320.6755994339228
 20
219.34210981039431
 30
0.0
 11
320.8005994339228
 21
219.34210981039431
 31
0.0
  0
LINE
  5
AA9
  8
0
 62
     0
 10
320.6755994339228
 20
219.4601098103943
 30
0.0
 11
320.8005994339228
 21
219.4601098103943
 31
0.0
  0
LINE
  5
AAA
  8
0
 62
     0
 10
320.6755994339228
 20
219.5781098103943
 30
0.0
 11
320.8005994339228
 21
219.5781098103943
 31
0.0
  0
LINE
  5
AAB
  8
0
 62
     0
 10
320.6755994339228
 20
219.69610981039429
 30
0.0
 11
320.8005994339228
 21
219.69610981039429
 31
0.0
  0
LINE
  5
AAC
  8
0
 62
     0
 10
320.6755994339228
 20
219.81410981039431
 30
0.0
 11
320.8005994339228
 21
219.81410981039431
 31
0.0
  0
LINE
  5
AAD
  8
0
 62
     0
 10
320.6755994339228
 20
219.93210981039431
 30
0.0
 11
320.8005994339228
 21
219.93210981039431
 31
0.0
  0
LINE
  5
AAE
  8
0
 62
     0
 10
320.6755994339228
 20
220.0501098103943
 30
0.0
 11
320.8005994339228
 21
220.0501098103943
 31
0.0
  0
LINE
  5
AAF
  8
0
 62
     0
 10
320.6755994339228
 20
220.1681098103943
 30
0.0
 11
320.8005994339228
 21
220.1681098103943
 31
0.0
  0
LINE
  5
AB0
  8
0
 62
     0
 10
320.6755994339228
 20
220.28610981039429
 30
0.0
 11
320.8005994339228
 21
220.28610981039429
 31
0.0
  0
LINE
  5
AB1
  8
0
 62
     0
 10
320.6755994339228
 20
220.40410981039429
 30
0.0
 11
320.8005994339228
 21
220.40410981039429
 31
0.0
  0
LINE
  5
AB2
  8
0
 62
     0
 10
320.6755994339228
 20
220.52210981039431
 30
0.0
 11
320.8005994339228
 21
220.52210981039431
 31
0.0
  0
LINE
  5
AB3
  8
0
 62
     0
 10
320.6755994339228
 20
220.64010981039431
 30
0.0
 11
320.8005994339228
 21
220.64010981039431
 31
0.0
  0
LINE
  5
AB4
  8
0
 62
     0
 10
320.6755994339228
 20
220.7581098103943
 30
0.0
 11
320.8005994339228
 21
220.7581098103943
 31
0.0
  0
LINE
  5
AB5
  8
0
 62
     0
 10
320.6755994339228
 20
220.8761098103943
 30
0.0
 11
320.8005994339228
 21
220.8761098103943
 31
0.0
  0
LINE
  5
AB6
  8
0
 62
     0
 10
320.6755994339228
 20
220.99410981039429
 30
0.0
 11
320.8005994339228
 21
220.99410981039429
 31
0.0
  0
LINE
  5
AB7
  8
0
 62
     0
 10
320.6755994339228
 20
221.11210981039429
 30
0.0
 11
320.8005994339228
 21
221.11210981039429
 31
0.0
  0
LINE
  5
AB8
  8
0
 62
     0
 10
320.6755994339228
 20
221.23010981039431
 30
0.0
 11
320.8005994339228
 21
221.23010981039431
 31
0.0
  0
LINE
  5
AB9
  8
0
 62
     0
 10
320.6755994339228
 20
221.34810981039431
 30
0.0
 11
320.8005994339228
 21
221.34810981039431
 31
0.0
  0
LINE
  5
ABA
  8
0
 62
     0
 10
320.6755994339228
 20
221.4661098103943
 30
0.0
 11
320.8005994339228
 21
221.4661098103943
 31
0.0
  0
LINE
  5
ABB
  8
0
 62
     0
 10
320.6755994339228
 20
221.5841098103943
 30
0.0
 11
320.8005994339228
 21
221.5841098103943
 31
0.0
  0
LINE
  5
ABC
  8
0
 62
     0
 10
320.6755994339228
 20
221.70210981039429
 30
0.0
 11
320.8005994339228
 21
221.70210981039429
 31
0.0
  0
LINE
  5
ABD
  8
0
 62
     0
 10
320.6755994339228
 20
221.82010981039431
 30
0.0
 11
320.8005994339228
 21
221.82010981039431
 31
0.0
  0
LINE
  5
ABE
  8
0
 62
     0
 10
320.6755994339228
 20
221.93810981039431
 30
0.0
 11
320.8005994339228
 21
221.93810981039431
 31
0.0
  0
LINE
  5
ABF
  8
0
 62
     0
 10
320.6755994339228
 20
222.0561098103943
 30
0.0
 11
320.8005994339228
 21
222.0561098103943
 31
0.0
  0
LINE
  5
AC0
  8
0
 62
     0
 10
320.6755994339228
 20
222.1741098103943
 30
0.0
 11
320.8005994339228
 21
222.1741098103943
 31
0.0
  0
LINE
  5
AC1
  8
0
 62
     0
 10
320.6755994339228
 20
222.29210981039429
 30
0.0
 11
320.8005994339228
 21
222.29210981039429
 31
0.0
  0
LINE
  5
AC2
  8
0
 62
     0
 10
320.6755994339228
 20
222.41010981039429
 30
0.0
 11
320.8005994339228
 21
222.41010981039429
 31
0.0
  0
LINE
  5
AC3
  8
0
 62
     0
 10
320.6755994339228
 20
222.52810981039431
 30
0.0
 11
320.8005994339228
 21
222.52810981039431
 31
0.0
  0
LINE
  5
AC4
  8
0
 62
     0
 10
320.6755994339228
 20
222.64610981039431
 30
0.0
 11
320.8005994339228
 21
222.64610981039431
 31
0.0
  0
LINE
  5
AC5
  8
0
 62
     0
 10
320.6755994339228
 20
222.7641098103943
 30
0.0
 11
320.8005994339228
 21
222.7641098103943
 31
0.0
  0
LINE
  5
AC6
  8
0
 62
     0
 10
320.6755994339228
 20
222.8821098103943
 30
0.0
 11
320.8005994339228
 21
222.8821098103943
 31
0.0
  0
LINE
  5
AC7
  8
0
 62
     0
 10
320.6755994339228
 20
223.00010981039429
 30
0.0
 11
320.8005994339228
 21
223.00010981039429
 31
0.0
  0
LINE
  5
AC8
  8
0
 62
     0
 10
320.6755994339228
 20
223.11810981039429
 30
0.0
 11
320.8005994339228
 21
223.11810981039429
 31
0.0
  0
LINE
  5
AC9
  8
0
 62
     0
 10
320.6755994339228
 20
223.23610981039431
 30
0.0
 11
320.8005994339228
 21
223.23610981039431
 31
0.0
  0
LINE
  5
ACA
  8
0
 62
     0
 10
320.6755994339228
 20
223.35410981039431
 30
0.0
 11
320.8005994339228
 21
223.35410981039431
 31
0.0
  0
LINE
  5
ACB
  8
0
 62
     0
 10
320.6755994339228
 20
223.4721098103943
 30
0.0
 11
320.8005994339228
 21
223.4721098103943
 31
0.0
  0
LINE
  5
ACC
  8
0
 62
     0
 10
320.6755994339228
 20
223.5901098103943
 30
0.0
 11
320.8005994339228
 21
223.5901098103943
 31
0.0
  0
LINE
  5
ACD
  8
0
 62
     0
 10
320.6755994339228
 20
223.70810981039429
 30
0.0
 11
320.8005994339228
 21
223.70810981039429
 31
0.0
  0
LINE
  5
ACE
  8
0
 62
     0
 10
320.6755994339228
 20
223.82610981039431
 30
0.0
 11
320.8005994339228
 21
223.82610981039431
 31
0.0
  0
LINE
  5
ACF
  8
0
 62
     0
 10
320.6755994339228
 20
223.94410981039431
 30
0.0
 11
320.8005994339228
 21
223.94410981039431
 31
0.0
  0
LINE
  5
AD0
  8
0
 62
     0
 10
320.6755994339228
 20
224.0621098103943
 30
0.0
 11
320.8005994339228
 21
224.0621098103943
 31
0.0
  0
LINE
  5
AD1
  8
0
 62
     0
 10
320.6755994339228
 20
224.1801098103943
 30
0.0
 11
320.8005994339228
 21
224.1801098103943
 31
0.0
  0
LINE
  5
AD2
  8
0
 62
     0
 10
320.6755994339228
 20
224.29810981039429
 30
0.0
 11
320.8005994339228
 21
224.29810981039429
 31
0.0
  0
LINE
  5
AD3
  8
0
 62
     0
 10
320.6755994339228
 20
224.41610981039429
 30
0.0
 11
320.8005994339228
 21
224.41610981039429
 31
0.0
  0
LINE
  5
AD4
  8
0
 62
     0
 10
320.6755994339228
 20
224.53410981039431
 30
0.0
 11
320.8005994339228
 21
224.53410981039431
 31
0.0
  0
LINE
  5
AD5
  8
0
 62
     0
 10
320.6755994339228
 20
224.65210981039439
 30
0.0
 11
320.8005994339228
 21
224.65210981039439
 31
0.0
  0
LINE
  5
AD6
  8
0
 62
     0
 10
320.6755994339228
 20
224.7701098103943
 30
0.0
 11
320.8005994339228
 21
224.7701098103943
 31
0.0
  0
LINE
  5
AD7
  8
0
 62
     0
 10
320.6755994339228
 20
224.8881098103943
 30
0.0
 11
320.8005994339228
 21
224.8881098103943
 31
0.0
  0
LINE
  5
AD8
  8
0
 62
     0
 10
320.6755994339228
 20
225.00610981039429
 30
0.0
 11
320.8005994339228
 21
225.00610981039429
 31
0.0
  0
LINE
  5
AD9
  8
0
 62
     0
 10
320.6755994339228
 20
225.12410981039429
 30
0.0
 11
320.8005994339228
 21
225.12410981039429
 31
0.0
  0
LINE
  5
ADA
  8
0
 62
     0
 10
320.6755994339228
 20
225.24210981039431
 30
0.0
 11
320.8005994339228
 21
225.24210981039431
 31
0.0
  0
LINE
  5
ADB
  8
0
 62
     0
 10
320.6755994339228
 20
225.36010981039431
 30
0.0
 11
320.8005994339228
 21
225.36010981039431
 31
0.0
  0
LINE
  5
ADC
  8
0
 62
     0
 10
320.6755994339228
 20
225.47810981039439
 30
0.0
 11
320.8005994339228
 21
225.47810981039439
 31
0.0
  0
LINE
  5
ADD
  8
0
 62
     0
 10
320.6755994339228
 20
225.5961098103943
 30
0.0
 11
320.8005994339228
 21
225.5961098103943
 31
0.0
  0
LINE
  5
ADE
  8
0
 62
     0
 10
320.6755994339228
 20
225.71410981039429
 30
0.0
 11
320.8005994339228
 21
225.71410981039429
 31
0.0
  0
LINE
  5
ADF
  8
0
 62
     0
 10
320.6755994339228
 20
225.8321098103944
 30
0.0
 11
320.8005994339228
 21
225.8321098103944
 31
0.0
  0
LINE
  5
AE0
  8
0
 62
     0
 10
320.6755994339228
 20
225.95010981039431
 30
0.0
 11
320.8005994339228
 21
225.95010981039431
 31
0.0
  0
LINE
  5
AE1
  8
0
 62
     0
 10
320.6755994339228
 20
226.06810981039439
 30
0.0
 11
320.8005994339228
 21
226.06810981039439
 31
0.0
  0
LINE
  5
AE2
  8
0
 62
     0
 10
320.6755994339228
 20
226.1861098103943
 30
0.0
 11
320.8005994339228
 21
226.1861098103943
 31
0.0
  0
LINE
  5
AE3
  8
0
 62
     0
 10
320.6755994339228
 20
226.30410981039429
 30
0.0
 11
320.8005994339228
 21
226.30410981039429
 31
0.0
  0
LINE
  5
AE4
  8
0
 62
     0
 10
320.6755994339228
 20
226.42210981039429
 30
0.0
 11
320.8005994339228
 21
226.42210981039429
 31
0.0
  0
LINE
  5
AE5
  8
0
 62
     0
 10
320.6755994339228
 20
226.54010981039431
 30
0.0
 11
320.8005994339228
 21
226.54010981039431
 31
0.0
  0
LINE
  5
AE6
  8
0
 62
     0
 10
320.6755994339228
 20
226.65810981039439
 30
0.0
 11
320.8005994339228
 21
226.65810981039439
 31
0.0
  0
LINE
  5
AE7
  8
0
 62
     0
 10
320.6755994339228
 20
226.7761098103943
 30
0.0
 11
320.8005994339228
 21
226.7761098103943
 31
0.0
  0
LINE
  5
AE8
  8
0
 62
     0
 10
320.6755994339228
 20
226.8941098103943
 30
0.0
 11
320.8005994339228
 21
226.8941098103943
 31
0.0
  0
LINE
  5
AE9
  8
0
 62
     0
 10
320.6755994339228
 20
227.01210981039429
 30
0.0
 11
320.8005994339228
 21
227.01210981039429
 31
0.0
  0
LINE
  5
AEA
  8
0
 62
     0
 10
320.6755994339228
 20
227.13010981039429
 30
0.0
 11
320.8005994339228
 21
227.13010981039429
 31
0.0
  0
LINE
  5
AEB
  8
0
 62
     0
 10
320.6755994339228
 20
227.2481098103944
 30
0.0
 11
320.8005994339228
 21
227.2481098103944
 31
0.0
  0
LINE
  5
AEC
  8
0
 62
     0
 10
320.6755994339228
 20
227.36610981039431
 30
0.0
 11
320.8005994339228
 21
227.36610981039431
 31
0.0
  0
LINE
  5
AED
  8
0
 62
     0
 10
320.6755994339228
 20
227.4841098103943
 30
0.0
 11
320.8005994339228
 21
227.4841098103943
 31
0.0
  0
LINE
  5
AEE
  8
0
 62
     0
 10
320.6755994339228
 20
227.6021098103943
 30
0.0
 11
320.8005994339228
 21
227.6021098103943
 31
0.0
  0
LINE
  5
AEF
  8
0
 62
     0
 10
320.6755994339228
 20
227.72010981039429
 30
0.0
 11
320.8005994339228
 21
227.72010981039429
 31
0.0
  0
LINE
  5
AF0
  8
0
 62
     0
 10
320.6755994339228
 20
227.83810981039429
 30
0.0
 11
320.8005994339228
 21
227.83810981039429
 31
0.0
  0
LINE
  5
AF1
  8
0
 62
     0
 10
320.6755994339228
 20
227.95610981039431
 30
0.0
 11
320.8005994339228
 21
227.95610981039431
 31
0.0
  0
LINE
  5
AF2
  8
0
 62
     0
 10
320.6755994339228
 20
228.0741098103943
 30
0.0
 11
320.8005994339228
 21
228.0741098103943
 31
0.0
  0
LINE
  5
AF3
  8
0
 62
     0
 10
320.6755994339228
 20
228.1921098103943
 30
0.0
 11
320.8005994339228
 21
228.1921098103943
 31
0.0
  0
LINE
  5
AF4
  8
0
 62
     0
 10
320.6755994339228
 20
228.31010981039429
 30
0.0
 11
320.8005994339228
 21
228.31010981039429
 31
0.0
  0
LINE
  5
AF5
  8
0
 62
     0
 10
320.6755994339228
 20
228.42810981039429
 30
0.0
 11
320.8005994339228
 21
228.42810981039429
 31
0.0
  0
LINE
  5
AF6
  8
0
 62
     0
 10
320.6755994339228
 20
228.54610981039431
 30
0.0
 11
320.8005994339228
 21
228.54610981039431
 31
0.0
  0
LINE
  5
AF7
  8
0
 62
     0
 10
320.6755994339228
 20
228.66410981039439
 30
0.0
 11
320.8005994339228
 21
228.66410981039439
 31
0.0
  0
LINE
  5
AF8
  8
0
 62
     0
 10
320.6755994339228
 20
228.7821098103943
 30
0.0
 11
320.8005994339228
 21
228.7821098103943
 31
0.0
  0
LINE
  5
AF9
  8
0
 62
     0
 10
320.6755994339228
 20
228.9001098103943
 30
0.0
 11
320.8005994339228
 21
228.9001098103943
 31
0.0
  0
LINE
  5
AFA
  8
0
 62
     0
 10
320.6755994339228
 20
229.01810981039429
 30
0.0
 11
320.8005994339228
 21
229.01810981039429
 31
0.0
  0
LINE
  5
AFB
  8
0
 62
     0
 10
320.6755994339228
 20
229.13610981039429
 30
0.0
 11
320.8005994339228
 21
229.13610981039429
 31
0.0
  0
LINE
  5
AFC
  8
0
 62
     0
 10
320.6755994339228
 20
229.25410981039431
 30
0.0
 11
320.8005994339228
 21
229.25410981039431
 31
0.0
  0
LINE
  5
AFD
  8
0
 62
     0
 10
320.6755994339228
 20
229.37210981039431
 30
0.0
 11
320.8005994339228
 21
229.37210981039431
 31
0.0
  0
LINE
  5
AFE
  8
0
 62
     0
 10
320.6755994339228
 20
229.4901098103943
 30
0.0
 11
320.8005994339228
 21
229.4901098103943
 31
0.0
  0
LINE
  5
AFF
  8
0
 62
     0
 10
320.6755994339228
 20
229.6081098103943
 30
0.0
 11
320.8005994339228
 21
229.6081098103943
 31
0.0
  0
LINE
  5
B00
  8
0
 62
     0
 10
320.6755994339228
 20
229.72610981039429
 30
0.0
 11
320.8005994339228
 21
229.72610981039429
 31
0.0
  0
LINE
  5
B01
  8
0
 62
     0
 10
320.6755994339228
 20
229.8441098103944
 30
0.0
 11
320.8005994339228
 21
229.8441098103944
 31
0.0
  0
LINE
  5
B02
  8
0
 62
     0
 10
320.6755994339228
 20
229.96210981039431
 30
0.0
 11
320.8005994339228
 21
229.96210981039431
 31
0.0
  0
LINE
  5
B03
  8
0
 62
     0
 10
320.6755994339228
 20
230.0801098103943
 30
0.0
 11
320.8005994339228
 21
230.0801098103943
 31
0.0
  0
LINE
  5
B04
  8
0
 62
     0
 10
320.6755994339228
 20
230.1981098103943
 30
0.0
 11
320.8005994339228
 21
230.1981098103943
 31
0.0
  0
LINE
  5
B05
  8
0
 62
     0
 10
320.6755994339228
 20
230.31610981039429
 30
0.0
 11
320.8005994339228
 21
230.31610981039429
 31
0.0
  0
LINE
  5
B06
  8
0
 62
     0
 10
320.6755994339228
 20
230.43410981039429
 30
0.0
 11
320.8005994339228
 21
230.43410981039429
 31
0.0
  0
LINE
  5
B07
  8
0
 62
     0
 10
320.6755994339228
 20
230.55210981039431
 30
0.0
 11
320.8005994339228
 21
230.55210981039431
 31
0.0
  0
LINE
  5
B08
  8
0
 62
     0
 10
320.6755994339228
 20
230.67010981039431
 30
0.0
 11
320.8005994339228
 21
230.67010981039431
 31
0.0
  0
LINE
  5
B09
  8
0
 62
     0
 10
320.6755994339228
 20
230.7881098103943
 30
0.0
 11
320.8005994339228
 21
230.7881098103943
 31
0.0
  0
LINE
  5
B0A
  8
0
 62
     0
 10
320.6755994339228
 20
230.9061098103943
 30
0.0
 11
320.8005994339228
 21
230.9061098103943
 31
0.0
  0
LINE
  5
B0B
  8
0
 62
     0
 10
320.6755994339228
 20
231.02410981039429
 30
0.0
 11
320.8005994339228
 21
231.02410981039429
 31
0.0
  0
LINE
  5
B0C
  8
0
 62
     0
 10
320.6755994339228
 20
231.14210981039429
 30
0.0
 11
320.8005994339228
 21
231.14210981039429
 31
0.0
  0
LINE
  5
B0D
  8
0
 62
     0
 10
320.6755994339228
 20
231.26010981039431
 30
0.0
 11
320.8005994339228
 21
231.26010981039431
 31
0.0
  0
LINE
  5
B0E
  8
0
 62
     0
 10
320.6755994339228
 20
231.37810981039431
 30
0.0
 11
320.8005994339228
 21
231.37810981039431
 31
0.0
  0
LINE
  5
B0F
  8
0
 62
     0
 10
320.6755994339228
 20
231.4961098103943
 30
0.0
 11
320.8005994339228
 21
231.4961098103943
 31
0.0
  0
LINE
  5
B10
  8
0
 62
     0
 10
320.6755994339228
 20
231.6141098103943
 30
0.0
 11
320.8005994339228
 21
231.6141098103943
 31
0.0
  0
LINE
  5
B11
  8
0
 62
     0
 10
320.6755994339228
 20
231.73210981039429
 30
0.0
 11
320.8005994339228
 21
231.73210981039429
 31
0.0
  0
LINE
  5
B12
  8
0
 62
     0
 10
320.6755994339228
 20
231.85010981039429
 30
0.0
 11
320.8005994339228
 21
231.85010981039429
 31
0.0
  0
LINE
  5
B13
  8
0
 62
     0
 10
320.6755994339228
 20
231.96810981039431
 30
0.0
 11
320.8005994339228
 21
231.96810981039431
 31
0.0
  0
LINE
  5
B14
  8
0
 62
     0
 10
320.6755994339228
 20
232.0861098103943
 30
0.0
 11
320.8005994339228
 21
232.0861098103943
 31
0.0
  0
LINE
  5
B15
  8
0
 62
     0
 10
320.6755994339228
 20
232.2041098103943
 30
0.0
 11
320.8005994339228
 21
232.2041098103943
 31
0.0
  0
LINE
  5
B16
  8
0
 62
     0
 10
320.6755994339228
 20
232.32210981039429
 30
0.0
 11
320.8005994339228
 21
232.32210981039429
 31
0.0
  0
LINE
  5
B17
  8
0
 62
     0
 10
320.6755994339228
 20
232.44010981039429
 30
0.0
 11
320.8005994339228
 21
232.44010981039429
 31
0.0
  0
LINE
  5
B18
  8
0
 62
     0
 10
320.6755994339228
 20
232.55810981039431
 30
0.0
 11
320.8005994339228
 21
232.55810981039431
 31
0.0
  0
LINE
  5
B19
  8
0
 62
     0
 10
320.6755994339228
 20
232.67610981039431
 30
0.0
 11
320.8005994339228
 21
232.67610981039431
 31
0.0
  0
LINE
  5
B1A
  8
0
 62
     0
 10
320.6755994339228
 20
232.7941098103943
 30
0.0
 11
320.8005994339228
 21
232.7941098103943
 31
0.0
  0
LINE
  5
B1B
  8
0
 62
     0
 10
320.6755994339228
 20
232.9121098103943
 30
0.0
 11
320.8005994339228
 21
232.9121098103943
 31
0.0
  0
LINE
  5
B1C
  8
0
 62
     0
 10
320.6755994339228
 20
233.03010981039429
 30
0.0
 11
320.8005994339228
 21
233.03010981039429
 31
0.0
  0
LINE
  5
B1D
  8
0
 62
     0
 10
320.6755994339228
 20
233.14810981039429
 30
0.0
 11
320.8005994339228
 21
233.14810981039429
 31
0.0
  0
LINE
  5
B1E
  8
0
 62
     0
 10
320.6755994339228
 20
233.26610981039431
 30
0.0
 11
320.8005994339228
 21
233.26610981039431
 31
0.0
  0
LINE
  5
B1F
  8
0
 62
     0
 10
320.6755994339228
 20
233.38410981039431
 30
0.0
 11
320.8005994339228
 21
233.38410981039431
 31
0.0
  0
LINE
  5
B20
  8
0
 62
     0
 10
320.6755994339228
 20
233.5021098103943
 30
0.0
 11
320.8005994339228
 21
233.5021098103943
 31
0.0
  0
LINE
  5
B21
  8
0
 62
     0
 10
320.6755994339228
 20
233.6201098103943
 30
0.0
 11
320.8005994339228
 21
233.6201098103943
 31
0.0
  0
LINE
  5
B22
  8
0
 62
     0
 10
320.6755994339228
 20
233.73810981039429
 30
0.0
 11
320.8005994339228
 21
233.73810981039429
 31
0.0
  0
LINE
  5
B23
  8
0
 62
     0
 10
320.6755994339228
 20
233.85610981039429
 30
0.0
 11
320.8005994339228
 21
233.85610981039429
 31
0.0
  0
LINE
  5
B24
  8
0
 62
     0
 10
320.6755994339228
 20
233.97410981039431
 30
0.0
 11
320.8005994339228
 21
233.97410981039431
 31
0.0
  0
LINE
  5
B25
  8
0
 62
     0
 10
320.6755994339228
 20
234.09210981039431
 30
0.0
 11
320.8005994339228
 21
234.09210981039431
 31
0.0
  0
LINE
  5
B26
  8
0
 62
     0
 10
320.6755994339228
 20
234.2101098103943
 30
0.0
 11
320.8005994339228
 21
234.2101098103943
 31
0.0
  0
LINE
  5
B27
  8
0
 62
     0
 10
320.6755994339228
 20
234.3281098103943
 30
0.0
 11
320.8005994339228
 21
234.3281098103943
 31
0.0
  0
LINE
  5
B28
  8
0
 62
     0
 10
320.6755994339228
 20
234.44610981039429
 30
0.0
 11
320.8005994339228
 21
234.44610981039429
 31
0.0
  0
LINE
  5
B29
  8
0
 62
     0
 10
320.6755994339228
 20
234.56410981039431
 30
0.0
 11
320.8005994339228
 21
234.56410981039431
 31
0.0
  0
LINE
  5
B2A
  8
0
 62
     0
 10
320.6755994339228
 20
234.68210981039431
 30
0.0
 11
320.8005994339228
 21
234.68210981039431
 31
0.0
  0
LINE
  5
B2B
  8
0
 62
     0
 10
320.6755994339228
 20
234.8001098103943
 30
0.0
 11
320.8005994339228
 21
234.8001098103943
 31
0.0
  0
LINE
  5
B2C
  8
0
 62
     0
 10
320.6755994339228
 20
234.9181098103943
 30
0.0
 11
320.8005994339228
 21
234.9181098103943
 31
0.0
  0
LINE
  5
B2D
  8
0
 62
     0
 10
320.6755994339228
 20
235.03610981039429
 30
0.0
 11
320.8005994339228
 21
235.03610981039429
 31
0.0
  0
LINE
  5
B2E
  8
0
 62
     0
 10
320.6755994339228
 20
235.15410981039429
 30
0.0
 11
320.8005994339228
 21
235.15410981039429
 31
0.0
  0
LINE
  5
B2F
  8
0
 62
     0
 10
320.6755994339228
 20
235.27210981039431
 30
0.0
 11
320.8005994339228
 21
235.27210981039431
 31
0.0
  0
LINE
  5
B30
  8
0
 62
     0
 10
320.6755994339228
 20
235.39010981039431
 30
0.0
 11
320.8005994339228
 21
235.39010981039431
 31
0.0
  0
LINE
  5
B31
  8
0
 62
     0
 10
320.6755994339228
 20
235.5081098103943
 30
0.0
 11
320.8005994339228
 21
235.5081098103943
 31
0.0
  0
LINE
  5
B32
  8
0
 62
     0
 10
320.6755994339228
 20
235.6261098103943
 30
0.0
 11
320.8005994339228
 21
235.6261098103943
 31
0.0
  0
LINE
  5
B33
  8
0
 62
     0
 10
320.6755994339228
 20
235.74410981039429
 30
0.0
 11
320.8005994339228
 21
235.74410981039429
 31
0.0
  0
LINE
  5
B34
  8
0
 62
     0
 10
320.6755994339228
 20
235.86210981039429
 30
0.0
 11
320.8005994339228
 21
235.86210981039429
 31
0.0
  0
LINE
  5
B35
  8
0
 62
     0
 10
320.6755994339228
 20
235.98010981039431
 30
0.0
 11
320.8005994339228
 21
235.98010981039431
 31
0.0
  0
LINE
  5
B36
  8
0
 62
     0
 10
320.6755994339228
 20
236.09810981039431
 30
0.0
 11
320.8005994339228
 21
236.09810981039431
 31
0.0
  0
LINE
  5
B37
  8
0
 62
     0
 10
320.6755994339228
 20
236.2161098103943
 30
0.0
 11
320.8005994339228
 21
236.2161098103943
 31
0.0
  0
LINE
  5
B38
  8
0
 62
     0
 10
320.6755994339228
 20
236.3341098103943
 30
0.0
 11
320.8005994339228
 21
236.3341098103943
 31
0.0
  0
LINE
  5
B39
  8
0
 62
     0
 10
320.6755994339228
 20
236.45210981039429
 30
0.0
 11
320.8005994339228
 21
236.45210981039429
 31
0.0
  0
LINE
  5
B3A
  8
0
 62
     0
 10
320.6755994339228
 20
236.5701098103944
 30
0.0
 11
320.8005994339228
 21
236.5701098103944
 31
0.0
  0
LINE
  5
B3B
  8
0
 62
     0
 10
320.6755994339228
 20
236.68810981039431
 30
0.0
 11
320.8005994339228
 21
236.68810981039431
 31
0.0
  0
LINE
  5
B3C
  8
0
 62
     0
 10
320.6755994339228
 20
236.8061098103943
 30
0.0
 11
320.8005994339228
 21
236.8061098103943
 31
0.0
  0
LINE
  5
B3D
  8
0
 62
     0
 10
320.6755994339228
 20
236.9241098103943
 30
0.0
 11
320.8005994339228
 21
236.9241098103943
 31
0.0
  0
LINE
  5
B3E
  8
0
 62
     0
 10
320.6755994339228
 20
237.04210981039429
 30
0.0
 11
320.8005994339228
 21
237.04210981039429
 31
0.0
  0
LINE
  5
B3F
  8
0
 62
     0
 10
320.6755994339228
 20
237.16010981039429
 30
0.0
 11
320.8005994339228
 21
237.16010981039429
 31
0.0
  0
LINE
  5
B40
  8
0
 62
     0
 10
320.6755994339228
 20
237.27810981039431
 30
0.0
 11
320.8005994339228
 21
237.27810981039431
 31
0.0
  0
LINE
  5
B41
  8
0
 62
     0
 10
320.6755994339228
 20
237.39610981039439
 30
0.0
 11
320.8005994339228
 21
237.39610981039439
 31
0.0
  0
LINE
  5
B42
  8
0
 62
     0
 10
320.6755994339228
 20
237.5141098103943
 30
0.0
 11
320.8005994339228
 21
237.5141098103943
 31
0.0
  0
LINE
  5
B43
  8
0
 62
     0
 10
320.6755994339228
 20
237.6321098103943
 30
0.0
 11
320.8005994339228
 21
237.6321098103943
 31
0.0
  0
LINE
  5
B44
  8
0
 62
     0
 10
320.6755994339228
 20
237.75010981039429
 30
0.0
 11
320.8005994339228
 21
237.75010981039429
 31
0.0
  0
LINE
  5
B45
  8
0
 62
     0
 10
320.6755994339228
 20
237.86810981039429
 30
0.0
 11
320.8005994339228
 21
237.86810981039429
 31
0.0
  0
LINE
  5
B46
  8
0
 62
     0
 10
320.6755994339228
 20
237.9861098103944
 30
0.0
 11
320.8005994339228
 21
237.9861098103944
 31
0.0
  0
LINE
  5
B47
  8
0
 62
     0
 10
320.6755994339228
 20
238.10410981039431
 30
0.0
 11
320.8005994339228
 21
238.10410981039431
 31
0.0
  0
LINE
  5
B48
  8
0
 62
     0
 10
320.6755994339228
 20
238.22210981039439
 30
0.0
 11
320.8005994339228
 21
238.22210981039439
 31
0.0
  0
LINE
  5
B49
  8
0
 62
     0
 10
320.6755994339228
 20
238.3401098103943
 30
0.0
 11
320.8005994339228
 21
238.3401098103943
 31
0.0
  0
LINE
  5
B4A
  8
0
 62
     0
 10
320.6755994339228
 20
238.45810981039429
 30
0.0
 11
320.8005994339228
 21
238.45810981039429
 31
0.0
  0
LINE
  5
B4B
  8
0
 62
     0
 10
320.6755994339228
 20
238.57610981039431
 30
0.0
 11
320.8005994339228
 21
238.57610981039431
 31
0.0
  0
LINE
  5
B4C
  8
0
 62
     0
 10
320.6755994339228
 20
238.69410981039431
 30
0.0
 11
320.8005994339228
 21
238.69410981039431
 31
0.0
  0
LINE
  5
B4D
  8
0
 62
     0
 10
320.6755994339228
 20
238.81210981039439
 30
0.0
 11
320.8005994339228
 21
238.81210981039439
 31
0.0
  0
LINE
  5
B4E
  8
0
 62
     0
 10
320.6755994339228
 20
238.9301098103943
 30
0.0
 11
320.8005994339228
 21
238.9301098103943
 31
0.0
  0
LINE
  5
B4F
  8
0
 62
     0
 10
320.6755994339228
 20
239.04810981039429
 30
0.0
 11
320.8005994339228
 21
239.04810981039429
 31
0.0
  0
LINE
  5
B50
  8
0
 62
     0
 10
320.6755994339228
 20
239.16610981039429
 30
0.0
 11
320.8005994339228
 21
239.16610981039429
 31
0.0
  0
LINE
  5
B51
  8
0
 62
     0
 10
320.6755994339228
 20
239.28410981039431
 30
0.0
 11
320.8005994339228
 21
239.28410981039431
 31
0.0
  0
LINE
  5
B52
  8
0
 62
     0
 10
320.6755994339228
 20
239.40210981039439
 30
0.0
 11
320.8005994339228
 21
239.40210981039439
 31
0.0
  0
LINE
  5
B53
  8
0
 62
     0
 10
320.6755994339228
 20
239.5201098103943
 30
0.0
 11
320.8005994339228
 21
239.5201098103943
 31
0.0
  0
LINE
  5
B54
  8
0
 62
     0
 10
320.6755994339228
 20
239.6381098103943
 30
0.0
 11
320.8005994339228
 21
239.6381098103943
 31
0.0
  0
LINE
  5
B55
  8
0
 62
     0
 10
320.6755994339228
 20
239.75610981039429
 30
0.0
 11
320.8005994339228
 21
239.75610981039429
 31
0.0
  0
LINE
  5
B56
  8
0
 62
     0
 10
320.6755994339228
 20
239.87410981039429
 30
0.0
 11
320.8005994339228
 21
239.87410981039429
 31
0.0
  0
LINE
  5
B57
  8
0
 62
     0
 10
320.6755994339228
 20
239.99210981039431
 30
0.0
 11
320.8005994339228
 21
239.99210981039431
 31
0.0
  0
LINE
  5
B58
  8
0
 62
     0
 10
320.6755994339228
 20
240.11010981039431
 30
0.0
 11
320.8005994339228
 21
240.11010981039431
 31
0.0
  0
LINE
  5
B59
  8
0
 62
     0
 10
320.6755994339228
 20
240.2281098103943
 30
0.0
 11
320.8005994339228
 21
240.2281098103943
 31
0.0
  0
LINE
  5
B5A
  8
0
 62
     0
 10
320.6755994339228
 20
240.3461098103943
 30
0.0
 11
320.8005994339228
 21
240.3461098103943
 31
0.0
  0
LINE
  5
B5B
  8
0
 62
     0
 10
320.6755994339228
 20
240.46410981039429
 30
0.0
 11
320.8005994339228
 21
240.46410981039429
 31
0.0
  0
LINE
  5
B5C
  8
0
 62
     0
 10
320.6755994339228
 20
240.5821098103944
 30
0.0
 11
320.8005994339228
 21
240.5821098103944
 31
0.0
  0
LINE
  5
B5D
  8
0
 62
     0
 10
320.6755994339228
 20
240.70010981039431
 30
0.0
 11
320.8005994339228
 21
240.70010981039431
 31
0.0
  0
LINE
  5
B5E
  8
0
 62
     0
 10
320.6755994339228
 20
240.8181098103943
 30
0.0
 11
320.8005994339228
 21
240.8181098103943
 31
0.0
  0
LINE
  5
B5F
  8
0
 62
     0
 10
320.6755994339228
 20
240.9361098103943
 30
0.0
 11
320.8005994339228
 21
240.9361098103943
 31
0.0
  0
LINE
  5
B60
  8
0
 62
     0
 10
320.6755994339228
 20
241.05410981039429
 30
0.0
 11
320.8005994339228
 21
241.05410981039429
 31
0.0
  0
LINE
  5
B61
  8
0
 62
     0
 10
320.6755994339228
 20
241.17210981039429
 30
0.0
 11
320.8005994339228
 21
241.17210981039429
 31
0.0
  0
LINE
  5
B62
  8
0
 62
     0
 10
320.6755994339228
 20
241.29010981039431
 30
0.0
 11
320.8005994339228
 21
241.29010981039431
 31
0.0
  0
LINE
  5
B63
  8
0
 62
     0
 10
320.6755994339228
 20
241.40810981039439
 30
0.0
 11
320.8005994339228
 21
241.40810981039439
 31
0.0
  0
LINE
  5
B64
  8
0
 62
     0
 10
320.6755994339228
 20
241.5261098103943
 30
0.0
 11
320.8005994339228
 21
241.5261098103943
 31
0.0
  0
LINE
  5
B65
  8
0
 62
     0
 10
320.6755994339228
 20
241.6441098103943
 30
0.0
 11
320.8005994339228
 21
241.6441098103943
 31
0.0
  0
LINE
  5
B66
  8
0
 62
     0
 10
320.6755994339228
 20
241.76210981039429
 30
0.0
 11
320.8005994339228
 21
241.76210981039429
 31
0.0
  0
LINE
  5
B67
  8
0
 62
     0
 10
320.6755994339228
 20
241.88010981039429
 30
0.0
 11
320.8005994339228
 21
241.88010981039429
 31
0.0
  0
LINE
  5
B68
  8
0
 62
     0
 10
320.6755994339228
 20
241.9981098103944
 30
0.0
 11
320.8005994339228
 21
241.9981098103944
 31
0.0
  0
LINE
  5
B69
  8
0
 62
     0
 10
320.6755994339228
 20
242.11610981039431
 30
0.0
 11
320.8005994339228
 21
242.11610981039431
 31
0.0
  0
LINE
  5
B6A
  8
0
 62
     0
 10
320.6755994339228
 20
242.2341098103943
 30
0.0
 11
320.8005994339228
 21
242.2341098103943
 31
0.0
  0
LINE
  5
B6B
  8
0
 62
     0
 10
320.6755994339228
 20
242.3521098103943
 30
0.0
 11
320.8005994339228
 21
242.3521098103943
 31
0.0
  0
LINE
  5
B6C
  8
0
 62
     0
 10
320.6755994339228
 20
242.47010981039429
 30
0.0
 11
320.8005994339228
 21
242.47010981039429
 31
0.0
  0
LINE
  5
B6D
  8
0
 62
     0
 10
320.6755994339228
 20
242.58810981039429
 30
0.0
 11
320.8005994339228
 21
242.58810981039429
 31
0.0
  0
LINE
  5
B6E
  8
0
 62
     0
 10
320.6755994339228
 20
242.70610981039431
 30
0.0
 11
320.8005994339228
 21
242.70610981039431
 31
0.0
  0
LINE
  5
B6F
  8
0
 62
     0
 10
320.6755994339228
 20
242.8241098103943
 30
0.0
 11
320.8005994339228
 21
242.8241098103943
 31
0.0
  0
LINE
  5
B70
  8
0
 62
     0
 10
320.6755994339228
 20
242.9421098103943
 30
0.0
 11
320.8005994339228
 21
242.9421098103943
 31
0.0
  0
LINE
  5
B71
  8
0
 62
     0
 10
320.6755994339228
 20
243.06010981039429
 30
0.0
 11
320.8005994339228
 21
243.06010981039429
 31
0.0
  0
LINE
  5
B72
  8
0
 62
     0
 10
320.6755994339228
 20
243.17810981039429
 30
0.0
 11
320.8005994339228
 21
243.17810981039429
 31
0.0
  0
LINE
  5
B73
  8
0
 62
     0
 10
320.6755994339228
 20
243.29610981039431
 30
0.0
 11
320.8005994339228
 21
243.29610981039431
 31
0.0
  0
LINE
  5
B74
  8
0
 62
     0
 10
320.6755994339228
 20
243.41410981039431
 30
0.0
 11
320.8005994339228
 21
243.41410981039431
 31
0.0
  0
LINE
  5
B75
  8
0
 62
     0
 10
320.6755994339228
 20
243.5321098103943
 30
0.0
 11
320.8005994339228
 21
243.5321098103943
 31
0.0
  0
LINE
  5
B76
  8
0
 62
     0
 10
320.6755994339228
 20
243.6501098103943
 30
0.0
 11
320.8005994339228
 21
243.6501098103943
 31
0.0
  0
LINE
  5
B77
  8
0
 62
     0
 10
320.6755994339228
 20
243.76810981039429
 30
0.0
 11
320.8005994339228
 21
243.76810981039429
 31
0.0
  0
LINE
  5
B78
  8
0
 62
     0
 10
320.6755994339228
 20
243.88610981039429
 30
0.0
 11
320.8005994339228
 21
243.88610981039429
 31
0.0
  0
LINE
  5
B79
  8
0
 62
     0
 10
320.6755994339228
 20
244.00410981039431
 30
0.0
 11
320.8005994339228
 21
244.00410981039431
 31
0.0
  0
LINE
  5
B7A
  8
0
 62
     0
 10
320.6755994339228
 20
244.12210981039431
 30
0.0
 11
320.8005994339228
 21
244.12210981039431
 31
0.0
  0
LINE
  5
B7B
  8
0
 62
     0
 10
320.6755994339228
 20
244.2401098103943
 30
0.0
 11
320.8005994339228
 21
244.2401098103943
 31
0.0
  0
LINE
  5
B7C
  8
0
 62
     0
 10
320.6755994339228
 20
244.3581098103943
 30
0.0
 11
320.8005994339228
 21
244.3581098103943
 31
0.0
  0
LINE
  5
B7D
  8
0
 62
     0
 10
320.6755994339228
 20
244.47610981039429
 30
0.0
 11
320.8005994339228
 21
244.47610981039429
 31
0.0
  0
LINE
  5
B7E
  8
0
 62
     0
 10
320.6755994339228
 20
244.5941098103944
 30
0.0
 11
320.8005994339228
 21
244.5941098103944
 31
0.0
  0
LINE
  5
B7F
  8
0
 62
     0
 10
320.6755994339228
 20
244.71210981039431
 30
0.0
 11
320.8005994339228
 21
244.71210981039431
 31
0.0
  0
LINE
  5
B80
  8
0
 62
     0
 10
320.6755994339228
 20
244.8301098103943
 30
0.0
 11
320.8005994339228
 21
244.8301098103943
 31
0.0
  0
LINE
  5
B81
  8
0
 62
     0
 10
320.6755994339228
 20
244.9481098103943
 30
0.0
 11
320.8005994339228
 21
244.9481098103943
 31
0.0
  0
LINE
  5
B82
  8
0
 62
     0
 10
320.6755994339228
 20
245.06610981039429
 30
0.0
 11
320.8005994339228
 21
245.06610981039429
 31
0.0
  0
LINE
  5
B83
  8
0
 62
     0
 10
320.6755994339228
 20
245.18410981039429
 30
0.0
 11
320.8005994339228
 21
245.18410981039429
 31
0.0
  0
LINE
  5
B84
  8
0
 62
     0
 10
320.6755994339228
 20
245.30210981039431
 30
0.0
 11
320.8005994339228
 21
245.30210981039431
 31
0.0
  0
LINE
  5
B85
  8
0
 62
     0
 10
320.6755994339228
 20
245.42010981039431
 30
0.0
 11
320.8005994339228
 21
245.42010981039431
 31
0.0
  0
LINE
  5
B86
  8
0
 62
     0
 10
320.6755994339228
 20
245.5381098103943
 30
0.0
 11
320.8005994339228
 21
245.5381098103943
 31
0.0
  0
LINE
  5
B87
  8
0
 62
     0
 10
320.6755994339228
 20
245.6561098103943
 30
0.0
 11
320.8005994339228
 21
245.6561098103943
 31
0.0
  0
LINE
  5
B88
  8
0
 62
     0
 10
320.6755994339228
 20
245.77410981039429
 30
0.0
 11
320.8005994339228
 21
245.77410981039429
 31
0.0
  0
LINE
  5
B89
  8
0
 62
     0
 10
320.6755994339228
 20
245.89210981039429
 30
0.0
 11
320.8005994339228
 21
245.89210981039429
 31
0.0
  0
LINE
  5
B8A
  8
0
 62
     0
 10
320.6755994339228
 20
246.01010981039431
 30
0.0
 11
320.8005994339228
 21
246.01010981039431
 31
0.0
  0
LINE
  5
B8B
  8
0
 62
     0
 10
320.6755994339228
 20
246.12810981039431
 30
0.0
 11
320.8005994339228
 21
246.12810981039431
 31
0.0
  0
LINE
  5
B8C
  8
0
 62
     0
 10
320.6755994339228
 20
246.2461098103943
 30
0.0
 11
320.8005994339228
 21
246.2461098103943
 31
0.0
  0
LINE
  5
B8D
  8
0
 62
     0
 10
320.6755994339228
 20
246.3641098103943
 30
0.0
 11
320.8005994339228
 21
246.3641098103943
 31
0.0
  0
LINE
  5
B8E
  8
0
 62
     0
 10
320.6755994339228
 20
246.48210981039429
 30
0.0
 11
320.8005994339228
 21
246.48210981039429
 31
0.0
  0
LINE
  5
B8F
  8
0
 62
     0
 10
320.6755994339228
 20
246.60010981039429
 30
0.0
 11
320.8005994339228
 21
246.60010981039429
 31
0.0
  0
LINE
  5
B90
  8
0
 62
     0
 10
320.6755994339228
 20
246.71810981039431
 30
0.0
 11
320.8005994339228
 21
246.71810981039431
 31
0.0
  0
LINE
  5
B91
  8
0
 62
     0
 10
320.6755994339228
 20
246.8361098103943
 30
0.0
 11
320.8005994339228
 21
246.8361098103943
 31
0.0
  0
LINE
  5
B92
  8
0
 62
     0
 10
320.6755994339228
 20
246.9541098103943
 30
0.0
 11
320.8005994339228
 21
246.9541098103943
 31
0.0
  0
LINE
  5
B93
  8
0
 62
     0
 10
320.6755994339228
 20
247.07210981039429
 30
0.0
 11
320.8005994339228
 21
247.07210981039429
 31
0.0
  0
LINE
  5
B94
  8
0
 62
     0
 10
320.6755994339228
 20
247.19010981039429
 30
0.0
 11
320.8005994339228
 21
247.19010981039429
 31
0.0
  0
LINE
  5
B95
  8
0
 62
     0
 10
320.6755994339228
 20
247.30810981039431
 30
0.0
 11
320.8005994339228
 21
247.30810981039431
 31
0.0
  0
LINE
  5
B96
  8
0
 62
     0
 10
320.6755994339228
 20
247.42610981039431
 30
0.0
 11
320.8005994339228
 21
247.42610981039431
 31
0.0
  0
LINE
  5
B97
  8
0
 62
     0
 10
320.6755994339228
 20
247.5441098103943
 30
0.0
 11
320.8005994339228
 21
247.5441098103943
 31
0.0
  0
LINE
  5
B98
  8
0
 62
     0
 10
320.6755994339228
 20
247.6621098103943
 30
0.0
 11
320.8005994339228
 21
247.6621098103943
 31
0.0
  0
LINE
  5
B99
  8
0
 62
     0
 10
320.6755994339228
 20
247.78010981039429
 30
0.0
 11
320.8005994339228
 21
247.78010981039429
 31
0.0
  0
LINE
  5
B9A
  8
0
 62
     0
 10
320.6755994339228
 20
247.89810981039429
 30
0.0
 11
320.8005994339228
 21
247.89810981039429
 31
0.0
  0
LINE
  5
B9B
  8
0
 62
     0
 10
320.6755994339228
 20
248.01610981039431
 30
0.0
 11
320.8005994339228
 21
248.01610981039431
 31
0.0
  0
LINE
  5
B9C
  8
0
 62
     0
 10
320.6755994339228
 20
248.13410981039431
 30
0.0
 11
320.8005994339228
 21
248.13410981039431
 31
0.0
  0
LINE
  5
B9D
  8
0
 62
     0
 10
320.6755994339228
 20
248.2521098103943
 30
0.0
 11
320.8005994339228
 21
248.2521098103943
 31
0.0
  0
LINE
  5
B9E
  8
0
 62
     0
 10
320.6755994339228
 20
248.3701098103943
 30
0.0
 11
320.8005994339228
 21
248.3701098103943
 31
0.0
  0
LINE
  5
B9F
  8
0
 62
     0
 10
320.6755994339228
 20
248.48810981039429
 30
0.0
 11
320.8005994339228
 21
248.48810981039429
 31
0.0
  0
LINE
  5
BA0
  8
0
 62
     0
 10
320.6755994339228
 20
248.60610981039429
 30
0.0
 11
320.8005994339228
 21
248.60610981039429
 31
0.0
  0
LINE
  5
BA1
  8
0
 62
     0
 10
320.6755994339228
 20
248.72410981039431
 30
0.0
 11
320.8005994339228
 21
248.72410981039431
 31
0.0
  0
LINE
  5
BA2
  8
0
 62
     0
 10
320.6755994339228
 20
248.84210981039431
 30
0.0
 11
320.8005994339228
 21
248.84210981039431
 31
0.0
  0
LINE
  5
BA3
  8
0
 62
     0
 10
320.6755994339228
 20
248.9601098103943
 30
0.0
 11
320.8005994339228
 21
248.9601098103943
 31
0.0
  0
LINE
  5
BA4
  8
0
 62
     0
 10
320.6755994339228
 20
249.0781098103943
 30
0.0
 11
320.8005994339228
 21
249.0781098103943
 31
0.0
  0
LINE
  5
BA5
  8
0
 62
     0
 10
320.6755994339228
 20
249.19610981039429
 30
0.0
 11
320.8005994339228
 21
249.19610981039429
 31
0.0
  0
LINE
  5
BA6
  8
0
 62
     0
 10
320.6755994339228
 20
249.31410981039431
 30
0.0
 11
320.8005994339228
 21
249.31410981039431
 31
0.0
  0
LINE
  5
BA7
  8
0
 62
     0
 10
320.6755994339228
 20
249.43210981039431
 30
0.0
 11
320.8005994339228
 21
249.43210981039431
 31
0.0
  0
LINE
  5
BA8
  8
0
 62
     0
 10
320.6755994339228
 20
249.5501098103943
 30
0.0
 11
320.8005994339228
 21
249.5501098103943
 31
0.0
  0
LINE
  5
BA9
  8
0
 62
     0
 10
320.6755994339228
 20
249.6681098103943
 30
0.0
 11
320.8005994339228
 21
249.6681098103943
 31
0.0
  0
LINE
  5
BAA
  8
0
 62
     0
 10
320.6755994339228
 20
249.78610981039429
 30
0.0
 11
320.8005994339228
 21
249.78610981039429
 31
0.0
  0
LINE
  5
BAB
  8
0
 62
     0
 10
320.6755994339228
 20
249.90410981039429
 30
0.0
 11
320.8005994339228
 21
249.90410981039429
 31
0.0
  0
LINE
  5
BAC
  8
0
 62
     0
 10
320.6755994339228
 20
250.02210981039431
 30
0.0
 11
320.8005994339228
 21
250.02210981039431
 31
0.0
  0
LINE
  5
BAD
  8
0
 62
     0
 10
320.6755994339228
 20
250.14010981039439
 30
0.0
 11
320.8005994339228
 21
250.14010981039439
 31
0.0
  0
LINE
  5
BAE
  8
0
 62
     0
 10
320.6755994339228
 20
250.2581098103943
 30
0.0
 11
320.8005994339228
 21
250.2581098103943
 31
0.0
  0
LINE
  5
BAF
  8
0
 62
     0
 10
320.6755994339228
 20
250.3761098103943
 30
0.0
 11
320.8005994339228
 21
250.3761098103943
 31
0.0
  0
LINE
  5
BB0
  8
0
 62
     0
 10
320.6755994339228
 20
250.49410981039429
 30
0.0
 11
320.8005994339228
 21
250.49410981039429
 31
0.0
  0
LINE
  5
BB1
  8
0
 62
     0
 10
320.6755994339228
 20
250.61210981039429
 30
0.0
 11
320.8005994339228
 21
250.61210981039429
 31
0.0
  0
LINE
  5
BB2
  8
0
 62
     0
 10
320.6755994339228
 20
250.7301098103944
 30
0.0
 11
320.8005994339228
 21
250.7301098103944
 31
0.0
  0
LINE
  5
BB3
  8
0
 62
     0
 10
320.6755994339228
 20
250.84810981039431
 30
0.0
 11
320.8005994339228
 21
250.84810981039431
 31
0.0
  0
LINE
  5
BB4
  8
0
 62
     0
 10
320.6755994339228
 20
250.9661098103943
 30
0.0
 11
320.8005994339228
 21
250.9661098103943
 31
0.0
  0
LINE
  5
BB5
  8
0
 62
     0
 10
320.6755994339228
 20
251.0841098103943
 30
0.0
 11
320.8005994339228
 21
251.0841098103943
 31
0.0
  0
LINE
  5
BB6
  8
0
 62
     0
 10
320.6755994339228
 20
251.20210981039429
 30
0.0
 11
320.8005994339228
 21
251.20210981039429
 31
0.0
  0
LINE
  5
BB7
  8
0
 62
     0
 10
320.6755994339228
 20
251.3201098103944
 30
0.0
 11
320.8005994339228
 21
251.3201098103944
 31
0.0
  0
LINE
  5
BB8
  8
0
 62
     0
 10
320.6755994339228
 20
251.43810981039431
 30
0.0
 11
320.8005994339228
 21
251.43810981039431
 31
0.0
  0
LINE
  5
BB9
  8
0
 62
     0
 10
320.6755994339228
 20
251.55610981039439
 30
0.0
 11
320.8005994339228
 21
251.55610981039439
 31
0.0
  0
LINE
  5
BBA
  8
0
 62
     0
 10
320.6755994339228
 20
251.6741098103943
 30
0.0
 11
320.8005994339228
 21
251.6741098103943
 31
0.0
  0
LINE
  5
BBB
  8
0
 62
     0
 10
320.6755994339228
 20
251.79210981039429
 30
0.0
 11
320.8005994339228
 21
251.79210981039429
 31
0.0
  0
LINE
  5
BBC
  8
0
 62
     0
 10
320.6755994339228
 20
251.91010981039429
 30
0.0
 11
320.8005994339228
 21
251.91010981039429
 31
0.0
  0
LINE
  5
BBD
  8
0
 62
     0
 10
320.6755994339228
 20
252.02810981039431
 30
0.0
 11
320.8005994339228
 21
252.02810981039431
 31
0.0
  0
LINE
  5
BBE
  8
0
 62
     0
 10
320.6755994339228
 20
252.14610981039439
 30
0.0
 11
320.8005994339228
 21
252.14610981039439
 31
0.0
  0
LINE
  5
BBF
  8
0
 62
     0
 10
320.6755994339228
 20
252.2641098103943
 30
0.0
 11
320.8005994339228
 21
252.2641098103943
 31
0.0
  0
LINE
  5
BC0
  8
0
 62
     0
 10
320.6755994339228
 20
252.3821098103943
 30
0.0
 11
320.8005994339228
 21
252.3821098103943
 31
0.0
  0
LINE
  5
BC1
  8
0
 62
     0
 10
320.6755994339228
 20
252.50010981039429
 30
0.0
 11
320.8005994339228
 21
252.50010981039429
 31
0.0
  0
LINE
  5
BC2
  8
0
 62
     0
 10
320.6755994339228
 20
252.61810981039429
 30
0.0
 11
320.8005994339228
 21
252.61810981039429
 31
0.0
  0
LINE
  5
BC3
  8
0
 62
     0
 10
320.6755994339228
 20
252.7361098103944
 30
0.0
 11
320.8005994339228
 21
252.7361098103944
 31
0.0
  0
LINE
  5
BC4
  8
0
 62
     0
 10
320.6755994339228
 20
252.85410981039431
 30
0.0
 11
320.8005994339228
 21
252.85410981039431
 31
0.0
  0
LINE
  5
BC5
  8
0
 62
     0
 10
320.6755994339228
 20
252.9721098103943
 30
0.0
 11
320.8005994339228
 21
252.9721098103943
 31
0.0
  0
LINE
  5
BC6
  8
0
 62
     0
 10
320.6755994339228
 20
253.0901098103943
 30
0.0
 11
320.8005994339228
 21
253.0901098103943
 31
0.0
  0
LINE
  5
BC7
  8
0
 62
     0
 10
320.6755994339228
 20
253.20810981039429
 30
0.0
 11
320.8005994339228
 21
253.20810981039429
 31
0.0
  0
LINE
  5
BC8
  8
0
 62
     0
 10
320.6755994339228
 20
253.32610981039431
 30
0.0
 11
320.8005994339228
 21
253.32610981039431
 31
0.0
  0
LINE
  5
BC9
  8
0
 62
     0
 10
320.6755994339228
 20
253.44410981039431
 30
0.0
 11
320.8005994339228
 21
253.44410981039431
 31
0.0
  0
LINE
  5
BCA
  8
0
 62
     0
 10
320.6755994339228
 20
253.5621098103943
 30
0.0
 11
320.8005994339228
 21
253.5621098103943
 31
0.0
  0
LINE
  5
BCB
  8
0
 62
     0
 10
320.6755994339228
 20
253.6801098103943
 30
0.0
 11
320.8005994339228
 21
253.6801098103943
 31
0.0
  0
LINE
  5
BCC
  8
0
 62
     0
 10
320.6755994339228
 20
253.79810981039429
 30
0.0
 11
320.8005994339228
 21
253.79810981039429
 31
0.0
  0
LINE
  5
BCD
  8
0
 62
     0
 10
320.6755994339228
 20
253.91610981039429
 30
0.0
 11
320.8005994339228
 21
253.91610981039429
 31
0.0
  0
LINE
  5
BCE
  8
0
 62
     0
 10
320.6755994339228
 20
254.03410981039431
 30
0.0
 11
320.8005994339228
 21
254.03410981039431
 31
0.0
  0
LINE
  5
BCF
  8
0
 62
     0
 10
320.6755994339228
 20
254.15210981039431
 30
0.0
 11
320.8005994339228
 21
254.15210981039431
 31
0.0
  0
LINE
  5
BD0
  8
0
 62
     0
 10
320.6755994339228
 20
254.2701098103943
 30
0.0
 11
320.8005994339228
 21
254.2701098103943
 31
0.0
  0
LINE
  5
BD1
  8
0
 62
     0
 10
320.6755994339228
 20
254.3881098103943
 30
0.0
 11
320.8005994339228
 21
254.3881098103943
 31
0.0
  0
LINE
  5
BD2
  8
0
 62
     0
 10
320.6755994339228
 20
254.50610981039429
 30
0.0
 11
320.8005994339228
 21
254.50610981039429
 31
0.0
  0
LINE
  5
BD3
  8
0
 62
     0
 10
320.6755994339228
 20
254.62410981039429
 30
0.0
 11
320.8005994339228
 21
254.62410981039429
 31
0.0
  0
LINE
  5
BD4
  8
0
 62
     0
 10
320.6755994339228
 20
254.7421098103944
 30
0.0
 11
320.8005994339228
 21
254.7421098103944
 31
0.0
  0
LINE
  5
BD5
  8
0
 62
     0
 10
320.6755994339228
 20
254.86010981039431
 30
0.0
 11
320.8005994339228
 21
254.86010981039431
 31
0.0
  0
LINE
  5
BD6
  8
0
 62
     0
 10
320.6755994339228
 20
254.9781098103943
 30
0.0
 11
320.8005994339228
 21
254.9781098103943
 31
0.0
  0
LINE
  5
BD7
  8
0
 62
     0
 10
320.6755994339228
 20
255.0961098103943
 30
0.0
 11
320.8005994339228
 21
255.0961098103943
 31
0.0
  0
LINE
  5
BD8
  8
0
 62
     0
 10
320.6755994339228
 20
255.21410981039429
 30
0.0
 11
320.8005994339228
 21
255.21410981039429
 31
0.0
  0
LINE
  5
BD9
  8
0
 62
     0
 10
320.6755994339228
 20
255.3321098103944
 30
0.0
 11
320.8005994339228
 21
255.3321098103944
 31
0.0
  0
LINE
  5
BDA
  8
0
 62
     0
 10
320.6755994339228
 20
255.45010981039431
 30
0.0
 11
320.8005994339228
 21
255.45010981039431
 31
0.0
  0
LINE
  5
BDB
  8
0
 62
     0
 10
320.6755994339228
 20
255.5681098103943
 30
0.0
 11
320.8005994339228
 21
255.5681098103943
 31
0.0
  0
LINE
  5
BDC
  8
0
 62
     0
 10
320.6755994339228
 20
255.6861098103943
 30
0.0
 11
320.8005994339228
 21
255.6861098103943
 31
0.0
  0
LINE
  5
BDD
  8
0
 62
     0
 10
320.6755994339228
 20
255.80410981039429
 30
0.0
 11
320.8005994339228
 21
255.80410981039429
 31
0.0
  0
LINE
  5
BDE
  8
0
 62
     0
 10
320.6755994339228
 20
255.92210981039429
 30
0.0
 11
320.8005994339228
 21
255.92210981039429
 31
0.0
  0
LINE
  5
BDF
  8
0
 62
     0
 10
320.6755994339228
 20
256.04010981039431
 30
0.0
 11
320.8005994339228
 21
256.04010981039431
 31
0.0
  0
LINE
  5
BE0
  8
0
 62
     0
 10
320.6755994339228
 20
256.15810981039431
 30
0.0
 11
320.8005994339228
 21
256.15810981039431
 31
0.0
  0
LINE
  5
BE1
  8
0
 62
     0
 10
320.6755994339228
 20
256.2761098103943
 30
0.0
 11
320.8005994339228
 21
256.2761098103943
 31
0.0
  0
LINE
  5
BE2
  8
0
 62
     0
 10
320.6755994339228
 20
256.3941098103943
 30
0.0
 11
320.8005994339228
 21
256.3941098103943
 31
0.0
  0
LINE
  5
BE3
  8
0
 62
     0
 10
320.6755994339228
 20
256.51210981039441
 30
0.0
 11
320.8005994339228
 21
256.51210981039441
 31
0.0
  0
LINE
  5
BE4
  8
0
 62
     0
 10
320.6755994339228
 20
256.63010981039429
 30
0.0
 11
320.8005994339228
 21
256.63010981039429
 31
0.0
  0
LINE
  5
BE5
  8
0
 62
     0
 10
320.6755994339228
 20
256.74810981039428
 30
0.0
 11
320.8005994339228
 21
256.74810981039428
 31
0.0
  0
LINE
  5
BE6
  8
0
 62
     0
 10
320.6755994339228
 20
256.86610981039428
 30
0.0
 11
320.8005994339228
 21
256.86610981039428
 31
0.0
  0
LINE
  5
BE7
  8
0
 62
     0
 10
320.6755994339228
 20
256.98410981039427
 30
0.0
 11
320.8005994339228
 21
256.98410981039427
 31
0.0
  0
LINE
  5
BE8
  8
0
 62
     0
 10
320.6755994339228
 20
257.10210981039432
 30
0.0
 11
320.8005994339228
 21
257.10210981039432
 31
0.0
  0
LINE
  5
BE9
  8
0
 62
     0
 10
320.6755994339228
 20
257.22010981039432
 30
0.0
 11
320.8005994339228
 21
257.22010981039432
 31
0.0
  0
LINE
  5
BEA
  8
0
 62
     0
 10
320.6755994339228
 20
257.33810981039431
 30
0.0
 11
320.8005994339228
 21
257.33810981039431
 31
0.0
  0
LINE
  5
BEB
  8
0
 62
     0
 10
320.6755994339228
 20
257.45610981039431
 30
0.0
 11
320.8005994339228
 21
257.45610981039431
 31
0.0
  0
LINE
  5
BEC
  8
0
 62
     0
 10
320.6755994339228
 20
257.5741098103943
 30
0.0
 11
320.8005994339228
 21
257.5741098103943
 31
0.0
  0
LINE
  5
BED
  8
0
 62
     0
 10
320.6755994339228
 20
257.6921098103943
 30
0.0
 11
320.8005994339228
 21
257.6921098103943
 31
0.0
  0
LINE
  5
BEE
  8
0
 62
     0
 10
320.6755994339228
 20
257.81010981039429
 30
0.0
 11
320.8005994339228
 21
257.81010981039429
 31
0.0
  0
LINE
  5
BEF
  8
0
 62
     0
 10
320.6755994339228
 20
257.9281098103944
 30
0.0
 11
320.8005994339228
 21
257.9281098103944
 31
0.0
  0
LINE
  5
BF0
  8
0
 62
     0
 10
320.6755994339228
 20
258.04610981039428
 30
0.0
 11
320.8005994339228
 21
258.04610981039428
 31
0.0
  0
LINE
  5
BF1
  8
0
 62
     0
 10
320.6755994339228
 20
258.16410981039428
 30
0.0
 11
320.8005994339228
 21
258.16410981039428
 31
0.0
  0
LINE
  5
BF2
  8
0
 62
     0
 10
320.6755994339228
 20
258.28210981039427
 30
0.0
 11
320.8005994339228
 21
258.28210981039427
 31
0.0
  0
LINE
  5
BF3
  8
0
 62
     0
 10
320.6755994339228
 20
258.40010981039433
 30
0.0
 11
320.8005994339228
 21
258.40010981039433
 31
0.0
  0
LINE
  5
BF4
  8
0
 62
     0
 10
320.6755994339228
 20
258.51810981039432
 30
0.0
 11
320.8005994339228
 21
258.51810981039432
 31
0.0
  0
LINE
  5
BF5
  8
0
 62
     0
 10
320.6755994339228
 20
258.63610981039432
 30
0.0
 11
320.8005994339228
 21
258.63610981039432
 31
0.0
  0
LINE
  5
BF6
  8
0
 62
     0
 10
320.6755994339228
 20
258.75410981039431
 30
0.0
 11
320.8005994339228
 21
258.75410981039431
 31
0.0
  0
LINE
  5
BF7
  8
0
 62
     0
 10
320.6755994339228
 20
258.87210981039431
 30
0.0
 11
320.8005994339228
 21
258.87210981039431
 31
0.0
  0
LINE
  5
BF8
  8
0
 62
     0
 10
320.6755994339228
 20
258.9901098103943
 30
0.0
 11
320.8005994339228
 21
258.9901098103943
 31
0.0
  0
LINE
  5
BF9
  8
0
 62
     0
 10
320.6755994339228
 20
259.10810981039441
 30
0.0
 11
320.8005994339228
 21
259.10810981039441
 31
0.0
  0
LINE
  5
BFA
  8
0
 62
     0
 10
320.6755994339228
 20
259.22610981039429
 30
0.0
 11
320.8005994339228
 21
259.22610981039429
 31
0.0
  0
LINE
  5
BFB
  8
0
 62
     0
 10
320.6755994339228
 20
259.34410981039429
 30
0.0
 11
320.8005994339228
 21
259.34410981039429
 31
0.0
  0
LINE
  5
BFC
  8
0
 62
     0
 10
320.6755994339228
 20
259.46210981039428
 30
0.0
 11
320.8005994339228
 21
259.46210981039428
 31
0.0
  0
LINE
  5
BFD
  8
0
 62
     0
 10
320.6755994339228
 20
259.58010981039428
 30
0.0
 11
320.8005994339228
 21
259.58010981039428
 31
0.0
  0
LINE
  5
BFE
  8
0
 62
     0
 10
320.6755994339228
 20
259.69810981039433
 30
0.0
 11
320.8005994339228
 21
259.69810981039433
 31
0.0
  0
LINE
  5
BFF
  8
0
 62
     0
 10
320.6755994339228
 20
259.81610981039432
 30
0.0
 11
320.8005994339228
 21
259.81610981039432
 31
0.0
  0
LINE
  5
C00
  8
0
 62
     0
 10
320.6755994339228
 20
259.93410981039432
 30
0.0
 11
320.8005994339228
 21
259.93410981039432
 31
0.0
  0
LINE
  5
C01
  8
0
 62
     0
 10
320.6755994339228
 20
260.05210981039431
 30
0.0
 11
320.8005994339228
 21
260.05210981039431
 31
0.0
  0
LINE
  5
C02
  8
0
 62
     0
 10
320.6755994339228
 20
260.17010981039431
 30
0.0
 11
320.8005994339228
 21
260.17010981039431
 31
0.0
  0
LINE
  5
C03
  8
0
 62
     0
 10
320.6755994339228
 20
260.2881098103943
 30
0.0
 11
320.8005994339228
 21
260.2881098103943
 31
0.0
  0
LINE
  5
C04
  8
0
 62
     0
 10
320.6755994339228
 20
260.40610981039441
 30
0.0
 11
320.8005994339228
 21
260.40610981039441
 31
0.0
  0
LINE
  5
C05
  8
0
 62
     0
 10
320.6755994339228
 20
260.52410981039429
 30
0.0
 11
320.8005994339228
 21
260.52410981039429
 31
0.0
  0
LINE
  5
C06
  8
0
 62
     0
 10
320.6755994339228
 20
260.64210981039429
 30
0.0
 11
320.8005994339228
 21
260.64210981039429
 31
0.0
  0
LINE
  5
C07
  8
0
 62
     0
 10
320.6755994339228
 20
260.76010981039428
 30
0.0
 11
320.8005994339228
 21
260.76010981039428
 31
0.0
  0
LINE
  5
C08
  8
0
 62
     0
 10
320.6755994339228
 20
260.87810981039428
 30
0.0
 11
320.8005994339228
 21
260.87810981039428
 31
0.0
  0
LINE
  5
C09
  8
0
 62
     0
 10
320.6755994339228
 20
260.99610981039427
 30
0.0
 11
320.8005994339228
 21
260.99610981039427
 31
0.0
  0
LINE
  5
C0A
  8
0
 62
     0
 10
320.6755994339228
 20
261.11410981039432
 30
0.0
 11
320.8005994339228
 21
261.11410981039432
 31
0.0
  0
LINE
  5
C0B
  8
0
 62
     0
 10
320.6755994339228
 20
261.23210981039432
 30
0.0
 11
320.8005994339228
 21
261.23210981039432
 31
0.0
  0
LINE
  5
C0C
  8
0
 62
     0
 10
320.6755994339228
 20
261.35010981039431
 30
0.0
 11
320.8005994339228
 21
261.35010981039431
 31
0.0
  0
LINE
  5
C0D
  8
0
 62
     0
 10
320.6755994339228
 20
261.46810981039431
 30
0.0
 11
320.8005994339228
 21
261.46810981039431
 31
0.0
  0
LINE
  5
C0E
  8
0
 62
     0
 10
320.6755994339228
 20
261.5861098103943
 30
0.0
 11
320.8005994339228
 21
261.5861098103943
 31
0.0
  0
LINE
  5
C0F
  8
0
 62
     0
 10
320.6755994339228
 20
261.70410981039441
 30
0.0
 11
320.8005994339228
 21
261.70410981039441
 31
0.0
  0
LINE
  5
C10
  8
0
 62
     0
 10
320.6755994339228
 20
261.82210981039441
 30
0.0
 11
320.8005994339228
 21
261.82210981039441
 31
0.0
  0
LINE
  5
C11
  8
0
 62
     0
 10
320.6755994339228
 20
261.94010981039429
 30
0.0
 11
320.8005994339228
 21
261.94010981039429
 31
0.0
  0
LINE
  5
C12
  8
0
 62
     0
 10
320.6755994339228
 20
262.0581098103944
 30
0.0
 11
320.8005994339228
 21
262.0581098103944
 31
0.0
  0
LINE
  5
C13
  8
0
 62
     0
 10
320.6755994339228
 20
262.17610981039428
 30
0.0
 11
320.8005994339228
 21
262.17610981039428
 31
0.0
  0
LINE
  5
C14
  8
0
 62
     0
 10
320.6755994339228
 20
262.29410981039427
 30
0.0
 11
320.8005994339228
 21
262.29410981039427
 31
0.0
  0
LINE
  5
C15
  8
0
 62
     0
 10
320.6755994339228
 20
262.41210981039433
 30
0.0
 11
320.8005994339228
 21
262.41210981039433
 31
0.0
  0
LINE
  5
C16
  8
0
 62
     0
 10
320.6755994339228
 20
262.53010981039432
 30
0.0
 11
320.8005994339228
 21
262.53010981039432
 31
0.0
  0
LINE
  5
C17
  8
0
 62
     0
 10
320.6755994339228
 20
262.64810981039432
 30
0.0
 11
320.8005994339228
 21
262.64810981039432
 31
0.0
  0
LINE
  5
C18
  8
0
 62
     0
 10
320.6755994339228
 20
262.76610981039431
 30
0.0
 11
320.8005994339228
 21
262.76610981039431
 31
0.0
  0
LINE
  5
C19
  8
0
 62
     0
 10
320.6755994339228
 20
262.88410981039431
 30
0.0
 11
320.8005994339228
 21
262.88410981039431
 31
0.0
  0
LINE
  5
C1A
  8
0
 62
     0
 10
320.6755994339228
 20
263.00210981039442
 30
0.0
 11
320.8005994339228
 21
263.00210981039442
 31
0.0
  0
LINE
  5
C1B
  8
0
 62
     0
 10
320.6755994339228
 20
263.1201098103943
 30
0.0
 11
320.8005994339228
 21
263.1201098103943
 31
0.0
  0
LINE
  5
C1C
  8
0
 62
     0
 10
320.6755994339228
 20
263.23810981039441
 30
0.0
 11
320.8005994339228
 21
263.23810981039441
 31
0.0
  0
LINE
  5
C1D
  8
0
 62
     0
 10
320.6755994339228
 20
263.35610981039429
 30
0.0
 11
320.8005994339228
 21
263.35610981039429
 31
0.0
  0
LINE
  5
C1E
  8
0
 62
     0
 10
320.6755994339228
 20
263.4741098103944
 30
0.0
 11
320.8005994339228
 21
263.4741098103944
 31
0.0
  0
LINE
  5
C1F
  8
0
 62
     0
 10
320.6755994339228
 20
263.59210981039428
 30
0.0
 11
320.8005994339228
 21
263.59210981039428
 31
0.0
  0
LINE
  5
C20
  8
0
 62
     0
 10
320.6755994339228
 20
263.71010981039427
 30
0.0
 11
320.8005994339228
 21
263.71010981039427
 31
0.0
  0
LINE
  5
C21
  8
0
 62
     0
 10
320.6755994339228
 20
263.82810981039432
 30
0.0
 11
320.8005994339228
 21
263.82810981039432
 31
0.0
  0
LINE
  5
C22
  8
0
 62
     0
 10
320.6755994339228
 20
263.94610981039432
 30
0.0
 11
320.8005994339228
 21
263.94610981039432
 31
0.0
  0
LINE
  5
C23
  8
0
 62
     0
 10
320.6755994339228
 20
264.06410981039431
 30
0.0
 11
320.8005994339228
 21
264.06410981039431
 31
0.0
  0
LINE
  5
C24
  8
0
 62
     0
 10
320.6755994339228
 20
264.18210981039431
 30
0.0
 11
320.8005994339228
 21
264.18210981039431
 31
0.0
  0
LINE
  5
C25
  8
0
 62
     0
 10
320.6755994339228
 20
264.3001098103943
 30
0.0
 11
320.8005994339228
 21
264.3001098103943
 31
0.0
  0
LINE
  5
C26
  8
0
 62
     0
 10
320.6755994339228
 20
264.41810981039441
 30
0.0
 11
320.8005994339228
 21
264.41810981039441
 31
0.0
  0
LINE
  5
C27
  8
0
 62
     0
 10
320.6755994339228
 20
264.53610981039429
 30
0.0
 11
320.8005994339228
 21
264.53610981039429
 31
0.0
  0
LINE
  5
C28
  8
0
 62
     0
 10
320.6755994339228
 20
264.6541098103944
 30
0.0
 11
320.8005994339228
 21
264.6541098103944
 31
0.0
  0
LINE
  5
C29
  8
0
 62
     0
 10
320.6755994339228
 20
264.77210981039428
 30
0.0
 11
320.8005994339228
 21
264.77210981039428
 31
0.0
  0
LINE
  5
C2A
  8
0
 62
     0
 10
320.6755994339228
 20
264.89010981039439
 30
0.0
 11
320.8005994339228
 21
264.89010981039439
 31
0.0
  0
LINE
  5
C2B
  8
0
 62
     0
 10
320.6755994339228
 20
265.00810981039427
 30
0.0
 11
320.8005994339228
 21
265.00810981039427
 31
0.0
  0
LINE
  5
C2C
  8
0
 62
     0
 10
320.6755994339228
 20
265.12610981039433
 30
0.0
 11
320.8005994339228
 21
265.12610981039433
 31
0.0
  0
LINE
  5
C2D
  8
0
 62
     0
 10
320.6755994339228
 20
265.24410981039432
 30
0.0
 11
320.8005994339228
 21
265.24410981039432
 31
0.0
  0
LINE
  5
C2E
  8
0
 62
     0
 10
320.6755994339228
 20
265.36210981039432
 30
0.0
 11
320.8005994339228
 21
265.36210981039432
 31
0.0
  0
LINE
  5
C2F
  8
0
 62
     0
 10
320.6755994339228
 20
265.48010981039431
 30
0.0
 11
320.8005994339228
 21
265.48010981039431
 31
0.0
  0
LINE
  5
C30
  8
0
 62
     0
 10
320.6755994339228
 20
265.59810981039431
 30
0.0
 11
320.8005994339228
 21
265.59810981039431
 31
0.0
  0
LINE
  5
C31
  8
0
 62
     0
 10
320.6755994339228
 20
265.7161098103943
 30
0.0
 11
320.8005994339228
 21
265.7161098103943
 31
0.0
  0
LINE
  5
C32
  8
0
 62
     0
 10
320.6755994339228
 20
265.83410981039441
 30
0.0
 11
320.8005994339228
 21
265.83410981039441
 31
0.0
  0
LINE
  5
C33
  8
0
 62
     0
 10
320.6755994339228
 20
265.95210981039429
 30
0.0
 11
320.8005994339228
 21
265.95210981039429
 31
0.0
  0
LINE
  5
C34
  8
0
 62
     0
 10
320.6755994339228
 20
266.0701098103944
 30
0.0
 11
320.8005994339228
 21
266.0701098103944
 31
0.0
  0
LINE
  5
C35
  8
0
 62
     0
 10
320.6755994339228
 20
266.18810981039428
 30
0.0
 11
320.8005994339228
 21
266.18810981039428
 31
0.0
  0
LINE
  5
C36
  8
0
 62
     0
 10
320.6755994339228
 20
266.30610981039428
 30
0.0
 11
320.8005994339228
 21
266.30610981039428
 31
0.0
  0
LINE
  5
C37
  8
0
 62
     0
 10
320.6755994339228
 20
266.42410981039433
 30
0.0
 11
320.8005994339228
 21
266.42410981039433
 31
0.0
  0
LINE
  5
C38
  8
0
 62
     0
 10
320.6755994339228
 20
266.54210981039432
 30
0.0
 11
320.8005994339228
 21
266.54210981039432
 31
0.0
  0
LINE
  5
C39
  8
0
 62
     0
 10
320.6755994339228
 20
266.66010981039432
 30
0.0
 11
320.8005994339228
 21
266.66010981039432
 31
0.0
  0
LINE
  5
C3A
  8
0
 62
     0
 10
320.6755994339228
 20
266.77810981039431
 30
0.0
 11
320.8005994339228
 21
266.77810981039431
 31
0.0
  0
LINE
  5
C3B
  8
0
 62
     0
 10
320.6755994339228
 20
266.89610981039431
 30
0.0
 11
320.8005994339228
 21
266.89610981039431
 31
0.0
  0
LINE
  5
C3C
  8
0
 62
     0
 10
320.6755994339228
 20
267.0141098103943
 30
0.0
 11
320.8005994339228
 21
267.0141098103943
 31
0.0
  0
LINE
  5
C3D
  8
0
 62
     0
 10
320.6755994339228
 20
267.1321098103943
 30
0.0
 11
320.8005994339228
 21
267.1321098103943
 31
0.0
  0
LINE
  5
C3E
  8
0
 62
     0
 10
320.6755994339228
 20
267.25010981039441
 30
0.0
 11
320.8005994339228
 21
267.25010981039441
 31
0.0
  0
LINE
  5
C3F
  8
0
 62
     0
 10
320.6755994339228
 20
267.36810981039429
 30
0.0
 11
320.8005994339228
 21
267.36810981039429
 31
0.0
  0
LINE
  5
C40
  8
0
 62
     0
 10
320.6755994339228
 20
267.4861098103944
 30
0.0
 11
320.8005994339228
 21
267.4861098103944
 31
0.0
  0
LINE
  5
C41
  8
0
 62
     0
 10
320.6755994339228
 20
267.60410981039428
 30
0.0
 11
320.8005994339228
 21
267.60410981039428
 31
0.0
  0
LINE
  5
C42
  8
0
 62
     0
 10
320.6755994339228
 20
267.72210981039427
 30
0.0
 11
320.8005994339228
 21
267.72210981039427
 31
0.0
  0
LINE
  5
C43
  8
0
 62
     0
 10
320.6755994339228
 20
267.84010981039432
 30
0.0
 11
320.8005994339228
 21
267.84010981039432
 31
0.0
  0
LINE
  5
C44
  8
0
 62
     0
 10
320.6755994339228
 20
267.95810981039432
 30
0.0
 11
320.8005994339228
 21
267.95810981039432
 31
0.0
  0
LINE
  5
C45
  8
0
 62
     0
 10
320.6755994339228
 20
268.07610981039431
 30
0.0
 11
320.8005994339228
 21
268.07610981039431
 31
0.0
  0
LINE
  5
C46
  8
0
 62
     0
 10
320.6755994339228
 20
268.19410981039431
 30
0.0
 11
320.8005994339228
 21
268.19410981039431
 31
0.0
  0
LINE
  5
C47
  8
0
 62
     0
 10
320.6755994339228
 20
268.3121098103943
 30
0.0
 11
320.8005994339228
 21
268.3121098103943
 31
0.0
  0
LINE
  5
C48
  8
0
 62
     0
 10
320.6755994339228
 20
268.43010981039441
 30
0.0
 11
320.8005994339228
 21
268.43010981039441
 31
0.0
  0
LINE
  5
C49
  8
0
 62
     0
 10
320.6755994339228
 20
268.54810981039429
 30
0.0
 11
320.8005994339228
 21
268.54810981039429
 31
0.0
  0
LINE
  5
C4A
  8
0
 62
     0
 10
320.6755994339228
 20
268.6661098103944
 30
0.0
 11
320.8005994339228
 21
268.6661098103944
 31
0.0
  0
LINE
  5
C4B
  8
0
 62
     0
 10
320.6755994339228
 20
268.78410981039428
 30
0.0
 11
320.8005994339228
 21
268.78410981039428
 31
0.0
  0
LINE
  5
C4C
  8
0
 62
     0
 10
320.6755994339228
 20
268.90210981039428
 30
0.0
 11
320.8005994339228
 21
268.90210981039428
 31
0.0
  0
LINE
  5
C4D
  8
0
 62
     0
 10
320.6755994339228
 20
269.02010981039427
 30
0.0
 11
320.8005994339228
 21
269.02010981039427
 31
0.0
  0
LINE
  5
C4E
  8
0
 62
     0
 10
320.6755994339228
 20
269.13810981039433
 30
0.0
 11
320.8005994339228
 21
269.13810981039433
 31
0.0
  0
LINE
  5
C4F
  8
0
 62
     0
 10
320.6755994339228
 20
269.25610981039432
 30
0.0
 11
320.8005994339228
 21
269.25610981039432
 31
0.0
  0
LINE
  5
C50
  8
0
 62
     0
 10
320.6755994339228
 20
269.37410981039432
 30
0.0
 11
320.8005994339228
 21
269.37410981039432
 31
0.0
  0
LINE
  5
C51
  8
0
 62
     0
 10
320.6755994339228
 20
269.49210981039431
 30
0.0
 11
320.8005994339228
 21
269.49210981039431
 31
0.0
  0
LINE
  5
C52
  8
0
 62
     0
 10
320.6755994339228
 20
269.61010981039431
 30
0.0
 11
320.8005994339228
 21
269.61010981039431
 31
0.0
  0
LINE
  5
C53
  8
0
 62
     0
 10
320.6755994339228
 20
269.7281098103943
 30
0.0
 11
320.8005994339228
 21
269.7281098103943
 31
0.0
  0
LINE
  5
C54
  8
0
 62
     0
 10
320.6755994339228
 20
269.84610981039441
 30
0.0
 11
320.8005994339228
 21
269.84610981039441
 31
0.0
  0
LINE
  5
C55
  8
0
 62
     0
 10
320.6755994339228
 20
269.96410981039429
 30
0.0
 11
320.8005994339228
 21
269.96410981039429
 31
0.0
  0
LINE
  5
C56
  8
0
 62
     0
 10
320.6755994339228
 20
270.08210981039429
 30
0.0
 11
320.8005994339228
 21
270.08210981039429
 31
0.0
  0
LINE
  5
C57
  8
0
 62
     0
 10
320.6755994339228
 20
270.20010981039428
 30
0.0
 11
320.8005994339228
 21
270.20010981039428
 31
0.0
  0
LINE
  5
C58
  8
0
 62
     0
 10
320.6755994339228
 20
270.31810981039428
 30
0.0
 11
320.8005994339228
 21
270.31810981039428
 31
0.0
  0
LINE
  5
C59
  8
0
 62
     0
 10
320.6755994339228
 20
270.43610981039433
 30
0.0
 11
320.8005994339228
 21
270.43610981039433
 31
0.0
  0
LINE
  5
C5A
  8
0
 62
     0
 10
320.6755994339228
 20
270.55410981039432
 30
0.0
 11
320.8005994339228
 21
270.55410981039432
 31
0.0
  0
LINE
  5
C5B
  8
0
 62
     0
 10
320.6755994339228
 20
270.67210981039432
 30
0.0
 11
320.8005994339228
 21
270.67210981039432
 31
0.0
  0
LINE
  5
C5C
  8
0
 62
     0
 10
320.6755994339228
 20
270.79010981039431
 30
0.0
 11
320.8005994339228
 21
270.79010981039431
 31
0.0
  0
LINE
  5
C5D
  8
0
 62
     0
 10
320.6755994339228
 20
270.90810981039431
 30
0.0
 11
320.8005994339228
 21
270.90810981039431
 31
0.0
  0
LINE
  5
C5E
  8
0
 62
     0
 10
320.6755994339228
 20
271.0261098103943
 30
0.0
 11
320.8005994339228
 21
271.0261098103943
 31
0.0
  0
LINE
  5
C5F
  8
0
 62
     0
 10
320.6755994339228
 20
271.1441098103943
 30
0.0
 11
320.8005994339228
 21
271.1441098103943
 31
0.0
  0
LINE
  5
C60
  8
0
 62
     0
 10
320.6755994339228
 20
271.26210981039441
 30
0.0
 11
320.8005994339228
 21
271.26210981039441
 31
0.0
  0
LINE
  5
C61
  8
0
 62
     0
 10
320.6755994339228
 20
271.38010981039429
 30
0.0
 11
320.8005994339228
 21
271.38010981039429
 31
0.0
  0
LINE
  5
C62
  8
0
 62
     0
 10
320.6755994339228
 20
271.49810981039428
 30
0.0
 11
320.8005994339228
 21
271.49810981039428
 31
0.0
  0
LINE
  5
C63
  8
0
 62
     0
 10
320.6755994339228
 20
271.61610981039428
 30
0.0
 11
320.8005994339228
 21
271.61610981039428
 31
0.0
  0
LINE
  5
C64
  8
0
 62
     0
 10
320.6755994339228
 20
271.73410981039427
 30
0.0
 11
320.8005994339228
 21
271.73410981039427
 31
0.0
  0
LINE
  5
C65
  8
0
 62
     0
 10
320.6755994339228
 20
271.85210981039432
 30
0.0
 11
320.8005994339228
 21
271.85210981039432
 31
0.0
  0
LINE
  5
C66
  8
0
 62
     0
 10
320.6755994339228
 20
271.97010981039432
 30
0.0
 11
320.8005994339228
 21
271.97010981039432
 31
0.0
  0
LINE
  5
C67
  8
0
 62
     0
 10
320.6755994339228
 20
272.08810981039431
 30
0.0
 11
320.8005994339228
 21
272.08810981039431
 31
0.0
  0
LINE
  5
C68
  8
0
 62
     0
 10
320.6755994339228
 20
272.20610981039431
 30
0.0
 11
320.8005994339228
 21
272.20610981039431
 31
0.0
  0
LINE
  5
C69
  8
0
 62
     0
 10
320.6755994339228
 20
272.3241098103943
 30
0.0
 11
320.8005994339228
 21
272.3241098103943
 31
0.0
  0
LINE
  5
C6A
  8
0
 62
     0
 10
320.6755994339228
 20
272.44210981039441
 30
0.0
 11
320.8005994339228
 21
272.44210981039441
 31
0.0
  0
LINE
  5
C6B
  8
0
 62
     0
 10
320.6755994339228
 20
272.56010981039429
 30
0.0
 11
320.8005994339228
 21
272.56010981039429
 31
0.0
  0
LINE
  5
C6C
  8
0
 62
     0
 10
320.6755994339228
 20
272.67810981039429
 30
0.0
 11
320.8005994339228
 21
272.67810981039429
 31
0.0
  0
LINE
  5
C6D
  8
0
 62
     0
 10
320.6755994339228
 20
272.79610981039428
 30
0.0
 11
320.8005994339228
 21
272.79610981039428
 31
0.0
  0
LINE
  5
C6E
  8
0
 62
     0
 10
320.6755994339228
 20
272.91410981039428
 30
0.0
 11
320.8005994339228
 21
272.91410981039428
 31
0.0
  0
LINE
  5
C6F
  8
0
 62
     0
 10
320.6755994339228
 20
273.03210981039427
 30
0.0
 11
320.8005994339228
 21
273.03210981039427
 31
0.0
  0
LINE
  5
C70
  8
0
 62
     0
 10
320.6755994339228
 20
273.15010981039433
 30
0.0
 11
320.8005994339228
 21
273.15010981039433
 31
0.0
  0
LINE
  5
C71
  8
0
 62
     0
 10
320.6755994339228
 20
273.26810981039432
 30
0.0
 11
320.8005994339228
 21
273.26810981039432
 31
0.0
  0
LINE
  5
C72
  8
0
 62
     0
 10
320.6755994339228
 20
273.38610981039432
 30
0.0
 11
320.8005994339228
 21
273.38610981039432
 31
0.0
  0
LINE
  5
C73
  8
0
 62
     0
 10
320.6755994339228
 20
273.50410981039431
 30
0.0
 11
320.8005994339228
 21
273.50410981039431
 31
0.0
  0
LINE
  5
C74
  8
0
 62
     0
 10
320.6755994339228
 20
273.62210981039431
 30
0.0
 11
320.8005994339228
 21
273.62210981039431
 31
0.0
  0
LINE
  5
C75
  8
0
 62
     0
 10
320.6755994339228
 20
273.7401098103943
 30
0.0
 11
320.8005994339228
 21
273.7401098103943
 31
0.0
  0
LINE
  5
C76
  8
0
 62
     0
 10
320.6755994339228
 20
273.85810981039441
 30
0.0
 11
320.8005994339228
 21
273.85810981039441
 31
0.0
  0
LINE
  5
C77
  8
0
 62
     0
 10
320.6755994339228
 20
273.97610981039441
 30
0.0
 11
320.8005994339228
 21
273.97610981039441
 31
0.0
  0
LINE
  5
C78
  8
0
 62
     0
 10
320.6755994339228
 20
274.09410981039429
 30
0.0
 11
320.8005994339228
 21
274.09410981039429
 31
0.0
  0
LINE
  5
C79
  8
0
 62
     0
 10
320.6755994339228
 20
274.21210981039428
 30
0.0
 11
320.8005994339228
 21
274.21210981039428
 31
0.0
  0
LINE
  5
C7A
  8
0
 62
     0
 10
320.6755994339228
 20
274.33010981039428
 30
0.0
 11
320.8005994339228
 21
274.33010981039428
 31
0.0
  0
LINE
  5
C7B
  8
0
 62
     0
 10
320.6755994339228
 20
274.44810981039433
 30
0.0
 11
320.8005994339228
 21
274.44810981039433
 31
0.0
  0
LINE
  5
C7C
  8
0
 62
     0
 10
320.6755994339228
 20
274.56610981039432
 30
0.0
 11
320.8005994339228
 21
274.56610981039432
 31
0.0
  0
LINE
  5
C7D
  8
0
 62
     0
 10
320.6755994339228
 20
274.68410981039432
 30
0.0
 11
320.8005994339228
 21
274.68410981039432
 31
0.0
  0
LINE
  5
C7E
  8
0
 62
     0
 10
320.6755994339228
 20
274.80210981039431
 30
0.0
 11
320.8005994339228
 21
274.80210981039431
 31
0.0
  0
LINE
  5
C7F
  8
0
 62
     0
 10
320.6755994339228
 20
274.92010981039431
 30
0.0
 11
320.8005994339228
 21
274.92010981039431
 31
0.0
  0
LINE
  5
C80
  8
0
 62
     0
 10
320.6755994339228
 20
275.0381098103943
 30
0.0
 11
320.8005994339228
 21
275.0381098103943
 31
0.0
  0
LINE
  5
C81
  8
0
 62
     0
 10
320.6755994339228
 20
275.15610981039441
 30
0.0
 11
320.8005994339228
 21
275.15610981039441
 31
0.0
  0
LINE
  5
C82
  8
0
 62
     0
 10
320.6755994339228
 20
275.27410981039429
 30
0.0
 11
320.8005994339228
 21
275.27410981039429
 31
0.0
  0
LINE
  5
C83
  8
0
 62
     0
 10
320.6755994339228
 20
275.3921098103944
 30
0.0
 11
320.8005994339228
 21
275.3921098103944
 31
0.0
  0
LINE
  5
C84
  8
0
 62
     0
 10
320.6755994339228
 20
275.51010981039428
 30
0.0
 11
320.8005994339228
 21
275.51010981039428
 31
0.0
  0
LINE
  5
C85
  8
0
 62
     0
 10
320.6755994339228
 20
275.62810981039439
 30
0.0
 11
320.8005994339228
 21
275.62810981039439
 31
0.0
  0
LINE
  5
C86
  8
0
 62
     0
 10
320.6755994339228
 20
275.74610981039427
 30
0.0
 11
320.8005994339228
 21
275.74610981039427
 31
0.0
  0
LINE
  5
C87
  8
0
 62
     0
 10
320.6755994339228
 20
275.86410981039432
 30
0.0
 11
320.8005994339228
 21
275.86410981039432
 31
0.0
  0
LINE
  5
C88
  8
0
 62
     0
 10
320.6755994339228
 20
275.98210981039432
 30
0.0
 11
320.8005994339228
 21
275.98210981039432
 31
0.0
  0
LINE
  5
C89
  8
0
 62
     0
 10
320.6755994339228
 20
276.10010981039431
 30
0.0
 11
320.8005994339228
 21
276.10010981039431
 31
0.0
  0
LINE
  5
C8A
  8
0
 62
     0
 10
320.6755994339228
 20
276.21810981039431
 30
0.0
 11
320.8005994339228
 21
276.21810981039431
 31
0.0
  0
LINE
  5
C8B
  8
0
 62
     0
 10
320.6755994339228
 20
276.3361098103943
 30
0.0
 11
320.8005994339228
 21
276.3361098103943
 31
0.0
  0
LINE
  5
C8C
  8
0
 62
     0
 10
320.6755994339228
 20
276.4541098103943
 30
0.0
 11
320.8005994339228
 21
276.4541098103943
 31
0.0
  0
LINE
  5
C8D
  8
0
 62
     0
 10
320.6755994339228
 20
276.57210981039441
 30
0.0
 11
320.8005994339228
 21
276.57210981039441
 31
0.0
  0
LINE
  5
C8E
  8
0
 62
     0
 10
320.6755994339228
 20
276.69010981039429
 30
0.0
 11
320.8005994339228
 21
276.69010981039429
 31
0.0
  0
LINE
  5
C8F
  8
0
 62
     0
 10
320.6755994339228
 20
276.8081098103944
 30
0.0
 11
320.8005994339228
 21
276.8081098103944
 31
0.0
  0
LINE
  5
C90
  8
0
 62
     0
 10
320.6755994339228
 20
276.92610981039428
 30
0.0
 11
320.8005994339228
 21
276.92610981039428
 31
0.0
  0
LINE
  5
C91
  8
0
 62
     0
 10
320.6755994339228
 20
277.04410981039439
 30
0.0
 11
320.8005994339228
 21
277.04410981039439
 31
0.0
  0
LINE
  5
C92
  8
0
 62
     0
 10
320.6755994339228
 20
277.16210981039433
 30
0.0
 11
320.8005994339228
 21
277.16210981039433
 31
0.0
  0
LINE
  5
C93
  8
0
 62
     0
 10
320.6755994339228
 20
277.28010981039432
 30
0.0
 11
320.8005994339228
 21
277.28010981039432
 31
0.0
  0
LINE
  5
C94
  8
0
 62
     0
 10
320.6755994339228
 20
277.39810981039432
 30
0.0
 11
320.8005994339228
 21
277.39810981039432
 31
0.0
  0
LINE
  5
C95
  8
0
 62
     0
 10
320.6755994339228
 20
277.51610981039431
 30
0.0
 11
320.8005994339228
 21
277.51610981039431
 31
0.0
  0
LINE
  5
C96
  8
0
 62
     0
 10
320.6755994339228
 20
277.63410981039431
 30
0.0
 11
320.8005994339228
 21
277.63410981039431
 31
0.0
  0
LINE
  5
C97
  8
0
 62
     0
 10
320.6755994339228
 20
277.75210981039442
 30
0.0
 11
320.8005994339228
 21
277.75210981039442
 31
0.0
  0
LINE
  5
C98
  8
0
 62
     0
 10
320.6755994339228
 20
277.8701098103943
 30
0.0
 11
320.8005994339228
 21
277.8701098103943
 31
0.0
  0
LINE
  5
C99
  8
0
 62
     0
 10
320.6755994339228
 20
277.98810981039441
 30
0.0
 11
320.8005994339228
 21
277.98810981039441
 31
0.0
  0
LINE
  5
C9A
  8
0
 62
     0
 10
320.6755994339228
 20
278.10610981039429
 30
0.0
 11
320.8005994339228
 21
278.10610981039429
 31
0.0
  0
LINE
  5
C9B
  8
0
 62
     0
 10
320.6755994339228
 20
278.2241098103944
 30
0.0
 11
320.8005994339228
 21
278.2241098103944
 31
0.0
  0
LINE
  5
C9C
  8
0
 62
     0
 10
320.6755994339228
 20
278.34210981039428
 30
0.0
 11
320.8005994339228
 21
278.34210981039428
 31
0.0
  0
LINE
  5
C9D
  8
0
 62
     0
 10
320.6755994339228
 20
278.46010981039427
 30
0.0
 11
320.8005994339228
 21
278.46010981039427
 31
0.0
  0
LINE
  5
C9E
  8
0
 62
     0
 10
320.6755994339228
 20
278.57810981039432
 30
0.0
 11
320.8005994339228
 21
278.57810981039432
 31
0.0
  0
LINE
  5
C9F
  8
0
 62
     0
 10
320.6755994339228
 20
278.69610981039432
 30
0.0
 11
320.8005994339228
 21
278.69610981039432
 31
0.0
  0
LINE
  5
CA0
  8
0
 62
     0
 10
320.6755994339228
 20
278.81410981039431
 30
0.0
 11
320.8005994339228
 21
278.81410981039431
 31
0.0
  0
LINE
  5
CA1
  8
0
 62
     0
 10
320.6755994339228
 20
278.93210981039431
 30
0.0
 11
320.8005994339228
 21
278.93210981039431
 31
0.0
  0
LINE
  5
CA2
  8
0
 62
     0
 10
320.6755994339228
 20
279.0501098103943
 30
0.0
 11
320.8005994339228
 21
279.0501098103943
 31
0.0
  0
LINE
  5
CA3
  8
0
 62
     0
 10
320.6755994339228
 20
279.16810981039441
 30
0.0
 11
320.8005994339228
 21
279.16810981039441
 31
0.0
  0
LINE
  5
CA4
  8
0
 62
     0
 10
320.6755994339228
 20
279.28610981039429
 30
0.0
 11
320.8005994339228
 21
279.28610981039429
 31
0.0
  0
LINE
  5
CA5
  8
0
 62
     0
 10
320.6755994339228
 20
279.4041098103944
 30
0.0
 11
320.8005994339228
 21
279.4041098103944
 31
0.0
  0
LINE
  5
CA6
  8
0
 62
     0
 10
320.6755994339228
 20
279.52210981039428
 30
0.0
 11
320.8005994339228
 21
279.52210981039428
 31
0.0
  0
LINE
  5
CA7
  8
0
 62
     0
 10
320.6755994339228
 20
279.64010981039428
 30
0.0
 11
320.8005994339228
 21
279.64010981039428
 31
0.0
  0
LINE
  5
CA8
  8
0
 62
     0
 10
320.6755994339228
 20
279.75810981039427
 30
0.0
 11
320.8005994339228
 21
279.75810981039427
 31
0.0
  0
LINE
  5
CA9
  8
0
 62
     0
 10
320.6755994339228
 20
279.87610981039433
 30
0.0
 11
320.8005994339228
 21
279.87610981039433
 31
0.0
  0
LINE
  5
CAA
  8
0
 62
     0
 10
320.6755994339228
 20
279.99410981039432
 30
0.0
 11
320.8005994339228
 21
279.99410981039432
 31
0.0
  0
LINE
  5
CAB
  8
0
 62
     0
 10
320.6755994339228
 20
280.11210981039432
 30
0.0
 11
320.8005994339228
 21
280.11210981039432
 31
0.0
  0
LINE
  5
CAC
  8
0
 62
     0
 10
320.6755994339228
 20
280.23010981039431
 30
0.0
 11
320.8005994339228
 21
280.23010981039431
 31
0.0
  0
LINE
  5
CAD
  8
0
 62
     0
 10
320.6755994339228
 20
280.34810981039431
 30
0.0
 11
320.8005994339228
 21
280.34810981039431
 31
0.0
  0
LINE
  5
CAE
  8
0
 62
     0
 10
320.6755994339228
 20
280.4661098103943
 30
0.0
 11
320.8005994339228
 21
280.4661098103943
 31
0.0
  0
LINE
  5
CAF
  8
0
 62
     0
 10
320.6755994339228
 20
280.58410981039441
 30
0.0
 11
320.8005994339228
 21
280.58410981039441
 31
0.0
  0
LINE
  5
CB0
  8
0
 62
     0
 10
320.6755994339228
 20
280.70210981039429
 30
0.0
 11
320.8005994339228
 21
280.70210981039429
 31
0.0
  0
LINE
  5
CB1
  8
0
 62
     0
 10
320.6755994339228
 20
280.8201098103944
 30
0.0
 11
320.8005994339228
 21
280.8201098103944
 31
0.0
  0
LINE
  5
CB2
  8
0
 62
     0
 10
320.6755994339228
 20
280.93810981039428
 30
0.0
 11
320.8005994339228
 21
280.93810981039428
 31
0.0
  0
LINE
  5
CB3
  8
0
 62
     0
 10
320.6755994339228
 20
281.05610981039439
 30
0.0
 11
320.8005994339228
 21
281.05610981039439
 31
0.0
  0
LINE
  5
CB4
  8
0
 62
     0
 10
320.6755994339228
 20
281.17410981039433
 30
0.0
 11
320.8005994339228
 21
281.17410981039433
 31
0.0
  0
LINE
  5
CB5
  8
0
 62
     0
 10
320.6755994339228
 20
281.29210981039432
 30
0.0
 11
320.8005994339228
 21
281.29210981039432
 31
0.0
  0
LINE
  5
CB6
  8
0
 62
     0
 10
320.6755994339228
 20
281.41010981039432
 30
0.0
 11
320.8005994339228
 21
281.41010981039432
 31
0.0
  0
LINE
  5
CB7
  8
0
 62
     0
 10
320.6755994339228
 20
281.52810981039431
 30
0.0
 11
320.8005994339228
 21
281.52810981039431
 31
0.0
  0
LINE
  5
CB8
  8
0
 62
     0
 10
320.6755994339228
 20
281.64610981039431
 30
0.0
 11
320.8005994339228
 21
281.64610981039431
 31
0.0
  0
LINE
  5
CB9
  8
0
 62
     0
 10
320.6755994339228
 20
281.7641098103943
 30
0.0
 11
320.8005994339228
 21
281.7641098103943
 31
0.0
  0
LINE
  5
CBA
  8
0
 62
     0
 10
320.6755994339228
 20
281.8821098103943
 30
0.0
 11
320.8005994339228
 21
281.8821098103943
 31
0.0
  0
LINE
  5
CBB
  8
0
 62
     0
 10
320.6755994339228
 20
282.00010981039441
 30
0.0
 11
320.8005994339228
 21
282.00010981039441
 31
0.0
  0
LINE
  5
CBC
  8
0
 62
     0
 10
320.6755994339228
 20
282.11810981039429
 30
0.0
 11
320.8005994339228
 21
282.11810981039429
 31
0.0
  0
LINE
  5
CBD
  8
0
 62
     0
 10
320.6755994339228
 20
282.23610981039428
 30
0.0
 11
320.8005994339228
 21
282.23610981039428
 31
0.0
  0
LINE
  5
CBE
  8
0
 62
     0
 10
320.6755994339228
 20
282.35410981039428
 30
0.0
 11
320.8005994339228
 21
282.35410981039428
 31
0.0
  0
LINE
  5
CBF
  8
0
 62
     0
 10
320.6755994339228
 20
282.47210981039427
 30
0.0
 11
320.8005994339228
 21
282.47210981039427
 31
0.0
  0
LINE
  5
CC0
  8
0
 62
     0
 10
320.6755994339228
 20
282.59010981039432
 30
0.0
 11
320.8005994339228
 21
282.59010981039432
 31
0.0
  0
LINE
  5
CC1
  8
0
 62
     0
 10
320.6755994339228
 20
282.70810981039432
 30
0.0
 11
320.8005994339228
 21
282.70810981039432
 31
0.0
  0
LINE
  5
CC2
  8
0
 62
     0
 10
320.6755994339228
 20
282.82610981039431
 30
0.0
 11
320.8005994339228
 21
282.82610981039431
 31
0.0
  0
LINE
  5
CC3
  8
0
 62
     0
 10
320.6755994339228
 20
282.94410981039431
 30
0.0
 11
320.8005994339228
 21
282.94410981039431
 31
0.0
  0
LINE
  5
CC4
  8
0
 62
     0
 10
320.6755994339228
 20
283.0621098103943
 30
0.0
 11
320.8005994339228
 21
283.0621098103943
 31
0.0
  0
LINE
  5
CC5
  8
0
 62
     0
 10
320.6755994339228
 20
283.18010981039441
 30
0.0
 11
320.8005994339228
 21
283.18010981039441
 31
0.0
  0
LINE
  5
CC6
  8
0
 62
     0
 10
320.6755994339228
 20
283.29810981039429
 30
0.0
 11
320.8005994339228
 21
283.29810981039429
 31
0.0
  0
LINE
  5
CC7
  8
0
 62
     0
 10
320.6755994339228
 20
283.4161098103944
 30
0.0
 11
320.8005994339228
 21
283.4161098103944
 31
0.0
  0
LINE
  5
CC8
  8
0
 62
     0
 10
320.6755994339228
 20
283.53410981039428
 30
0.0
 11
320.8005994339228
 21
283.53410981039428
 31
0.0
  0
LINE
  5
CC9
  8
0
 62
     0
 10
320.6755994339228
 20
283.65210981039428
 30
0.0
 11
320.8005994339228
 21
283.65210981039428
 31
0.0
  0
LINE
  5
CCA
  8
0
 62
     0
 10
320.6755994339228
 20
283.77010981039427
 30
0.0
 11
320.8005994339228
 21
283.77010981039427
 31
0.0
  0
LINE
  5
CCB
  8
0
 62
     0
 10
320.6755994339228
 20
283.88810981039433
 30
0.0
 11
320.8005994339228
 21
283.88810981039433
 31
0.0
  0
LINE
  5
CCC
  8
0
 62
     0
 10
320.6755994339228
 20
284.00610981039432
 30
0.0
 11
320.8005994339228
 21
284.00610981039432
 31
0.0
  0
LINE
  5
CCD
  8
0
 62
     0
 10
320.6755994339228
 20
284.12410981039432
 30
0.0
 11
320.8005994339228
 21
284.12410981039432
 31
0.0
  0
LINE
  5
CCE
  8
0
 62
     0
 10
320.6755994339228
 20
284.24210981039431
 30
0.0
 11
320.8005994339228
 21
284.24210981039431
 31
0.0
  0
LINE
  5
CCF
  8
0
 62
     0
 10
320.6755994339228
 20
284.36010981039431
 30
0.0
 11
320.8005994339228
 21
284.36010981039431
 31
0.0
  0
LINE
  5
CD0
  8
0
 62
     0
 10
320.6755994339228
 20
284.4781098103943
 30
0.0
 11
320.8005994339228
 21
284.4781098103943
 31
0.0
  0
LINE
  5
CD1
  8
0
 62
     0
 10
320.6755994339228
 20
284.5961098103943
 30
0.0
 11
320.8005994339228
 21
284.5961098103943
 31
0.0
  0
LINE
  5
CD2
  8
0
 62
     0
 10
320.6755994339228
 20
284.71410981039429
 30
0.0
 11
320.8005994339228
 21
284.71410981039429
 31
0.0
  0
LINE
  5
CD3
  8
0
 62
     0
 10
320.6755994339228
 20
284.83210981039429
 30
0.0
 11
320.8005994339228
 21
284.83210981039429
 31
0.0
  0
LINE
  5
CD4
  8
0
 62
     0
 10
320.6755994339228
 20
284.95010981039428
 30
0.0
 11
320.8005994339228
 21
284.95010981039428
 31
0.0
  0
LINE
  5
CD5
  8
0
 62
     0
 10
320.6755994339228
 20
285.06810981039428
 30
0.0
 11
320.8005994339228
 21
285.06810981039428
 31
0.0
  0
LINE
  5
CD6
  8
0
 62
     0
 10
320.6755994339228
 20
285.18610981039433
 30
0.0
 11
320.8005994339228
 21
285.18610981039433
 31
0.0
  0
LINE
  5
CD7
  8
0
 62
     0
 10
320.6755994339228
 20
285.30410981039432
 30
0.0
 11
320.8005994339228
 21
285.30410981039432
 31
0.0
  0
LINE
  5
CD8
  8
0
 62
     0
 10
320.6755994339228
 20
285.42210981039432
 30
0.0
 11
320.8005994339228
 21
285.42210981039432
 31
0.0
  0
LINE
  5
CD9
  8
0
 62
     0
 10
320.6755994339228
 20
285.54010981039431
 30
0.0
 11
320.8005994339228
 21
285.54010981039431
 31
0.0
  0
LINE
  5
CDA
  8
0
 62
     0
 10
320.6755994339228
 20
285.65810981039431
 30
0.0
 11
320.8005994339228
 21
285.65810981039431
 31
0.0
  0
LINE
  5
CDB
  8
0
 62
     0
 10
320.6755994339228
 20
285.77610981039442
 30
0.0
 11
320.8005994339228
 21
285.77610981039442
 31
0.0
  0
LINE
  5
CDC
  8
0
 62
     0
 10
320.6755994339228
 20
285.89410981039441
 30
0.0
 11
320.8005994339228
 21
285.89410981039441
 31
0.0
  0
LINE
  5
CDD
  8
0
 62
     0
 10
320.6755994339228
 20
286.01210981039429
 30
0.0
 11
320.8005994339228
 21
286.01210981039429
 31
0.0
  0
LINE
  5
CDE
  8
0
 62
     0
 10
320.6755994339228
 20
286.13010981039429
 30
0.0
 11
320.8005994339228
 21
286.13010981039429
 31
0.0
  0
LINE
  5
CDF
  8
0
 62
     0
 10
320.6755994339228
 20
286.24810981039428
 30
0.0
 11
320.8005994339228
 21
286.24810981039428
 31
0.0
  0
LINE
  5
CE0
  8
0
 62
     0
 10
320.6755994339228
 20
286.36610981039428
 30
0.0
 11
320.8005994339228
 21
286.36610981039428
 31
0.0
  0
LINE
  5
CE1
  8
0
 62
     0
 10
320.6755994339228
 20
286.48410981039427
 30
0.0
 11
320.8005994339228
 21
286.48410981039427
 31
0.0
  0
LINE
  5
CE2
  8
0
 62
     0
 10
320.6755994339228
 20
286.60210981039432
 30
0.0
 11
320.8005994339228
 21
286.60210981039432
 31
0.0
  0
LINE
  5
CE3
  8
0
 62
     0
 10
320.6755994339228
 20
286.72010981039432
 30
0.0
 11
320.8005994339228
 21
286.72010981039432
 31
0.0
  0
LINE
  5
CE4
  8
0
 62
     0
 10
320.6755994339228
 20
286.83810981039431
 30
0.0
 11
320.8005994339228
 21
286.83810981039431
 31
0.0
  0
LINE
  5
CE5
  8
0
 62
     0
 10
320.6755994339228
 20
286.95610981039431
 30
0.0
 11
320.8005994339228
 21
286.95610981039431
 31
0.0
  0
LINE
  5
CE6
  8
0
 62
     0
 10
320.6755994339228
 20
287.0741098103943
 30
0.0
 11
320.8005994339228
 21
287.0741098103943
 31
0.0
  0
LINE
  5
CE7
  8
0
 62
     0
 10
320.6755994339228
 20
287.19210981039441
 30
0.0
 11
320.8005994339228
 21
287.19210981039441
 31
0.0
  0
LINE
  5
CE8
  8
0
 62
     0
 10
320.6755994339228
 20
287.31010981039441
 30
0.0
 11
320.8005994339228
 21
287.31010981039441
 31
0.0
  0
LINE
  5
CE9
  8
0
 62
     0
 10
320.6755994339228
 20
287.4281098103944
 30
0.0
 11
320.8005994339228
 21
287.4281098103944
 31
0.0
  0
LINE
  5
CEA
  8
0
 62
     0
 10
320.6755994339228
 20
287.5461098103944
 30
0.0
 11
320.8005994339228
 21
287.5461098103944
 31
0.0
  0
LINE
  5
CEB
  8
0
 62
     0
 10
320.6755994339228
 20
287.66410981039428
 30
0.0
 11
320.8005994339228
 21
287.66410981039428
 31
0.0
  0
LINE
  5
CEC
  8
0
 62
     0
 10
320.6755994339228
 20
287.78210981039427
 30
0.0
 11
320.8005994339228
 21
287.78210981039427
 31
0.0
  0
LINE
  5
CED
  8
0
 62
     0
 10
320.6755994339228
 20
287.90010981039433
 30
0.0
 11
320.8005994339228
 21
287.90010981039433
 31
0.0
  0
LINE
  5
CEE
  8
0
 62
     0
 10
320.6755994339228
 20
288.01810981039432
 30
0.0
 11
320.8005994339228
 21
288.01810981039432
 31
0.0
  0
LINE
  5
CEF
  8
0
 62
     0
 10
320.6755994339228
 20
288.13610981039432
 30
0.0
 11
320.8005994339228
 21
288.13610981039432
 31
0.0
  0
LINE
  5
CF0
  8
0
 62
     0
 10
320.6755994339228
 20
288.25410981039431
 30
0.0
 11
320.8005994339228
 21
288.25410981039431
 31
0.0
  0
LINE
  5
CF1
  8
0
 62
     0
 10
320.6755994339228
 20
288.37210981039431
 30
0.0
 11
320.8005994339228
 21
288.37210981039431
 31
0.0
  0
LINE
  5
CF2
  8
0
 62
     0
 10
320.6755994339228
 20
288.49010981039442
 30
0.0
 11
320.8005994339228
 21
288.49010981039442
 31
0.0
  0
LINE
  5
CF3
  8
0
 62
     0
 10
320.6755994339228
 20
288.6081098103943
 30
0.0
 11
320.8005994339228
 21
288.6081098103943
 31
0.0
  0
LINE
  5
CF4
  8
0
 62
     0
 10
320.6755994339228
 20
288.72610981039441
 30
0.0
 11
320.8005994339228
 21
288.72610981039441
 31
0.0
  0
LINE
  5
CF5
  8
0
 62
     0
 10
320.6755994339228
 20
288.84410981039429
 30
0.0
 11
320.8005994339228
 21
288.84410981039429
 31
0.0
  0
LINE
  5
CF6
  8
0
 62
     0
 10
320.6755994339228
 20
288.9621098103944
 30
0.0
 11
320.8005994339228
 21
288.9621098103944
 31
0.0
  0
LINE
  5
CF7
  8
0
 62
     0
 10
320.6755994339228
 20
289.08010981039428
 30
0.0
 11
320.8005994339228
 21
289.08010981039428
 31
0.0
  0
LINE
  5
CF8
  8
0
 62
     0
 10
320.6755994339228
 20
289.19810981039433
 30
0.0
 11
320.8005994339228
 21
289.19810981039433
 31
0.0
  0
LINE
  5
CF9
  8
0
 62
     0
 10
320.6755994339228
 20
289.31610981039432
 30
0.0
 11
320.8005994339228
 21
289.31610981039432
 31
0.0
  0
LINE
  5
CFA
  8
0
 62
     0
 10
320.6755994339228
 20
289.43410981039432
 30
0.0
 11
320.8005994339228
 21
289.43410981039432
 31
0.0
  0
LINE
  5
CFB
  8
0
 62
     0
 10
320.6755994339228
 20
289.55210981039431
 30
0.0
 11
320.8005994339228
 21
289.55210981039431
 31
0.0
  0
LINE
  5
CFC
  8
0
 62
     0
 10
320.6755994339228
 20
289.67010981039431
 30
0.0
 11
320.8005994339228
 21
289.67010981039431
 31
0.0
  0
LINE
  5
CFD
  8
0
 62
     0
 10
320.6755994339228
 20
289.7881098103943
 30
0.0
 11
320.8005994339228
 21
289.7881098103943
 31
0.0
  0
LINE
  5
CFE
  8
0
 62
     0
 10
320.6755994339228
 20
289.90610981039441
 30
0.0
 11
320.8005994339228
 21
289.90610981039441
 31
0.0
  0
LINE
  5
CFF
  8
0
 62
     0
 10
320.6755994339228
 20
290.02410981039429
 30
0.0
 11
320.8005994339228
 21
290.02410981039429
 31
0.0
  0
LINE
  5
D00
  8
0
 62
     0
 10
320.6755994339228
 20
290.1421098103944
 30
0.0
 11
320.8005994339228
 21
290.1421098103944
 31
0.0
  0
LINE
  5
D01
  8
0
 62
     0
 10
320.6755994339228
 20
290.26010981039428
 30
0.0
 11
320.8005994339228
 21
290.26010981039428
 31
0.0
  0
LINE
  5
D02
  8
0
 62
     0
 10
320.6755994339228
 20
290.37810981039439
 30
0.0
 11
320.8005994339228
 21
290.37810981039439
 31
0.0
  0
LINE
  5
D03
  8
0
 62
     0
 10
320.6755994339228
 20
290.49610981039427
 30
0.0
 11
320.8005994339228
 21
290.49610981039427
 31
0.0
  0
LINE
  5
D04
  8
0
 62
     0
 10
320.6755994339228
 20
290.61410981039438
 30
0.0
 11
320.8005994339228
 21
290.61410981039438
 31
0.0
  0
LINE
  5
D05
  8
0
 62
     0
 10
320.6755994339228
 20
290.73210981039432
 30
0.0
 11
320.8005994339228
 21
290.73210981039432
 31
0.0
  0
LINE
  5
D06
  8
0
 62
     0
 10
320.6755994339228
 20
290.85010981039431
 30
0.0
 11
320.8005994339228
 21
290.85010981039431
 31
0.0
  0
LINE
  5
D07
  8
0
 62
     0
 10
320.6755994339228
 20
290.96810981039431
 30
0.0
 11
320.8005994339228
 21
290.96810981039431
 31
0.0
  0
LINE
  5
D08
  8
0
 62
     0
 10
320.6755994339228
 20
291.0861098103943
 30
0.0
 11
320.8005994339228
 21
291.0861098103943
 31
0.0
  0
LINE
  5
D09
  8
0
 62
     0
 10
320.6755994339228
 20
291.2041098103943
 30
0.0
 11
320.8005994339228
 21
291.2041098103943
 31
0.0
  0
LINE
  5
D0A
  8
0
 62
     0
 10
320.6755994339228
 20
291.32210981039441
 30
0.0
 11
320.8005994339228
 21
291.32210981039441
 31
0.0
  0
LINE
  5
D0B
  8
0
 62
     0
 10
320.6755994339228
 20
291.44010981039429
 30
0.0
 11
320.8005994339228
 21
291.44010981039429
 31
0.0
  0
LINE
  5
D0C
  8
0
 62
     0
 10
320.6755994339228
 20
291.5581098103944
 30
0.0
 11
320.8005994339228
 21
291.5581098103944
 31
0.0
  0
LINE
  5
D0D
  8
0
 62
     0
 10
320.6755994339228
 20
291.67610981039428
 30
0.0
 11
320.8005994339228
 21
291.67610981039428
 31
0.0
  0
LINE
  5
D0E
  8
0
 62
     0
 10
320.6755994339228
 20
291.79410981039427
 30
0.0
 11
320.8005994339228
 21
291.79410981039427
 31
0.0
  0
LINE
  5
D0F
  8
0
 62
     0
 10
320.6755994339228
 20
291.91210981039433
 30
0.0
 11
320.8005994339228
 21
291.91210981039433
 31
0.0
  0
LINE
  5
D10
  8
0
 62
     0
 10
320.6755994339228
 20
292.03010981039432
 30
0.0
 11
320.8005994339228
 21
292.03010981039432
 31
0.0
  0
LINE
  5
D11
  8
0
 62
     0
 10
320.6755994339228
 20
292.14810981039432
 30
0.0
 11
320.8005994339228
 21
292.14810981039432
 31
0.0
  0
LINE
  5
D12
  8
0
 62
     0
 10
320.6755994339228
 20
292.26610981039431
 30
0.0
 11
320.8005994339228
 21
292.26610981039431
 31
0.0
  0
LINE
  5
D13
  8
0
 62
     0
 10
320.6755994339228
 20
292.38410981039431
 30
0.0
 11
320.8005994339228
 21
292.38410981039431
 31
0.0
  0
LINE
  5
D14
  8
0
 62
     0
 10
320.6755994339228
 20
292.50210981039442
 30
0.0
 11
320.8005994339228
 21
292.50210981039442
 31
0.0
  0
LINE
  5
D15
  8
0
 62
     0
 10
320.6755994339228
 20
292.6201098103943
 30
0.0
 11
320.8005994339228
 21
292.6201098103943
 31
0.0
  0
LINE
  5
D16
  8
0
 62
     0
 10
320.6755994339228
 20
292.73810981039441
 30
0.0
 11
320.8005994339228
 21
292.73810981039441
 31
0.0
  0
LINE
  5
D17
  8
0
 62
     0
 10
320.6755994339228
 20
292.85610981039429
 30
0.0
 11
320.8005994339228
 21
292.85610981039429
 31
0.0
  0
LINE
  5
D18
  8
0
 62
     0
 10
320.6755994339228
 20
292.9741098103944
 30
0.0
 11
320.8005994339228
 21
292.9741098103944
 31
0.0
  0
LINE
  5
D19
  8
0
 62
     0
 10
320.6755994339228
 20
293.09210981039428
 30
0.0
 11
320.8005994339228
 21
293.09210981039428
 31
0.0
  0
LINE
  5
D1A
  8
0
 62
     0
 10
320.6755994339228
 20
293.21010981039427
 30
0.0
 11
320.8005994339228
 21
293.21010981039427
 31
0.0
  0
LINE
  5
D1B
  8
0
 62
     0
 10
320.6755994339228
 20
293.32810981039432
 30
0.0
 11
320.8005994339228
 21
293.32810981039432
 31
0.0
  0
LINE
  5
D1C
  8
0
 62
     0
 10
320.6755994339228
 20
293.44610981039432
 30
0.0
 11
320.8005994339228
 21
293.44610981039432
 31
0.0
  0
LINE
  5
D1D
  8
0
 62
     0
 10
320.6755994339228
 20
293.56410981039431
 30
0.0
 11
320.8005994339228
 21
293.56410981039431
 31
0.0
  0
LINE
  5
D1E
  8
0
 62
     0
 10
320.6755994339228
 20
293.68210981039431
 30
0.0
 11
320.8005994339228
 21
293.68210981039431
 31
0.0
  0
LINE
  5
D1F
  8
0
 62
     0
 10
320.6755994339228
 20
293.80010981039442
 30
0.0
 11
320.8005994339228
 21
293.80010981039442
 31
0.0
  0
LINE
  5
D20
  8
0
 62
     0
 10
320.6755994339228
 20
293.91810981039441
 30
0.0
 11
320.8005994339228
 21
293.91810981039441
 31
0.0
  0
LINE
  5
D21
  8
0
 62
     0
 10
320.6755994339228
 20
294.03610981039429
 30
0.0
 11
320.8005994339228
 21
294.03610981039429
 31
0.0
  0
LINE
  5
D22
  8
0
 62
     0
 10
320.6755994339228
 20
294.15410981039429
 30
0.0
 11
320.8005994339228
 21
294.15410981039429
 31
0.0
  0
LINE
  5
D23
  8
0
 62
     0
 10
320.6755994339228
 20
294.27210981039428
 30
0.0
 11
320.8005994339228
 21
294.27210981039428
 31
0.0
  0
LINE
  5
D24
  8
0
 62
     0
 10
320.6755994339228
 20
294.39010981039428
 30
0.0
 11
320.8005994339228
 21
294.39010981039428
 31
0.0
  0
LINE
  5
D25
  8
0
 62
     0
 10
320.6755994339228
 20
294.50810981039427
 30
0.0
 11
320.8005994339228
 21
294.50810981039427
 31
0.0
  0
LINE
  5
D26
  8
0
 62
     0
 10
320.6755994339228
 20
294.62610981039433
 30
0.0
 11
320.8005994339228
 21
294.62610981039433
 31
0.0
  0
LINE
  5
D27
  8
0
 62
     0
 10
320.6755994339228
 20
294.74410981039432
 30
0.0
 11
320.8005994339228
 21
294.74410981039432
 31
0.0
  0
LINE
  5
D28
  8
0
 62
     0
 10
320.6755994339228
 20
294.86210981039432
 30
0.0
 11
320.8005994339228
 21
294.86210981039432
 31
0.0
  0
LINE
  5
D29
  8
0
 62
     0
 10
320.6755994339228
 20
294.98010981039431
 30
0.0
 11
320.8005994339228
 21
294.98010981039431
 31
0.0
  0
LINE
  5
D2A
  8
0
 62
     0
 10
320.6755994339228
 20
295.09810981039431
 30
0.0
 11
320.8005994339228
 21
295.09810981039431
 31
0.0
  0
LINE
  5
D2B
  8
0
 62
     0
 10
320.6755994339228
 20
295.2161098103943
 30
0.0
 11
320.8005994339228
 21
295.2161098103943
 31
0.0
  0
LINE
  5
D2C
  8
0
 62
     0
 10
320.6755994339228
 20
295.33410981039441
 30
0.0
 11
320.8005994339228
 21
295.33410981039441
 31
0.0
  0
LINE
  5
D2D
  8
0
 62
     0
 10
320.6755994339228
 20
295.45210981039429
 30
0.0
 11
320.8005994339228
 21
295.45210981039429
 31
0.0
  0
LINE
  5
D2E
  8
0
 62
     0
 10
320.6755994339228
 20
295.57010981039429
 30
0.0
 11
320.8005994339228
 21
295.57010981039429
 31
0.0
  0
LINE
  5
D2F
  8
0
 62
     0
 10
320.6755994339228
 20
295.68810981039428
 30
0.0
 11
320.8005994339228
 21
295.68810981039428
 31
0.0
  0
LINE
  5
D30
  8
0
 62
     0
 10
320.6755994339228
 20
295.80610981039428
 30
0.0
 11
320.8005994339228
 21
295.80610981039428
 31
0.0
  0
LINE
  5
D31
  8
0
 62
     0
 10
320.6755994339228
 20
295.92410981039433
 30
0.0
 11
320.8005994339228
 21
295.92410981039433
 31
0.0
  0
LINE
  5
D32
  8
0
 62
     0
 10
320.6755994339228
 20
296.04210981039432
 30
0.0
 11
320.8005994339228
 21
296.04210981039432
 31
0.0
  0
LINE
  5
D33
  8
0
 62
     0
 10
320.6755994339228
 20
296.16010981039432
 30
0.0
 11
320.8005994339228
 21
296.16010981039432
 31
0.0
  0
LINE
  5
D34
  8
0
 62
     0
 10
320.6755994339228
 20
296.27810981039431
 30
0.0
 11
320.8005994339228
 21
296.27810981039431
 31
0.0
  0
LINE
  5
D35
  8
0
 62
     0
 10
320.6755994339228
 20
296.39610981039431
 30
0.0
 11
320.8005994339228
 21
296.39610981039431
 31
0.0
  0
LINE
  5
D36
  8
0
 62
     0
 10
320.6755994339228
 20
296.5141098103943
 30
0.0
 11
320.8005994339228
 21
296.5141098103943
 31
0.0
  0
LINE
  5
D37
  8
0
 62
     0
 10
320.6755994339228
 20
296.6321098103943
 30
0.0
 11
320.8005994339228
 21
296.6321098103943
 31
0.0
  0
LINE
  5
D38
  8
0
 62
     0
 10
320.6755994339228
 20
296.75010981039441
 30
0.0
 11
320.8005994339228
 21
296.75010981039441
 31
0.0
  0
LINE
  5
D39
  8
0
 62
     0
 10
320.6755994339228
 20
296.86810981039429
 30
0.0
 11
320.8005994339228
 21
296.86810981039429
 31
0.0
  0
LINE
  5
D3A
  8
0
 62
     0
 10
320.6755994339228
 20
296.9861098103944
 30
0.0
 11
320.8005994339228
 21
296.9861098103944
 31
0.0
  0
LINE
  5
D3B
  8
0
 62
     0
 10
320.6755994339228
 20
297.10410981039428
 30
0.0
 11
320.8005994339228
 21
297.10410981039428
 31
0.0
  0
LINE
  5
D3C
  8
0
 62
     0
 10
320.6755994339228
 20
297.22210981039427
 30
0.0
 11
320.8005994339228
 21
297.22210981039427
 31
0.0
  0
LINE
  5
D3D
  8
0
 62
     0
 10
320.6755994339228
 20
297.34010981039432
 30
0.0
 11
320.8005994339228
 21
297.34010981039432
 31
0.0
  0
LINE
  5
D3E
  8
0
 62
     0
 10
320.6755994339228
 20
297.45810981039432
 30
0.0
 11
320.8005994339228
 21
297.45810981039432
 31
0.0
  0
LINE
  5
D3F
  8
0
 62
     0
 10
320.6755994339228
 20
297.57610981039431
 30
0.0
 11
320.8005994339228
 21
297.57610981039431
 31
0.0
  0
LINE
  5
D40
  8
0
 62
     0
 10
320.6755994339228
 20
297.69410981039431
 30
0.0
 11
320.8005994339228
 21
297.69410981039431
 31
0.0
  0
LINE
  5
D41
  8
0
 62
     0
 10
320.6755994339228
 20
297.8121098103943
 30
0.0
 11
320.8005994339228
 21
297.8121098103943
 31
0.0
  0
LINE
  5
D42
  8
0
 62
     0
 10
320.6755994339228
 20
297.93010981039441
 30
0.0
 11
320.8005994339228
 21
297.93010981039441
 31
0.0
  0
LINE
  5
D43
  8
0
 62
     0
 10
320.6755994339228
 20
298.04810981039429
 30
0.0
 11
320.8005994339228
 21
298.04810981039429
 31
0.0
  0
LINE
  5
D44
  8
0
 62
     0
 10
320.6755994339228
 20
298.16610981039429
 30
0.0
 11
320.8005994339228
 21
298.16610981039429
 31
0.0
  0
LINE
  5
D45
  8
0
 62
     0
 10
320.6755994339228
 20
298.28410981039428
 30
0.0
 11
320.8005994339228
 21
298.28410981039428
 31
0.0
  0
LINE
  5
D46
  8
0
 62
     0
 10
320.6755994339228
 20
298.40210981039428
 30
0.0
 11
320.8005994339228
 21
298.40210981039428
 31
0.0
  0
LINE
  5
D47
  8
0
 62
     0
 10
320.6755994339228
 20
298.52010981039427
 30
0.0
 11
320.8005994339228
 21
298.52010981039427
 31
0.0
  0
LINE
  5
D48
  8
0
 62
     0
 10
320.6755994339228
 20
298.63810981039433
 30
0.0
 11
320.8005994339228
 21
298.63810981039433
 31
0.0
  0
LINE
  5
D49
  8
0
 62
     0
 10
320.6755994339228
 20
298.75610981039432
 30
0.0
 11
320.8005994339228
 21
298.75610981039432
 31
0.0
  0
LINE
  5
D4A
  8
0
 62
     0
 10
320.6755994339228
 20
298.87410981039432
 30
0.0
 11
320.8005994339228
 21
298.87410981039432
 31
0.0
  0
LINE
  5
D4B
  8
0
 62
     0
 10
320.6755994339228
 20
298.99210981039431
 30
0.0
 11
320.8005994339228
 21
298.99210981039431
 31
0.0
  0
LINE
  5
D4C
  8
0
 62
     0
 10
320.6755994339228
 20
299.11010981039431
 30
0.0
 11
320.8005994339228
 21
299.11010981039431
 31
0.0
  0
LINE
  5
D4D
  8
0
 62
     0
 10
320.6755994339228
 20
299.22810981039441
 30
0.0
 11
320.8005994339228
 21
299.22810981039441
 31
0.0
  0
LINE
  5
D4E
  8
0
 62
     0
 10
320.6755994339228
 20
299.34610981039441
 30
0.0
 11
320.8005994339228
 21
299.34610981039441
 31
0.0
  0
LINE
  5
D4F
  8
0
 62
     0
 10
320.6755994339228
 20
299.4641098103944
 30
0.0
 11
320.8005994339228
 21
299.4641098103944
 31
0.0
  0
LINE
  5
D50
  8
0
 62
     0
 10
320.6755994339228
 20
299.58210981039429
 30
0.0
 11
320.8005994339228
 21
299.58210981039429
 31
0.0
  0
LINE
  5
D51
  8
0
 62
     0
 10
320.6755994339228
 20
299.70010981039439
 30
0.0
 11
320.8005994339228
 21
299.70010981039439
 31
0.0
  0
LINE
  5
D52
  8
0
 62
     0
 10
320.6755994339228
 20
299.81810981039428
 30
0.0
 11
320.8005994339228
 21
299.81810981039428
 31
0.0
  0
LINE
  5
D53
  8
0
 62
     0
 10
320.6755994339228
 20
299.93610981039433
 30
0.0
 11
320.8005994339228
 21
299.93610981039433
 31
0.0
  0
LINE
  5
D54
  8
0
 62
     0
 10
320.6755994339228
 20
300.05410981039432
 30
0.0
 11
320.8005994339228
 21
300.05410981039432
 31
0.0
  0
LINE
  5
D55
  8
0
 62
     0
 10
320.6755994339228
 20
300.17210981039432
 30
0.0
 11
320.8005994339228
 21
300.17210981039432
 31
0.0
  0
LINE
  5
D56
  8
0
 62
     0
 10
320.6755994339228
 20
300.29010981039431
 30
0.0
 11
320.8005994339228
 21
300.29010981039431
 31
0.0
  0
LINE
  5
D57
  8
0
 62
     0
 10
320.6755994339228
 20
300.40810981039431
 30
0.0
 11
320.8005994339228
 21
300.40810981039431
 31
0.0
  0
LINE
  5
D58
  8
0
 62
     0
 10
320.6755994339228
 20
300.52610981039442
 30
0.0
 11
320.8005994339228
 21
300.52610981039442
 31
0.0
  0
LINE
  5
D59
  8
0
 62
     0
 10
320.6755994339228
 20
300.64410981039441
 30
0.0
 11
320.8005994339228
 21
300.64410981039441
 31
0.0
  0
LINE
  5
D5A
  8
0
 62
     0
 10
320.6755994339228
 20
300.76210981039429
 30
0.0
 11
320.8005994339228
 21
300.76210981039429
 31
0.0
  0
LINE
  5
D5B
  8
0
 62
     0
 10
320.6755994339228
 20
300.8801098103944
 30
0.0
 11
320.8005994339228
 21
300.8801098103944
 31
0.0
  0
LINE
  5
D5C
  8
0
 62
     0
 10
320.6755994339228
 20
300.99810981039428
 30
0.0
 11
320.8005994339228
 21
300.99810981039428
 31
0.0
  0
LINE
  5
D5D
  8
0
 62
     0
 10
320.6755994339228
 20
301.11610981039439
 30
0.0
 11
320.8005994339228
 21
301.11610981039439
 31
0.0
  0
LINE
  5
D5E
  8
0
 62
     0
 10
320.6755994339228
 20
301.23410981039427
 30
0.0
 11
320.8005994339228
 21
301.23410981039427
 31
0.0
  0
LINE
  5
D5F
  8
0
 62
     0
 10
320.6755994339228
 20
301.35210981039432
 30
0.0
 11
320.8005994339228
 21
301.35210981039432
 31
0.0
  0
LINE
  5
D60
  8
0
 62
     0
 10
320.6755994339228
 20
301.47010981039432
 30
0.0
 11
320.8005994339228
 21
301.47010981039432
 31
0.0
  0
LINE
  5
D61
  8
0
 62
     0
 10
320.6755994339228
 20
301.58810981039431
 30
0.0
 11
320.8005994339228
 21
301.58810981039431
 31
0.0
  0
LINE
  5
D62
  8
0
 62
     0
 10
320.6755994339228
 20
301.70610981039431
 30
0.0
 11
320.8005994339228
 21
301.70610981039431
 31
0.0
  0
LINE
  5
D63
  8
0
 62
     0
 10
320.6755994339228
 20
301.82410981039442
 30
0.0
 11
320.8005994339228
 21
301.82410981039442
 31
0.0
  0
LINE
  5
D64
  8
0
 62
     0
 10
320.6755994339228
 20
301.9421098103943
 30
0.0
 11
320.8005994339228
 21
301.9421098103943
 31
0.0
  0
LINE
  5
D65
  8
0
 62
     0
 10
320.6755994339228
 20
302.06010981039441
 30
0.0
 11
320.8005994339228
 21
302.06010981039441
 31
0.0
  0
LINE
  5
D66
  8
0
 62
     0
 10
320.6755994339228
 20
302.17810981039429
 30
0.0
 11
320.8005994339228
 21
302.17810981039429
 31
0.0
  0
LINE
  5
D67
  8
0
 62
     0
 10
320.6755994339228
 20
302.2961098103944
 30
0.0
 11
320.8005994339228
 21
302.2961098103944
 31
0.0
  0
LINE
  5
D68
  8
0
 62
     0
 10
320.6755994339228
 20
302.41410981039428
 30
0.0
 11
320.8005994339228
 21
302.41410981039428
 31
0.0
  0
LINE
  5
D69
  8
0
 62
     0
 10
320.6755994339228
 20
302.53210981039439
 30
0.0
 11
320.8005994339228
 21
302.53210981039439
 31
0.0
  0
LINE
  5
D6A
  8
0
 62
     0
 10
320.6755994339228
 20
302.65010981039433
 30
0.0
 11
320.8005994339228
 21
302.65010981039433
 31
0.0
  0
LINE
  5
D6B
  8
0
 62
     0
 10
320.6755994339228
 20
302.76810981039432
 30
0.0
 11
320.8005994339228
 21
302.76810981039432
 31
0.0
  0
LINE
  5
D6C
  8
0
 62
     0
 10
320.6755994339228
 20
302.88610981039432
 30
0.0
 11
320.8005994339228
 21
302.88610981039432
 31
0.0
  0
LINE
  5
D6D
  8
0
 62
     0
 10
320.6755994339228
 20
303.00410981039431
 30
0.0
 11
320.8005994339228
 21
303.00410981039431
 31
0.0
  0
LINE
  5
D6E
  8
0
 62
     0
 10
320.6755994339228
 20
303.12210981039431
 30
0.0
 11
320.8005994339228
 21
303.12210981039431
 31
0.0
  0
LINE
  5
D6F
  8
0
 62
     0
 10
320.6755994339228
 20
303.24010981039442
 30
0.0
 11
320.8005994339228
 21
303.24010981039442
 31
0.0
  0
LINE
  5
D70
  8
0
 62
     0
 10
320.6755994339228
 20
303.3581098103943
 30
0.0
 11
320.8005994339228
 21
303.3581098103943
 31
0.0
  0
LINE
  5
D71
  8
0
 62
     0
 10
320.6755994339228
 20
303.47610981039441
 30
0.0
 11
320.8005994339228
 21
303.47610981039441
 31
0.0
  0
LINE
  5
D72
  8
0
 62
     0
 10
320.6755994339228
 20
303.59410981039429
 30
0.0
 11
320.8005994339228
 21
303.59410981039429
 31
0.0
  0
LINE
  5
D73
  8
0
 62
     0
 10
320.6755994339228
 20
303.7121098103944
 30
0.0
 11
320.8005994339228
 21
303.7121098103944
 31
0.0
  0
LINE
  5
D74
  8
0
 62
     0
 10
320.6755994339228
 20
303.83010981039428
 30
0.0
 11
320.8005994339228
 21
303.83010981039428
 31
0.0
  0
LINE
  5
D75
  8
0
 62
     0
 10
320.6755994339228
 20
303.94810981039433
 30
0.0
 11
320.8005994339228
 21
303.94810981039433
 31
0.0
  0
LINE
  5
D76
  8
0
 62
     0
 10
320.6755994339228
 20
304.06610981039432
 30
0.0
 11
320.8005994339228
 21
304.06610981039432
 31
0.0
  0
LINE
  5
D77
  8
0
 62
     0
 10
320.6755994339228
 20
304.18410981039432
 30
0.0
 11
320.8005994339228
 21
304.18410981039432
 31
0.0
  0
LINE
  5
D78
  8
0
 62
     0
 10
320.6755994339228
 20
304.30210981039431
 30
0.0
 11
320.8005994339228
 21
304.30210981039431
 31
0.0
  0
LINE
  5
D79
  8
0
 62
     0
 10
320.6755994339228
 20
304.42010981039431
 30
0.0
 11
320.8005994339228
 21
304.42010981039431
 31
0.0
  0
LINE
  5
D7A
  8
0
 62
     0
 10
320.6755994339228
 20
304.5381098103943
 30
0.0
 11
320.8005994339228
 21
304.5381098103943
 31
0.0
  0
LINE
  5
D7B
  8
0
 62
     0
 10
320.6755994339228
 20
304.65610981039441
 30
0.0
 11
320.8005994339228
 21
304.65610981039441
 31
0.0
  0
LINE
  5
D7C
  8
0
 62
     0
 10
320.6755994339228
 20
304.77410981039429
 30
0.0
 11
320.8005994339228
 21
304.77410981039429
 31
0.0
  0
LINE
  5
D7D
  8
0
 62
     0
 10
320.6755994339228
 20
304.8921098103944
 30
0.0
 11
320.8005994339228
 21
304.8921098103944
 31
0.0
  0
LINE
  5
D7E
  8
0
 62
     0
 10
320.6755994339228
 20
305.01010981039428
 30
0.0
 11
320.8005994339228
 21
305.01010981039428
 31
0.0
  0
LINE
  5
D7F
  8
0
 62
     0
 10
320.6755994339228
 20
305.12810981039428
 30
0.0
 11
320.8005994339228
 21
305.12810981039428
 31
0.0
  0
LINE
  5
D80
  8
0
 62
     0
 10
320.6755994339228
 20
305.24610981039427
 30
0.0
 11
320.8005994339228
 21
305.24610981039427
 31
0.0
  0
LINE
  5
D81
  8
0
 62
     0
 10
320.6755994339228
 20
305.36410981039432
 30
0.0
 11
320.8005994339228
 21
305.36410981039432
 31
0.0
  0
LINE
  5
D82
  8
0
 62
     0
 10
320.6755994339228
 20
305.48210981039432
 30
0.0
 11
320.8005994339228
 21
305.48210981039432
 31
0.0
  0
LINE
  5
D83
  8
0
 62
     0
 10
320.6755994339228
 20
305.60010981039431
 30
0.0
 11
320.8005994339228
 21
305.60010981039431
 31
0.0
  0
LINE
  5
D84
  8
0
 62
     0
 10
320.6755994339228
 20
305.71810981039431
 30
0.0
 11
320.8005994339228
 21
305.71810981039431
 31
0.0
  0
LINE
  5
D85
  8
0
 62
     0
 10
320.6755994339228
 20
305.8361098103943
 30
0.0
 11
320.8005994339228
 21
305.8361098103943
 31
0.0
  0
LINE
  5
D86
  8
0
 62
     0
 10
320.6755994339228
 20
305.9541098103943
 30
0.0
 11
320.8005994339228
 21
305.9541098103943
 31
0.0
  0
LINE
  5
D87
  8
0
 62
     0
 10
320.6755994339228
 20
306.07210981039441
 30
0.0
 11
320.8005994339228
 21
306.07210981039441
 31
0.0
  0
LINE
  5
D88
  8
0
 62
     0
 10
320.6755994339228
 20
306.19010981039429
 30
0.0
 11
320.8005994339228
 21
306.19010981039429
 31
0.0
  0
LINE
  5
D89
  8
0
 62
     0
 10
320.6755994339228
 20
306.3081098103944
 30
0.0
 11
320.8005994339228
 21
306.3081098103944
 31
0.0
  0
LINE
  5
D8A
  8
0
 62
     0
 10
320.6755994339228
 20
306.42610981039428
 30
0.0
 11
320.8005994339228
 21
306.42610981039428
 31
0.0
  0
LINE
  5
D8B
  8
0
 62
     0
 10
320.6755994339228
 20
306.54410981039427
 30
0.0
 11
320.8005994339228
 21
306.54410981039427
 31
0.0
  0
LINE
  5
D8C
  8
0
 62
     0
 10
320.6755994339228
 20
306.66210981039433
 30
0.0
 11
320.8005994339228
 21
306.66210981039433
 31
0.0
  0
LINE
  5
D8D
  8
0
 62
     0
 10
320.6755994339228
 20
306.78010981039432
 30
0.0
 11
320.8005994339228
 21
306.78010981039432
 31
0.0
  0
LINE
  5
D8E
  8
0
 62
     0
 10
320.6755994339228
 20
306.89810981039432
 30
0.0
 11
320.8005994339228
 21
306.89810981039432
 31
0.0
  0
LINE
  5
D8F
  8
0
 62
     0
 10
320.6755994339228
 20
307.01610981039431
 30
0.0
 11
320.8005994339228
 21
307.01610981039431
 31
0.0
  0
LINE
  5
D90
  8
0
 62
     0
 10
320.6755994339228
 20
307.13410981039431
 30
0.0
 11
320.8005994339228
 21
307.13410981039431
 31
0.0
  0
LINE
  5
D91
  8
0
 62
     0
 10
320.6755994339228
 20
307.25210981039442
 30
0.0
 11
320.8005994339228
 21
307.25210981039442
 31
0.0
  0
LINE
  5
D92
  8
0
 62
     0
 10
320.6755994339228
 20
307.3701098103943
 30
0.0
 11
320.8005994339228
 21
307.3701098103943
 31
0.0
  0
LINE
  5
D93
  8
0
 62
     0
 10
320.6755994339228
 20
307.48810981039441
 30
0.0
 11
320.8005994339228
 21
307.48810981039441
 31
0.0
  0
LINE
  5
D94
  8
0
 62
     0
 10
320.6755994339228
 20
307.60610981039429
 30
0.0
 11
320.8005994339228
 21
307.60610981039429
 31
0.0
  0
LINE
  5
D95
  8
0
 62
     0
 10
320.6755994339228
 20
307.72410981039428
 30
0.0
 11
320.8005994339228
 21
307.72410981039428
 31
0.0
  0
LINE
  5
D96
  8
0
 62
     0
 10
320.6755994339228
 20
307.84210981039428
 30
0.0
 11
320.8005994339228
 21
307.84210981039428
 31
0.0
  0
LINE
  5
D97
  8
0
 62
     0
 10
320.6755994339228
 20
307.96010981039427
 30
0.0
 11
320.8005994339228
 21
307.96010981039427
 31
0.0
  0
LINE
  5
D98
  8
0
 62
     0
 10
320.6755994339228
 20
308.07810981039432
 30
0.0
 11
320.8005994339228
 21
308.07810981039432
 31
0.0
  0
LINE
  5
D99
  8
0
 62
     0
 10
320.6755994339228
 20
308.19610981039432
 30
0.0
 11
320.8005994339228
 21
308.19610981039432
 31
0.0
  0
LINE
  5
D9A
  8
0
 62
     0
 10
320.6755994339228
 20
308.31410981039431
 30
0.0
 11
320.8005994339228
 21
308.31410981039431
 31
0.0
  0
LINE
  5
D9B
  8
0
 62
     0
 10
320.6755994339228
 20
308.43210981039431
 30
0.0
 11
320.8005994339228
 21
308.43210981039431
 31
0.0
  0
LINE
  5
D9C
  8
0
 62
     0
 10
320.6755994339228
 20
308.5501098103943
 30
0.0
 11
320.8005994339228
 21
308.5501098103943
 31
0.0
  0
LINE
  5
D9D
  8
0
 62
     0
 10
320.6755994339228
 20
308.66810981039441
 30
0.0
 11
320.8005994339228
 21
308.66810981039441
 31
0.0
  0
LINE
  5
D9E
  8
0
 62
     0
 10
320.6755994339228
 20
308.78610981039429
 30
0.0
 11
320.8005994339228
 21
308.78610981039429
 31
0.0
  0
LINE
  5
D9F
  8
0
 62
     0
 10
320.6755994339228
 20
308.9041098103944
 30
0.0
 11
320.8005994339228
 21
308.9041098103944
 31
0.0
  0
LINE
  5
DA0
  8
0
 62
     0
 10
320.6755994339228
 20
309.02210981039428
 30
0.0
 11
320.8005994339228
 21
309.02210981039428
 31
0.0
  0
LINE
  5
DA1
  8
0
 62
     0
 10
320.6755994339228
 20
309.14010981039428
 30
0.0
 11
320.8005994339228
 21
309.14010981039428
 31
0.0
  0
LINE
  5
DA2
  8
0
 62
     0
 10
320.6755994339228
 20
309.25810981039427
 30
0.0
 11
320.8005994339228
 21
309.25810981039427
 31
0.0
  0
LINE
  5
DA3
  8
0
 62
     0
 10
320.6755994339228
 20
309.37610981039433
 30
0.0
 11
320.8005994339228
 21
309.37610981039433
 31
0.0
  0
LINE
  5
DA4
  8
0
 62
     0
 10
320.6755994339228
 20
309.49410981039432
 30
0.0
 11
320.8005994339228
 21
309.49410981039432
 31
0.0
  0
LINE
  5
DA5
  8
0
 62
     0
 10
320.6755994339228
 20
309.61210981039432
 30
0.0
 11
320.8005994339228
 21
309.61210981039432
 31
0.0
  0
LINE
  5
DA6
  8
0
 62
     0
 10
320.6755994339228
 20
309.73010981039431
 30
0.0
 11
320.8005994339228
 21
309.73010981039431
 31
0.0
  0
LINE
  5
DA7
  8
0
 62
     0
 10
320.6755994339228
 20
309.84810981039442
 30
0.0
 11
320.8005994339228
 21
309.84810981039442
 31
0.0
  0
LINE
  5
DA8
  8
0
 62
     0
 10
320.6755994339228
 20
309.96610981039441
 30
0.0
 11
320.8005994339228
 21
309.96610981039441
 31
0.0
  0
LINE
  5
DA9
  8
0
 62
     0
 10
320.6755994339228
 20
310.08410981039441
 30
0.0
 11
320.8005994339228
 21
310.08410981039441
 31
0.0
  0
LINE
  5
DAA
  8
0
 62
     0
 10
320.6755994339228
 20
310.20210981039429
 30
0.0
 11
320.8005994339228
 21
310.20210981039429
 31
0.0
  0
LINE
  5
DAB
  8
0
 62
     0
 10
320.6755994339228
 20
310.32010981039429
 30
0.0
 11
320.8005994339228
 21
310.32010981039429
 31
0.0
  0
LINE
  5
DAC
  8
0
 62
     0
 10
320.6755994339228
 20
310.43810981039428
 30
0.0
 11
320.8005994339228
 21
310.43810981039428
 31
0.0
  0
LINE
  5
DAD
  8
0
 62
     0
 10
320.6755994339228
 20
310.55610981039428
 30
0.0
 11
320.8005994339228
 21
310.55610981039428
 31
0.0
  0
LINE
  5
DAE
  8
0
 62
     0
 10
320.6755994339228
 20
310.67410981039433
 30
0.0
 11
320.8005994339228
 21
310.67410981039433
 31
0.0
  0
LINE
  5
DAF
  8
0
 62
     0
 10
320.6755994339228
 20
310.79210981039432
 30
0.0
 11
320.8005994339228
 21
310.79210981039432
 31
0.0
  0
LINE
  5
DB0
  8
0
 62
     0
 10
320.6755994339228
 20
310.91010981039432
 30
0.0
 11
320.8005994339228
 21
310.91010981039432
 31
0.0
  0
LINE
  5
DB1
  8
0
 62
     0
 10
320.6755994339228
 20
311.02810981039431
 30
0.0
 11
320.8005994339228
 21
311.02810981039431
 31
0.0
  0
LINE
  5
DB2
  8
0
 62
     0
 10
320.6755994339228
 20
311.14610981039431
 30
0.0
 11
320.8005994339228
 21
311.14610981039431
 31
0.0
  0
LINE
  5
DB3
  8
0
 62
     0
 10
320.6755994339228
 20
311.26410981039442
 30
0.0
 11
320.8005994339228
 21
311.26410981039442
 31
0.0
  0
LINE
  5
DB4
  8
0
 62
     0
 10
320.6755994339228
 20
311.38210981039441
 30
0.0
 11
320.8005994339228
 21
311.38210981039441
 31
0.0
  0
LINE
  5
DB5
  8
0
 62
     0
 10
320.6755994339228
 20
311.50010981039429
 30
0.0
 11
320.8005994339228
 21
311.50010981039429
 31
0.0
  0
LINE
  5
DB6
  8
0
 62
     0
 10
320.6755994339228
 20
311.6181098103944
 30
0.0
 11
320.8005994339228
 21
311.6181098103944
 31
0.0
  0
LINE
  5
DB7
  8
0
 62
     0
 10
320.6755994339228
 20
311.73610981039428
 30
0.0
 11
320.8005994339228
 21
311.73610981039428
 31
0.0
  0
LINE
  5
DB8
  8
0
 62
     0
 10
320.6755994339228
 20
311.85410981039428
 30
0.0
 11
320.8005994339228
 21
311.85410981039428
 31
0.0
  0
LINE
  5
DB9
  8
0
 62
     0
 10
320.6755994339228
 20
311.97210981039427
 30
0.0
 11
320.8005994339228
 21
311.97210981039427
 31
0.0
  0
LINE
  5
DBA
  8
0
 62
     0
 10
320.6755994339228
 20
312.09010981039432
 30
0.0
 11
320.8005994339228
 21
312.09010981039432
 31
0.0
  0
LINE
  5
DBB
  8
0
 62
     0
 10
320.6755994339228
 20
312.20810981039432
 30
0.0
 11
320.8005994339228
 21
312.20810981039432
 31
0.0
  0
LINE
  5
DBC
  8
0
 62
     0
 10
320.6755994339228
 20
312.32610981039431
 30
0.0
 11
320.8005994339228
 21
312.32610981039431
 31
0.0
  0
LINE
  5
DBD
  8
0
 62
     0
 10
320.6755994339228
 20
312.44410981039431
 30
0.0
 11
320.8005994339228
 21
312.44410981039431
 31
0.0
  0
LINE
  5
DBE
  8
0
 62
     0
 10
320.6755994339228
 20
312.5621098103943
 30
0.0
 11
320.8005994339228
 21
312.5621098103943
 31
0.0
  0
LINE
  5
DBF
  8
0
 62
     0
 10
320.6755994339228
 20
312.68010981039441
 30
0.0
 11
320.8005994339228
 21
312.68010981039441
 31
0.0
  0
LINE
  5
DC0
  8
0
 62
     0
 10
320.6755994339228
 20
312.79810981039441
 30
0.0
 11
320.8005994339228
 21
312.79810981039441
 31
0.0
  0
LINE
  5
DC1
  8
0
 62
     0
 10
320.6755994339228
 20
312.91610981039429
 30
0.0
 11
320.8005994339228
 21
312.91610981039429
 31
0.0
  0
LINE
  5
DC2
  8
0
 62
     0
 10
320.6755994339228
 20
313.0341098103944
 30
0.0
 11
320.8005994339228
 21
313.0341098103944
 31
0.0
  0
LINE
  5
DC3
  8
0
 62
     0
 10
320.6755994339228
 20
313.15210981039428
 30
0.0
 11
320.8005994339228
 21
313.15210981039428
 31
0.0
  0
LINE
  5
DC4
  8
0
 62
     0
 10
320.6755994339228
 20
313.27010981039439
 30
0.0
 11
320.8005994339228
 21
313.27010981039439
 31
0.0
  0
LINE
  5
DC5
  8
0
 62
     0
 10
320.6755994339228
 20
313.38810981039433
 30
0.0
 11
320.8005994339228
 21
313.38810981039433
 31
0.0
  0
LINE
  5
DC6
  8
0
 62
     0
 10
320.6755994339228
 20
313.50610981039432
 30
0.0
 11
320.8005994339228
 21
313.50610981039432
 31
0.0
  0
LINE
  5
DC7
  8
0
 62
     0
 10
320.6755994339228
 20
313.62410981039432
 30
0.0
 11
320.8005994339228
 21
313.62410981039432
 31
0.0
  0
LINE
  5
DC8
  8
0
 62
     0
 10
320.6755994339228
 20
313.74210981039431
 30
0.0
 11
320.8005994339228
 21
313.74210981039431
 31
0.0
  0
LINE
  5
DC9
  8
0
 62
     0
 10
320.6755994339228
 20
313.86010981039431
 30
0.0
 11
320.8005994339228
 21
313.86010981039431
 31
0.0
  0
LINE
  5
DCA
  8
0
 62
     0
 10
320.6755994339228
 20
313.97810981039441
 30
0.0
 11
320.8005994339228
 21
313.97810981039441
 31
0.0
  0
LINE
  5
DCB
  8
0
 62
     0
 10
320.6755994339228
 20
314.0961098103943
 30
0.0
 11
320.8005994339228
 21
314.0961098103943
 31
0.0
  0
LINE
  5
DCC
  8
0
 62
     0
 10
320.6755994339228
 20
314.2141098103944
 30
0.0
 11
320.8005994339228
 21
314.2141098103944
 31
0.0
  0
LINE
  5
DCD
  8
0
 62
     0
 10
320.6755994339228
 20
314.33210981039429
 30
0.0
 11
320.8005994339228
 21
314.33210981039429
 31
0.0
  0
LINE
  5
DCE
  8
0
 62
     0
 10
320.6755994339228
 20
314.45010981039439
 30
0.0
 11
320.8005994339228
 21
314.45010981039439
 31
0.0
  0
LINE
  5
DCF
  8
0
 62
     0
 10
320.6755994339228
 20
314.56810981039428
 30
0.0
 11
320.8005994339228
 21
314.56810981039428
 31
0.0
  0
LINE
  5
DD0
  8
0
 62
     0
 10
320.6755994339228
 20
314.68610981039433
 30
0.0
 11
320.8005994339228
 21
314.68610981039433
 31
0.0
  0
LINE
  5
DD1
  8
0
 62
     0
 10
320.6755994339228
 20
314.80410981039432
 30
0.0
 11
320.8005994339228
 21
314.80410981039432
 31
0.0
  0
LINE
  5
DD2
  8
0
 62
     0
 10
320.6755994339228
 20
314.92210981039432
 30
0.0
 11
320.8005994339228
 21
314.92210981039432
 31
0.0
  0
LINE
  5
DD3
  8
0
 62
     0
 10
320.6755994339228
 20
315.04010981039431
 30
0.0
 11
320.8005994339228
 21
315.04010981039431
 31
0.0
  0
LINE
  5
DD4
  8
0
 62
     0
 10
320.6755994339228
 20
315.15810981039431
 30
0.0
 11
320.8005994339228
 21
315.15810981039431
 31
0.0
  0
LINE
  5
DD5
  8
0
 62
     0
 10
320.6755994339228
 20
315.27610981039442
 30
0.0
 11
320.8005994339228
 21
315.27610981039442
 31
0.0
  0
LINE
  5
DD6
  8
0
 62
     0
 10
320.6755994339228
 20
315.39410981039441
 30
0.0
 11
320.8005994339228
 21
315.39410981039441
 31
0.0
  0
LINE
  5
DD7
  8
0
 62
     0
 10
320.6755994339228
 20
315.51210981039429
 30
0.0
 11
320.8005994339228
 21
315.51210981039429
 31
0.0
  0
LINE
  5
DD8
  8
0
 62
     0
 10
320.6755994339228
 20
315.6301098103944
 30
0.0
 11
320.8005994339228
 21
315.6301098103944
 31
0.0
  0
LINE
  5
DD9
  8
0
 62
     0
 10
320.6755994339228
 20
315.74810981039428
 30
0.0
 11
320.8005994339228
 21
315.74810981039428
 31
0.0
  0
LINE
  5
DDA
  8
0
 62
     0
 10
320.6755994339228
 20
315.86610981039439
 30
0.0
 11
320.8005994339228
 21
315.86610981039439
 31
0.0
  0
LINE
  5
DDB
  8
0
 62
     0
 10
320.6755994339228
 20
315.98410981039427
 30
0.0
 11
320.8005994339228
 21
315.98410981039427
 31
0.0
  0
LINE
  5
DDC
  8
0
 62
     0
 10
320.6755994339228
 20
316.10210981039432
 30
0.0
 11
320.8005994339228
 21
316.10210981039432
 31
0.0
  0
LINE
  5
DDD
  8
0
 62
     0
 10
320.6755994339228
 20
316.22010981039432
 30
0.0
 11
320.8005994339228
 21
316.22010981039432
 31
0.0
  0
LINE
  5
DDE
  8
0
 62
     0
 10
320.6755994339228
 20
316.33810981039431
 30
0.0
 11
320.8005994339228
 21
316.33810981039431
 31
0.0
  0
LINE
  5
DDF
  8
0
 62
     0
 10
320.6755994339228
 20
316.45610981039431
 30
0.0
 11
320.8005994339228
 21
316.45610981039431
 31
0.0
  0
LINE
  5
DE0
  8
0
 62
     0
 10
320.6755994339228
 20
316.57410981039442
 30
0.0
 11
320.8005994339228
 21
316.57410981039442
 31
0.0
  0
LINE
  5
DE1
  8
0
 62
     0
 10
320.6755994339228
 20
316.6921098103943
 30
0.0
 11
320.8005994339228
 21
316.6921098103943
 31
0.0
  0
LINE
  5
DE2
  8
0
 62
     0
 10
320.6755994339228
 20
316.81010981039441
 30
0.0
 11
320.8005994339228
 21
316.81010981039441
 31
0.0
  0
LINE
  5
DE3
  8
0
 62
     0
 10
320.6755994339228
 20
316.92810981039429
 30
0.0
 11
320.8005994339228
 21
316.92810981039429
 31
0.0
  0
LINE
  5
DE4
  8
0
 62
     0
 10
320.6755994339228
 20
317.0461098103944
 30
0.0
 11
320.8005994339228
 21
317.0461098103944
 31
0.0
  0
LINE
  5
DE5
  8
0
 62
     0
 10
320.6755994339228
 20
317.16410981039428
 30
0.0
 11
320.8005994339228
 21
317.16410981039428
 31
0.0
  0
LINE
  5
DE6
  8
0
 62
     0
 10
320.6755994339228
 20
317.28210981039427
 30
0.0
 11
320.8005994339228
 21
317.28210981039427
 31
0.0
  0
LINE
  5
DE7
  8
0
 62
     0
 10
320.6755994339228
 20
317.40010981039433
 30
0.0
 11
320.8005994339228
 21
317.40010981039433
 31
0.0
  0
LINE
  5
DE8
  8
0
 62
     0
 10
320.6755994339228
 20
317.51810981039432
 30
0.0
 11
320.8005994339228
 21
317.51810981039432
 31
0.0
  0
LINE
  5
DE9
  8
0
 62
     0
 10
320.6755994339228
 20
317.63610981039432
 30
0.0
 11
320.8005994339228
 21
317.63610981039432
 31
0.0
  0
LINE
  5
DEA
  8
0
 62
     0
 10
320.6755994339228
 20
317.75410981039431
 30
0.0
 11
320.8005994339228
 21
317.75410981039431
 31
0.0
  0
LINE
  5
DEB
  8
0
 62
     0
 10
320.6755994339228
 20
317.87210981039431
 30
0.0
 11
320.8005994339228
 21
317.87210981039431
 31
0.0
  0
LINE
  5
DEC
  8
0
 62
     0
 10
320.6755994339228
 20
317.9901098103943
 30
0.0
 11
320.8005994339228
 21
317.9901098103943
 31
0.0
  0
LINE
  5
DED
  8
0
 62
     0
 10
320.6755994339228
 20
318.1081098103943
 30
0.0
 11
320.8005994339228
 21
318.1081098103943
 31
0.0
  0
LINE
  5
DEE
  8
0
 62
     0
 10
320.6755994339228
 20
318.22610981039441
 30
0.0
 11
320.8005994339228
 21
318.22610981039441
 31
0.0
  0
LINE
  5
DEF
  8
0
 62
     0
 10
320.6755994339228
 20
318.34410981039429
 30
0.0
 11
320.8005994339228
 21
318.34410981039429
 31
0.0
  0
LINE
  5
DF0
  8
0
 62
     0
 10
320.6755994339228
 20
318.4621098103944
 30
0.0
 11
320.8005994339228
 21
318.4621098103944
 31
0.0
  0
LINE
  5
DF1
  8
0
 62
     0
 10
320.6755994339228
 20
318.58010981039428
 30
0.0
 11
320.8005994339228
 21
318.58010981039428
 31
0.0
  0
LINE
  5
DF2
  8
0
 62
     0
 10
320.6755994339228
 20
318.69810981039433
 30
0.0
 11
320.8005994339228
 21
318.69810981039433
 31
0.0
  0
LINE
  5
DF3
  8
0
 62
     0
 10
320.6755994339228
 20
318.81610981039432
 30
0.0
 11
320.8005994339228
 21
318.81610981039432
 31
0.0
  0
LINE
  5
DF4
  8
0
 62
     0
 10
320.6755994339228
 20
318.93410981039432
 30
0.0
 11
320.8005994339228
 21
318.93410981039432
 31
0.0
  0
LINE
  5
DF5
  8
0
 62
     0
 10
320.6755994339228
 20
319.05210981039431
 30
0.0
 11
320.8005994339228
 21
319.05210981039431
 31
0.0
  0
LINE
  5
DF6
  8
0
 62
     0
 10
320.6755994339228
 20
319.17010981039431
 30
0.0
 11
320.8005994339228
 21
319.17010981039431
 31
0.0
  0
LINE
  5
DF7
  8
0
 62
     0
 10
320.6755994339228
 20
319.2881098103943
 30
0.0
 11
320.8005994339228
 21
319.2881098103943
 31
0.0
  0
LINE
  5
DF8
  8
0
 62
     0
 10
320.6755994339228
 20
319.40610981039441
 30
0.0
 11
320.8005994339228
 21
319.40610981039441
 31
0.0
  0
LINE
  5
DF9
  8
0
 62
     0
 10
320.6755994339228
 20
319.52410981039429
 30
0.0
 11
320.8005994339228
 21
319.52410981039429
 31
0.0
  0
LINE
  5
DFA
  8
0
 62
     0
 10
320.6755994339228
 20
319.6421098103944
 30
0.0
 11
320.8005994339228
 21
319.6421098103944
 31
0.0
  0
LINE
  5
DFB
  8
0
 62
     0
 10
320.6755994339228
 20
319.76010981039428
 30
0.0
 11
320.8005994339228
 21
319.76010981039428
 31
0.0
  0
LINE
  5
DFC
  8
0
 62
     0
 10
320.6755994339228
 20
319.87810981039428
 30
0.0
 11
320.8005994339228
 21
319.87810981039428
 31
0.0
  0
LINE
  5
DFD
  8
0
 62
     0
 10
320.6755994339228
 20
319.99610981039427
 30
0.0
 11
320.8005994339228
 21
319.99610981039427
 31
0.0
  0
LINE
  5
DFE
  8
0
 62
     0
 10
320.6755994339228
 20
320.11410981039432
 30
0.0
 11
320.8005994339228
 21
320.11410981039432
 31
0.0
  0
LINE
  5
DFF
  8
0
 62
     0
 10
320.6755994339228
 20
320.23210981039432
 30
0.0
 11
320.8005994339228
 21
320.23210981039432
 31
0.0
  0
LINE
  5
E00
  8
0
 62
     0
 10
320.6755994339228
 20
320.35010981039431
 30
0.0
 11
320.8005994339228
 21
320.35010981039431
 31
0.0
  0
LINE
  5
E01
  8
0
 62
     0
 10
320.6755994339228
 20
320.46810981039431
 30
0.0
 11
320.8005994339228
 21
320.46810981039431
 31
0.0
  0
LINE
  5
E02
  8
0
 62
     0
 10
320.6755994339228
 20
320.5861098103943
 30
0.0
 11
320.8005994339228
 21
320.5861098103943
 31
0.0
  0
LINE
  5
E03
  8
0
 62
     0
 10
320.6755994339228
 20
320.7041098103943
 30
0.0
 11
320.8005994339228
 21
320.7041098103943
 31
0.0
  0
LINE
  5
E04
  8
0
 62
     0
 10
320.6755994339228
 20
320.82210981039441
 30
0.0
 11
320.8005994339228
 21
320.82210981039441
 31
0.0
  0
LINE
  5
E05
  8
0
 62
     0
 10
320.6755994339228
 20
320.94010981039429
 30
0.0
 11
320.8005994339228
 21
320.94010981039429
 31
0.0
  0
LINE
  5
E06
  8
0
 62
     0
 10
320.6755994339228
 20
321.05810981039428
 30
0.0
 11
320.8005994339228
 21
321.05810981039428
 31
0.0
  0
LINE
  5
E07
  8
0
 62
     0
 10
320.6755994339228
 20
321.17610981039428
 30
0.0
 11
320.8005994339228
 21
321.17610981039428
 31
0.0
  0
LINE
  5
E08
  8
0
 62
     0
 10
320.6755994339228
 20
321.29410981039427
 30
0.0
 11
320.8005994339228
 21
321.29410981039427
 31
0.0
  0
LINE
  5
E09
  8
0
 62
     0
 10
320.6755994339228
 20
321.41210981039433
 30
0.0
 11
320.8005994339228
 21
321.41210981039433
 31
0.0
  0
LINE
  5
E0A
  8
0
 62
     0
 10
320.6755994339228
 20
321.53010981039432
 30
0.0
 11
320.8005994339228
 21
321.53010981039432
 31
0.0
  0
LINE
  5
E0B
  8
0
 62
     0
 10
320.6755994339228
 20
321.64810981039432
 30
0.0
 11
320.8005994339228
 21
321.64810981039432
 31
0.0
  0
LINE
  5
E0C
  8
0
 62
     0
 10
320.6755994339228
 20
321.76610981039431
 30
0.0
 11
320.8005994339228
 21
321.76610981039431
 31
0.0
  0
LINE
  5
E0D
  8
0
 62
     0
 10
320.6755994339228
 20
321.88410981039431
 30
0.0
 11
320.8005994339228
 21
321.88410981039431
 31
0.0
  0
LINE
  5
E0E
  8
0
 62
     0
 10
320.6755994339228
 20
322.00210981039442
 30
0.0
 11
320.8005994339228
 21
322.00210981039442
 31
0.0
  0
LINE
  5
E0F
  8
0
 62
     0
 10
320.6755994339228
 20
322.1201098103943
 30
0.0
 11
320.8005994339228
 21
322.1201098103943
 31
0.0
  0
LINE
  5
E10
  8
0
 62
     0
 10
320.6755994339228
 20
322.23810981039441
 30
0.0
 11
320.8005994339228
 21
322.23810981039441
 31
0.0
  0
LINE
  5
E11
  8
0
 62
     0
 10
320.6755994339228
 20
322.35610981039429
 30
0.0
 11
320.8005994339228
 21
322.35610981039429
 31
0.0
  0
LINE
  5
E12
  8
0
 62
     0
 10
320.6755994339228
 20
322.47410981039428
 30
0.0
 11
320.8005994339228
 21
322.47410981039428
 31
0.0
  0
LINE
  5
E13
  8
0
 62
     0
 10
320.6755994339228
 20
322.59210981039428
 30
0.0
 11
320.8005994339228
 21
322.59210981039428
 31
0.0
  0
LINE
  5
E14
  8
0
 62
     0
 10
320.6755994339228
 20
322.71010981039427
 30
0.0
 11
320.8005994339228
 21
322.71010981039427
 31
0.0
  0
LINE
  5
E15
  8
0
 62
     0
 10
320.6755994339228
 20
322.82810981039432
 30
0.0
 11
320.8005994339228
 21
322.82810981039432
 31
0.0
  0
LINE
  5
E16
  8
0
 62
     0
 10
320.6755994339228
 20
322.94610981039432
 30
0.0
 11
320.8005994339228
 21
322.94610981039432
 31
0.0
  0
LINE
  5
E17
  8
0
 62
     0
 10
320.6755994339228
 20
323.06410981039431
 30
0.0
 11
320.8005994339228
 21
323.06410981039431
 31
0.0
  0
LINE
  5
E18
  8
0
 62
     0
 10
320.6755994339228
 20
323.18210981039431
 30
0.0
 11
320.8005994339228
 21
323.18210981039431
 31
0.0
  0
LINE
  5
E19
  8
0
 62
     0
 10
320.6755994339228
 20
323.30010981039442
 30
0.0
 11
320.8005994339228
 21
323.30010981039442
 31
0.0
  0
LINE
  5
E1A
  8
0
 62
     0
 10
320.6755994339228
 20
323.41810981039441
 30
0.0
 11
320.8005994339228
 21
323.41810981039441
 31
0.0
  0
LINE
  5
E1B
  8
0
 62
     0
 10
320.6755994339228
 20
323.53610981039441
 30
0.0
 11
320.8005994339228
 21
323.53610981039441
 31
0.0
  0
LINE
  5
E1C
  8
0
 62
     0
 10
320.6755994339228
 20
323.65410981039429
 30
0.0
 11
320.8005994339228
 21
323.65410981039429
 31
0.0
  0
LINE
  5
E1D
  8
0
 62
     0
 10
320.6755994339228
 20
323.77210981039428
 30
0.0
 11
320.8005994339228
 21
323.77210981039428
 31
0.0
  0
LINE
  5
E1E
  8
0
 62
     0
 10
320.6755994339228
 20
323.89010981039428
 30
0.0
 11
320.8005994339228
 21
323.89010981039428
 31
0.0
  0
LINE
  5
E1F
  8
0
 62
     0
 10
320.6755994339228
 20
324.00810981039427
 30
0.0
 11
320.8005994339228
 21
324.00810981039427
 31
0.0
  0
LINE
  5
E20
  8
0
 62
     0
 10
320.6755994339228
 20
324.12610981039433
 30
0.0
 11
320.8005994339228
 21
324.12610981039433
 31
0.0
  0
LINE
  5
E21
  8
0
 62
     0
 10
320.6755994339228
 20
324.24410981039432
 30
0.0
 11
320.8005994339228
 21
324.24410981039432
 31
0.0
  0
LINE
  5
E22
  8
0
 62
     0
 10
320.6755994339228
 20
324.36210981039432
 30
0.0
 11
320.8005994339228
 21
324.36210981039432
 31
0.0
  0
LINE
  5
E23
  8
0
 62
     0
 10
320.6755994339228
 20
324.48010981039431
 30
0.0
 11
320.8005994339228
 21
324.48010981039431
 31
0.0
  0
LINE
  5
E24
  8
0
 62
     0
 10
320.6755994339228
 20
324.59810981039442
 30
0.0
 11
320.8005994339228
 21
324.59810981039442
 31
0.0
  0
LINE
  5
E25
  8
0
 62
     0
 10
320.6755994339228
 20
324.71610981039441
 30
0.0
 11
320.8005994339228
 21
324.71610981039441
 31
0.0
  0
LINE
  5
E26
  8
0
 62
     0
 10
320.6755994339228
 20
324.83410981039441
 30
0.0
 11
320.8005994339228
 21
324.83410981039441
 31
0.0
  0
LINE
  5
E27
  8
0
 62
     0
 10
320.6755994339228
 20
324.9521098103944
 30
0.0
 11
320.8005994339228
 21
324.9521098103944
 31
0.0
  0
LINE
  5
E28
  8
0
 62
     0
 10
320.6755994339228
 20
325.07010981039429
 30
0.0
 11
320.8005994339228
 21
325.07010981039429
 31
0.0
  0
LINE
  5
E29
  8
0
 62
     0
 10
320.6755994339228
 20
325.18810981039439
 30
0.0
 11
320.8005994339228
 21
325.18810981039439
 31
0.0
  0
LINE
  5
E2A
  8
0
 62
     0
 10
320.6755994339228
 20
325.30610981039428
 30
0.0
 11
320.8005994339228
 21
325.30610981039428
 31
0.0
  0
LINE
  5
E2B
  8
0
 62
     0
 10
320.6755994339228
 20
325.42410981039433
 30
0.0
 11
320.8005994339228
 21
325.42410981039433
 31
0.0
  0
LINE
  5
E2C
  8
0
 62
     0
 10
320.6755994339228
 20
325.54210981039432
 30
0.0
 11
320.8005994339228
 21
325.54210981039432
 31
0.0
  0
LINE
  5
E2D
  8
0
 62
     0
 10
320.6755994339228
 20
325.66010981039432
 30
0.0
 11
320.8005994339228
 21
325.66010981039432
 31
0.0
  0
LINE
  5
E2E
  8
0
 62
     0
 10
320.6755994339228
 20
325.77810981039431
 30
0.0
 11
320.8005994339228
 21
325.77810981039431
 31
0.0
  0
LINE
  5
E2F
  8
0
 62
     0
 10
320.6755994339228
 20
325.89610981039442
 30
0.0
 11
320.8005994339228
 21
325.89610981039442
 31
0.0
  0
LINE
  5
E30
  8
0
 62
     0
 10
320.6755994339228
 20
326.0141098103943
 30
0.0
 11
320.8005994339228
 21
326.0141098103943
 31
0.0
  0
LINE
  5
E31
  8
0
 62
     0
 10
320.6755994339228
 20
326.13210981039441
 30
0.0
 11
320.8005994339228
 21
326.13210981039441
 31
0.0
  0
LINE
  5
E32
  8
0
 62
     0
 10
320.6755994339228
 20
326.25010981039429
 30
0.0
 11
320.8005994339228
 21
326.25010981039429
 31
0.0
  0
LINE
  5
E33
  8
0
 62
     0
 10
320.6755994339228
 20
326.3681098103944
 30
0.0
 11
320.8005994339228
 21
326.3681098103944
 31
0.0
  0
LINE
  5
E34
  8
0
 62
     0
 10
320.6755994339228
 20
326.48610981039428
 30
0.0
 11
320.8005994339228
 21
326.48610981039428
 31
0.0
  0
LINE
  5
E35
  8
0
 62
     0
 10
320.6755994339228
 20
326.60410981039439
 30
0.0
 11
320.8005994339228
 21
326.60410981039439
 31
0.0
  0
LINE
  5
E36
  8
0
 62
     0
 10
320.6755994339228
 20
326.72210981039427
 30
0.0
 11
320.8005994339228
 21
326.72210981039427
 31
0.0
  0
LINE
  5
E37
  8
0
 62
     0
 10
320.6755994339228
 20
326.84010981039432
 30
0.0
 11
320.8005994339228
 21
326.84010981039432
 31
0.0
  0
LINE
  5
E38
  8
0
 62
     0
 10
320.6755994339228
 20
326.95810981039432
 30
0.0
 11
320.8005994339228
 21
326.95810981039432
 31
0.0
  0
LINE
  5
E39
  8
0
 62
     0
 10
320.6755994339228
 20
327.07610981039431
 30
0.0
 11
320.8005994339228
 21
327.07610981039431
 31
0.0
  0
LINE
  5
E3A
  8
0
 62
     0
 10
320.6755994339228
 20
327.19410981039431
 30
0.0
 11
320.8005994339228
 21
327.19410981039431
 31
0.0
  0
LINE
  5
E3B
  8
0
 62
     0
 10
320.6755994339228
 20
327.3121098103943
 30
0.0
 11
320.8005994339228
 21
327.3121098103943
 31
0.0
  0
LINE
  5
E3C
  8
0
 62
     0
 10
320.6755994339228
 20
327.4301098103943
 30
0.0
 11
320.8005994339228
 21
327.4301098103943
 31
0.0
  0
LINE
  5
E3D
  8
0
 62
     0
 10
320.6755994339228
 20
327.54810981039441
 30
0.0
 11
320.8005994339228
 21
327.54810981039441
 31
0.0
  0
LINE
  5
E3E
  8
0
 62
     0
 10
320.6755994339228
 20
327.66610981039429
 30
0.0
 11
320.8005994339228
 21
327.66610981039429
 31
0.0
  0
LINE
  5
E3F
  8
0
 62
     0
 10
320.6755994339228
 20
327.7841098103944
 30
0.0
 11
320.8005994339228
 21
327.7841098103944
 31
0.0
  0
LINE
  5
E40
  8
0
 62
     0
 10
320.6755994339228
 20
327.90210981039428
 30
0.0
 11
320.8005994339228
 21
327.90210981039428
 31
0.0
  0
LINE
  5
E41
  8
0
 62
     0
 10
320.6755994339228
 20
328.02010981039439
 30
0.0
 11
320.8005994339228
 21
328.02010981039439
 31
0.0
  0
LINE
  5
E42
  8
0
 62
     0
 10
320.6755994339228
 20
328.13810981039433
 30
0.0
 11
320.8005994339228
 21
328.13810981039433
 31
0.0
  0
LINE
  5
E43
  8
0
 62
     0
 10
320.6755994339228
 20
328.25610981039432
 30
0.0
 11
320.8005994339228
 21
328.25610981039432
 31
0.0
  0
LINE
  5
E44
  8
0
 62
     0
 10
320.6755994339228
 20
328.37410981039432
 30
0.0
 11
320.8005994339228
 21
328.37410981039432
 31
0.0
  0
LINE
  5
E45
  8
0
 62
     0
 10
320.6755994339228
 20
328.49210981039431
 30
0.0
 11
320.8005994339228
 21
328.49210981039431
 31
0.0
  0
LINE
  5
E46
  8
0
 62
     0
 10
320.6755994339228
 20
328.61010981039431
 30
0.0
 11
320.8005994339228
 21
328.61010981039431
 31
0.0
  0
LINE
  5
E47
  8
0
 62
     0
 10
320.6755994339228
 20
328.72810981039441
 30
0.0
 11
320.8005994339228
 21
328.72810981039441
 31
0.0
  0
LINE
  5
E48
  8
0
 62
     0
 10
320.6755994339228
 20
328.8461098103943
 30
0.0
 11
320.8005994339228
 21
328.8461098103943
 31
0.0
  0
LINE
  5
E49
  8
0
 62
     0
 10
320.6755994339228
 20
328.9641098103944
 30
0.0
 11
320.8005994339228
 21
328.9641098103944
 31
0.0
  0
LINE
  5
E4A
  8
0
 62
     0
 10
320.6755994339228
 20
329.08210981039429
 30
0.0
 11
320.8005994339228
 21
329.08210981039429
 31
0.0
  0
LINE
  5
E4B
  8
0
 62
     0
 10
320.6755994339228
 20
329.20010981039439
 30
0.0
 11
320.8005994339228
 21
329.20010981039439
 31
0.0
  0
LINE
  5
E4C
  8
0
 62
     0
 10
320.6755994339228
 20
329.31810981039428
 30
0.0
 11
320.8005994339228
 21
329.31810981039428
 31
0.0
  0
LINE
  5
E4D
  8
0
 62
     0
 10
320.6755994339228
 20
329.43610981039433
 30
0.0
 11
320.8005994339228
 21
329.43610981039433
 31
0.0
  0
LINE
  5
E4E
  8
0
 62
     0
 10
320.6755994339228
 20
329.55410981039432
 30
0.0
 11
320.8005994339228
 21
329.55410981039432
 31
0.0
  0
LINE
  5
E4F
  8
0
 62
     0
 10
320.6755994339228
 20
329.67210981039432
 30
0.0
 11
320.8005994339228
 21
329.67210981039432
 31
0.0
  0
LINE
  5
E50
  8
0
 62
     0
 10
320.6755994339228
 20
329.79010981039431
 30
0.0
 11
320.8005994339228
 21
329.79010981039431
 31
0.0
  0
LINE
  5
E51
  8
0
 62
     0
 10
320.6755994339228
 20
329.90810981039431
 30
0.0
 11
320.8005994339228
 21
329.90810981039431
 31
0.0
  0
LINE
  5
E52
  8
0
 62
     0
 10
320.6755994339228
 20
330.0261098103943
 30
0.0
 11
320.8005994339228
 21
330.0261098103943
 31
0.0
  0
LINE
  5
E53
  8
0
 62
     0
 10
320.6755994339228
 20
330.14410981039441
 30
0.0
 11
320.8005994339228
 21
330.14410981039441
 31
0.0
  0
LINE
  5
E54
  8
0
 62
     0
 10
320.6755994339228
 20
330.26210981039429
 30
0.0
 11
320.8005994339228
 21
330.26210981039429
 31
0.0
  0
LINE
  5
E55
  8
0
 62
     0
 10
320.6755994339228
 20
330.3801098103944
 30
0.0
 11
320.8005994339228
 21
330.3801098103944
 31
0.0
  0
LINE
  5
E56
  8
0
 62
     0
 10
320.6755994339228
 20
330.49810981039428
 30
0.0
 11
320.8005994339228
 21
330.49810981039428
 31
0.0
  0
LINE
  5
E57
  8
0
 62
     0
 10
320.6755994339228
 20
330.61610981039428
 30
0.0
 11
320.8005994339228
 21
330.61610981039428
 31
0.0
  0
LINE
  5
E58
  8
0
 62
     0
 10
320.6755994339228
 20
330.73410981039427
 30
0.0
 11
320.8005994339228
 21
330.73410981039427
 31
0.0
  0
LINE
  5
E59
  8
0
 62
     0
 10
320.6755994339228
 20
330.85210981039432
 30
0.0
 11
320.8005994339228
 21
330.85210981039432
 31
0.0
  0
LINE
  5
E5A
  8
0
 62
     0
 10
320.6755994339228
 20
330.97010981039432
 30
0.0
 11
320.8005994339228
 21
330.97010981039432
 31
0.0
  0
LINE
  5
E5B
  8
0
 62
     0
 10
320.6755994339228
 20
331.08810981039431
 30
0.0
 11
320.8005994339228
 21
331.08810981039431
 31
0.0
  0
LINE
  5
E5C
  8
0
 62
     0
 10
320.6755994339228
 20
331.20610981039431
 30
0.0
 11
320.8005994339228
 21
331.20610981039431
 31
0.0
  0
LINE
  5
E5D
  8
0
 62
     0
 10
320.6755994339228
 20
331.32410981039442
 30
0.0
 11
320.8005994339228
 21
331.32410981039442
 31
0.0
  0
LINE
  5
E5E
  8
0
 62
     0
 10
320.6755994339228
 20
331.4421098103943
 30
0.0
 11
320.8005994339228
 21
331.4421098103943
 31
0.0
  0
LINE
  5
E5F
  8
0
 62
     0
 10
320.6755994339228
 20
331.56010981039441
 30
0.0
 11
320.8005994339228
 21
331.56010981039441
 31
0.0
  0
LINE
  5
E60
  8
0
 62
     0
 10
320.6755994339228
 20
331.67810981039429
 30
0.0
 11
320.8005994339228
 21
331.67810981039429
 31
0.0
  0
LINE
  5
E61
  8
0
 62
     0
 10
320.6755994339228
 20
331.7961098103944
 30
0.0
 11
320.8005994339228
 21
331.7961098103944
 31
0.0
  0
LINE
  5
E62
  8
0
 62
     0
 10
320.6755994339228
 20
331.91410981039428
 30
0.0
 11
320.8005994339228
 21
331.91410981039428
 31
0.0
  0
LINE
  5
E63
  8
0
 62
     0
 10
320.6755994339228
 20
332.03210981039427
 30
0.0
 11
320.8005994339228
 21
332.03210981039427
 31
0.0
  0
LINE
  5
E64
  8
0
 62
     0
 10
320.6755994339228
 20
332.15010981039433
 30
0.0
 11
320.8005994339228
 21
332.15010981039433
 31
0.0
  0
LINE
  5
E65
  8
0
 62
     0
 10
320.6755994339228
 20
332.26810981039432
 30
0.0
 11
320.8005994339228
 21
332.26810981039432
 31
0.0
  0
LINE
  5
E66
  8
0
 62
     0
 10
320.6755994339228
 20
332.38610981039432
 30
0.0
 11
320.8005994339228
 21
332.38610981039432
 31
0.0
  0
LINE
  5
E67
  8
0
 62
     0
 10
320.6755994339228
 20
332.50410981039431
 30
0.0
 11
320.8005994339228
 21
332.50410981039431
 31
0.0
  0
LINE
  5
E68
  8
0
 62
     0
 10
320.6755994339228
 20
332.62210981039431
 30
0.0
 11
320.8005994339228
 21
332.62210981039431
 31
0.0
  0
LINE
  5
E69
  8
0
 62
     0
 10
320.6755994339228
 20
332.74010981039442
 30
0.0
 11
320.8005994339228
 21
332.74010981039442
 31
0.0
  0
LINE
  5
E6A
  8
0
 62
     0
 10
320.6755994339228
 20
332.8581098103943
 30
0.0
 11
320.8005994339228
 21
332.8581098103943
 31
0.0
  0
LINE
  5
E6B
  8
0
 62
     0
 10
320.6755994339228
 20
332.97610981039441
 30
0.0
 11
320.8005994339228
 21
332.97610981039441
 31
0.0
  0
LINE
  5
E6C
  8
0
 62
     0
 10
320.6755994339228
 20
333.09410981039429
 30
0.0
 11
320.8005994339228
 21
333.09410981039429
 31
0.0
  0
LINE
  5
E6D
  8
0
 62
     0
 10
320.6755994339228
 20
333.21210981039428
 30
0.0
 11
320.8005994339228
 21
333.21210981039428
 31
0.0
  0
LINE
  5
E6E
  8
0
 62
     0
 10
320.6755994339228
 20
333.33010981039428
 30
0.0
 11
320.8005994339228
 21
333.33010981039428
 31
0.0
  0
LINE
  5
E6F
  8
0
 62
     0
 10
320.6755994339228
 20
333.44810981039433
 30
0.0
 11
320.8005994339228
 21
333.44810981039433
 31
0.0
  0
LINE
  5
E70
  8
0
 62
     0
 10
320.6755994339228
 20
333.56610981039432
 30
0.0
 11
320.8005994339228
 21
333.56610981039432
 31
0.0
  0
LINE
  5
E71
  8
0
 62
     0
 10
320.6755994339228
 20
333.68410981039432
 30
0.0
 11
320.8005994339228
 21
333.68410981039432
 31
0.0
  0
LINE
  5
E72
  8
0
 62
     0
 10
320.6755994339228
 20
333.80210981039431
 30
0.0
 11
320.8005994339228
 21
333.80210981039431
 31
0.0
  0
LINE
  5
E73
  8
0
 62
     0
 10
320.6755994339228
 20
333.92010981039442
 30
0.0
 11
320.8005994339228
 21
333.92010981039442
 31
0.0
  0
LINE
  5
E74
  8
0
 62
     0
 10
320.6755994339228
 20
334.0381098103943
 30
0.0
 11
320.8005994339228
 21
334.0381098103943
 31
0.0
  0
LINE
  5
E75
  8
0
 62
     0
 10
320.6755994339228
 20
334.15610981039441
 30
0.0
 11
320.8005994339228
 21
334.15610981039441
 31
0.0
  0
LINE
  5
E76
  8
0
 62
     0
 10
320.6755994339228
 20
334.27410981039429
 30
0.0
 11
320.8005994339228
 21
334.27410981039429
 31
0.0
  0
LINE
  5
E77
  8
0
 62
     0
 10
320.6755994339228
 20
334.3921098103944
 30
0.0
 11
320.8005994339228
 21
334.3921098103944
 31
0.0
  0
LINE
  5
E78
  8
0
 62
     0
 10
320.6755994339228
 20
334.51010981039428
 30
0.0
 11
320.8005994339228
 21
334.51010981039428
 31
0.0
  0
LINE
  5
E79
  8
0
 62
     0
 10
320.6755994339228
 20
334.62810981039428
 30
0.0
 11
320.8005994339228
 21
334.62810981039428
 31
0.0
  0
LINE
  5
E7A
  8
0
 62
     0
 10
320.6755994339228
 20
334.74610981039427
 30
0.0
 11
320.8005994339228
 21
334.74610981039427
 31
0.0
  0
LINE
  5
E7B
  8
0
 62
     0
 10
320.6755994339228
 20
334.86410981039432
 30
0.0
 11
320.8005994339228
 21
334.86410981039432
 31
0.0
  0
LINE
  5
E7C
  8
0
 62
     0
 10
320.6755994339228
 20
334.98210981039432
 30
0.0
 11
320.8005994339228
 21
334.98210981039432
 31
0.0
  0
LINE
  5
E7D
  8
0
 62
     0
 10
320.6755994339228
 20
335.10010981039431
 30
0.0
 11
320.8005994339228
 21
335.10010981039431
 31
0.0
  0
LINE
  5
E7E
  8
0
 62
     0
 10
320.6755994339228
 20
335.21810981039431
 30
0.0
 11
320.8005994339228
 21
335.21810981039431
 31
0.0
  0
LINE
  5
E7F
  8
0
 62
     0
 10
320.6755994339228
 20
335.3361098103943
 30
0.0
 11
320.8005994339228
 21
335.3361098103943
 31
0.0
  0
LINE
  5
E80
  8
0
 62
     0
 10
320.6755994339228
 20
335.45410981039441
 30
0.0
 11
320.8005994339228
 21
335.45410981039441
 31
0.0
  0
LINE
  5
E81
  8
0
 62
     0
 10
320.6755994339228
 20
335.57210981039441
 30
0.0
 11
320.8005994339228
 21
335.57210981039441
 31
0.0
  0
LINE
  5
E82
  8
0
 62
     0
 10
320.6755994339228
 20
335.69010981039429
 30
0.0
 11
320.8005994339228
 21
335.69010981039429
 31
0.0
  0
LINE
  5
E83
  8
0
 62
     0
 10
320.6755994339228
 20
335.80810981039428
 30
0.0
 11
320.8005994339228
 21
335.80810981039428
 31
0.0
  0
LINE
  5
E84
  8
0
 62
     0
 10
320.6755994339228
 20
335.92610981039428
 30
0.0
 11
320.8005994339228
 21
335.92610981039428
 31
0.0
  0
LINE
  5
E85
  8
0
 62
     0
 10
320.6755994339228
 20
336.04410981039427
 30
0.0
 11
320.8005994339228
 21
336.04410981039427
 31
0.0
  0
LINE
  5
E86
  8
0
 62
     0
 10
320.6755994339228
 20
336.16210981039433
 30
0.0
 11
320.8005994339228
 21
336.16210981039433
 31
0.0
  0
LINE
  5
E87
  8
0
 62
     0
 10
320.6755994339228
 20
336.28010981039432
 30
0.0
 11
320.8005994339228
 21
336.28010981039432
 31
0.0
  0
LINE
  5
E88
  8
0
 62
     0
 10
320.6755994339228
 20
336.39810981039432
 30
0.0
 11
320.8005994339228
 21
336.39810981039432
 31
0.0
  0
LINE
  5
E89
  8
0
 62
     0
 10
320.6755994339228
 20
336.51610981039431
 30
0.0
 11
320.8005994339228
 21
336.51610981039431
 31
0.0
  0
LINE
  5
E8A
  8
0
 62
     0
 10
320.6755994339228
 20
336.63410981039431
 30
0.0
 11
320.8005994339228
 21
336.63410981039431
 31
0.0
  0
LINE
  5
E8B
  8
0
 62
     0
 10
320.6755994339228
 20
336.75210981039442
 30
0.0
 11
320.8005994339228
 21
336.75210981039442
 31
0.0
  0
LINE
  5
E8C
  8
0
 62
     0
 10
320.6755994339228
 20
336.87010981039441
 30
0.0
 11
320.8005994339228
 21
336.87010981039441
 31
0.0
  0
LINE
  5
E8D
  8
0
 62
     0
 10
320.6755994339228
 20
336.98810981039429
 30
0.0
 11
320.8005994339228
 21
336.98810981039429
 31
0.0
  0
LINE
  5
E8E
  8
0
 62
     0
 10
320.6755994339228
 20
337.1061098103944
 30
0.0
 11
320.8005994339228
 21
337.1061098103944
 31
0.0
  0
LINE
  5
E8F
  8
0
 62
     0
 10
320.6755994339228
 20
337.22410981039428
 30
0.0
 11
320.8005994339228
 21
337.22410981039428
 31
0.0
  0
LINE
  5
E90
  8
0
 62
     0
 10
320.6755994339228
 20
337.34210981039428
 30
0.0
 11
320.8005994339228
 21
337.34210981039428
 31
0.0
  0
LINE
  5
E91
  8
0
 62
     0
 10
320.6755994339228
 20
337.46010981039427
 30
0.0
 11
320.8005994339228
 21
337.46010981039427
 31
0.0
  0
LINE
  5
E92
  8
0
 62
     0
 10
320.6755994339228
 20
337.57810981039432
 30
0.0
 11
320.8005994339228
 21
337.57810981039432
 31
0.0
  0
LINE
  5
E93
  8
0
 62
     0
 10
320.6755994339228
 20
337.69610981039432
 30
0.0
 11
320.8005994339228
 21
337.69610981039432
 31
0.0
  0
LINE
  5
E94
  8
0
 62
     0
 10
320.6755994339228
 20
337.81410981039431
 30
0.0
 11
320.8005994339228
 21
337.81410981039431
 31
0.0
  0
LINE
  5
E95
  8
0
 62
     0
 10
320.6755994339228
 20
337.93210981039431
 30
0.0
 11
320.8005994339228
 21
337.93210981039431
 31
0.0
  0
LINE
  5
E96
  8
0
 62
     0
 10
320.6755994339228
 20
338.05010981039442
 30
0.0
 11
320.8005994339228
 21
338.05010981039442
 31
0.0
  0
LINE
  5
E97
  8
0
 62
     0
 10
320.6755994339228
 20
338.16810981039441
 30
0.0
 11
320.8005994339228
 21
338.16810981039441
 31
0.0
  0
LINE
  5
E98
  8
0
 62
     0
 10
320.6755994339228
 20
338.28610981039441
 30
0.0
 11
320.8005994339228
 21
338.28610981039441
 31
0.0
  0
LINE
  5
E99
  8
0
 62
     0
 10
320.6755994339228
 20
338.40410981039429
 30
0.0
 11
320.8005994339228
 21
338.40410981039429
 31
0.0
  0
LINE
  5
E9A
  8
0
 62
     0
 10
320.6755994339228
 20
338.5221098103944
 30
0.0
 11
320.8005994339228
 21
338.5221098103944
 31
0.0
  0
LINE
  5
E9B
  8
0
 62
     0
 10
320.6755994339228
 20
338.64010981039428
 30
0.0
 11
320.8005994339228
 21
338.64010981039428
 31
0.0
  0
LINE
  5
E9C
  8
0
 62
     0
 10
320.6755994339228
 20
338.75810981039439
 30
0.0
 11
320.8005994339228
 21
338.75810981039439
 31
0.0
  0
LINE
  5
E9D
  8
0
 62
     0
 10
320.6755994339228
 20
338.87610981039433
 30
0.0
 11
320.8005994339228
 21
338.87610981039433
 31
0.0
  0
LINE
  5
E9E
  8
0
 62
     0
 10
320.6755994339228
 20
338.99410981039432
 30
0.0
 11
320.8005994339228
 21
338.99410981039432
 31
0.0
  0
LINE
  5
E9F
  8
0
 62
     0
 10
320.6755994339228
 20
339.11210981039432
 30
0.0
 11
320.8005994339228
 21
339.11210981039432
 31
0.0
  0
LINE
  5
EA0
  8
0
 62
     0
 10
320.6755994339228
 20
339.23010981039431
 30
0.0
 11
320.8005994339228
 21
339.23010981039431
 31
0.0
  0
LINE
  5
EA1
  8
0
 62
     0
 10
320.6755994339228
 20
339.34810981039442
 30
0.0
 11
320.8005994339228
 21
339.34810981039442
 31
0.0
  0
LINE
  5
EA2
  8
0
 62
     0
 10
320.6755994339228
 20
339.46610981039441
 30
0.0
 11
320.8005994339228
 21
339.46610981039441
 31
0.0
  0
LINE
  5
EA3
  8
0
 62
     0
 10
320.6755994339228
 20
339.5841098103943
 30
0.0
 11
320.8005994339228
 21
339.5841098103943
 31
0.0
  0
LINE
  5
EA4
  8
0
 62
     0
 10
320.6755994339228
 20
339.7021098103944
 30
0.0
 11
320.8005994339228
 21
339.7021098103944
 31
0.0
  0
LINE
  5
EA5
  8
0
 62
     0
 10
320.6755994339228
 20
339.82010981039429
 30
0.0
 11
320.8005994339228
 21
339.82010981039429
 31
0.0
  0
LINE
  5
EA6
  8
0
 62
     0
 10
320.6755994339228
 20
339.93810981039439
 30
0.0
 11
320.8005994339228
 21
339.93810981039439
 31
0.0
  0
LINE
  5
EA7
  8
0
 62
     0
 10
320.6755994339228
 20
340.05610981039428
 30
0.0
 11
320.8005994339228
 21
340.05610981039428
 31
0.0
  0
LINE
  5
EA8
  8
0
 62
     0
 10
320.6755994339228
 20
340.17410981039433
 30
0.0
 11
320.8005994339228
 21
340.17410981039433
 31
0.0
  0
LINE
  5
EA9
  8
0
 62
     0
 10
320.6755994339228
 20
340.29210981039432
 30
0.0
 11
320.8005994339228
 21
340.29210981039432
 31
0.0
  0
LINE
  5
EAA
  8
0
 62
     0
 10
320.6755994339228
 20
340.41010981039432
 30
0.0
 11
320.8005994339228
 21
340.41010981039432
 31
0.0
  0
LINE
  5
EAB
  8
0
 62
     0
 10
320.6755994339228
 20
340.52810981039431
 30
0.0
 11
320.8005994339228
 21
340.52810981039431
 31
0.0
  0
LINE
  5
EAC
  8
0
 62
     0
 10
320.6755994339228
 20
340.64610981039442
 30
0.0
 11
320.8005994339228
 21
340.64610981039442
 31
0.0
  0
LINE
  5
EAD
  8
0
 62
     0
 10
320.6755994339228
 20
340.7641098103943
 30
0.0
 11
320.8005994339228
 21
340.7641098103943
 31
0.0
  0
LINE
  5
EAE
  8
0
 62
     0
 10
320.6755994339228
 20
340.88210981039441
 30
0.0
 11
320.8005994339228
 21
340.88210981039441
 31
0.0
  0
LINE
  5
EAF
  8
0
 62
     0
 10
320.6755994339228
 20
341.00010981039429
 30
0.0
 11
320.8005994339228
 21
341.00010981039429
 31
0.0
  0
LINE
  5
EB0
  8
0
 62
     0
 10
320.6755994339228
 20
341.1181098103944
 30
0.0
 11
320.8005994339228
 21
341.1181098103944
 31
0.0
  0
LINE
  5
EB1
  8
0
 62
     0
 10
320.6755994339228
 20
341.23610981039428
 30
0.0
 11
320.8005994339228
 21
341.23610981039428
 31
0.0
  0
LINE
  5
EB2
  8
0
 62
     0
 10
320.6755994339228
 20
341.35410981039439
 30
0.0
 11
320.8005994339228
 21
341.35410981039439
 31
0.0
  0
LINE
  5
EB3
  8
0
 62
     0
 10
320.6755994339228
 20
341.47210981039427
 30
0.0
 11
320.8005994339228
 21
341.47210981039427
 31
0.0
  0
LINE
  5
EB4
  8
0
 62
     0
 10
320.6755994339228
 20
341.59010981039432
 30
0.0
 11
320.8005994339228
 21
341.59010981039432
 31
0.0
  0
LINE
  5
EB5
  8
0
 62
     0
 10
320.6755994339228
 20
341.70810981039432
 30
0.0
 11
320.8005994339228
 21
341.70810981039432
 31
0.0
  0
LINE
  5
EB6
  8
0
 62
     0
 10
320.6755994339228
 20
341.82610981039431
 30
0.0
 11
320.8005994339228
 21
341.82610981039431
 31
0.0
  0
LINE
  5
EB7
  8
0
 62
     0
 10
320.6755994339228
 20
341.94410981039442
 30
0.0
 11
320.8005994339228
 21
341.94410981039442
 31
0.0
  0
LINE
  5
EB8
  8
0
 62
     0
 10
320.6755994339228
 20
342.0621098103943
 30
0.0
 11
320.8005994339228
 21
342.0621098103943
 31
0.0
  0
LINE
  5
EB9
  8
0
 62
     0
 10
320.6755994339228
 20
342.1801098103943
 30
0.0
 11
320.8005994339228
 21
342.1801098103943
 31
0.0
  0
LINE
  5
EBA
  8
0
 62
     0
 10
320.6755994339228
 20
342.29810981039441
 30
0.0
 11
320.8005994339228
 21
342.29810981039441
 31
0.0
  0
LINE
  5
EBB
  8
0
 62
     0
 10
320.6755994339228
 20
342.41610981039429
 30
0.0
 11
320.8005994339228
 21
342.41610981039429
 31
0.0
  0
LINE
  5
EBC
  8
0
 62
     0
 10
320.6755994339228
 20
342.5341098103944
 30
0.0
 11
320.8005994339228
 21
342.5341098103944
 31
0.0
  0
LINE
  5
EBD
  8
0
 62
     0
 10
320.6755994339228
 20
342.65210981039428
 30
0.0
 11
320.8005994339228
 21
342.65210981039428
 31
0.0
  0
LINE
  5
EBE
  8
0
 62
     0
 10
320.6755994339228
 20
342.77010981039427
 30
0.0
 11
320.8005994339228
 21
342.77010981039427
 31
0.0
  0
LINE
  5
EBF
  8
0
 62
     0
 10
320.6755994339228
 20
342.88810981039433
 30
0.0
 11
320.8005994339228
 21
342.88810981039433
 31
0.0
  0
LINE
  5
EC0
  8
0
 62
     0
 10
320.6755994339228
 20
343.00610981039432
 30
0.0
 11
320.8005994339228
 21
343.00610981039432
 31
0.0
  0
LINE
  5
EC1
  8
0
 62
     0
 10
320.6755994339228
 20
343.12410981039432
 30
0.0
 11
320.8005994339228
 21
343.12410981039432
 31
0.0
  0
LINE
  5
EC2
  8
0
 62
     0
 10
320.6755994339228
 20
343.24210981039431
 30
0.0
 11
320.8005994339228
 21
343.24210981039431
 31
0.0
  0
LINE
  5
EC3
  8
0
 62
     0
 10
320.6755994339228
 20
343.36010981039431
 30
0.0
 11
320.8005994339228
 21
343.36010981039431
 31
0.0
  0
LINE
  5
EC4
  8
0
 62
     0
 10
320.6755994339228
 20
343.47810981039441
 30
0.0
 11
320.8005994339228
 21
343.47810981039441
 31
0.0
  0
LINE
  5
EC5
  8
0
 62
     0
 10
320.6755994339228
 20
343.5961098103943
 30
0.0
 11
320.8005994339228
 21
343.5961098103943
 31
0.0
  0
LINE
  5
EC6
  8
0
 62
     0
 10
320.6755994339228
 20
343.7141098103944
 30
0.0
 11
320.8005994339228
 21
343.7141098103944
 31
0.0
  0
LINE
  5
EC7
  8
0
 62
     0
 10
320.6755994339228
 20
343.83210981039429
 30
0.0
 11
320.8005994339228
 21
343.83210981039429
 31
0.0
  0
LINE
  5
EC8
  8
0
 62
     0
 10
320.6755994339228
 20
343.95010981039428
 30
0.0
 11
320.8005994339228
 21
343.95010981039428
 31
0.0
  0
LINE
  5
EC9
  8
0
 62
     0
 10
320.6755994339228
 20
344.06810981039428
 30
0.0
 11
320.8005994339228
 21
344.06810981039428
 31
0.0
  0
LINE
  5
ECA
  8
0
 62
     0
 10
320.6755994339228
 20
344.18610981039433
 30
0.0
 11
320.8005994339228
 21
344.18610981039433
 31
0.0
  0
LINE
  5
ECB
  8
0
 62
     0
 10
320.6755994339228
 20
344.30410981039432
 30
0.0
 11
320.8005994339228
 21
344.30410981039432
 31
0.0
  0
LINE
  5
ECC
  8
0
 62
     0
 10
320.6755994339228
 20
344.42210981039432
 30
0.0
 11
320.8005994339228
 21
344.42210981039432
 31
0.0
  0
LINE
  5
ECD
  8
0
 62
     0
 10
320.6755994339228
 20
344.54010981039443
 30
0.0
 11
320.8005994339228
 21
344.54010981039443
 31
0.0
  0
LINE
  5
ECE
  8
0
 62
     0
 10
320.6755994339228
 20
344.65810981039431
 30
0.0
 11
320.8005994339228
 21
344.65810981039431
 31
0.0
  0
LINE
  5
ECF
  8
0
 62
     0
 10
320.6755994339228
 20
344.7761098103943
 30
0.0
 11
320.8005994339228
 21
344.7761098103943
 31
0.0
  0
LINE
  5
ED0
  8
0
 62
     0
 10
320.6755994339228
 20
344.89410981039441
 30
0.0
 11
320.8005994339228
 21
344.89410981039441
 31
0.0
  0
LINE
  5
ED1
  8
0
 62
     0
 10
320.6755994339228
 20
345.01210981039429
 30
0.0
 11
320.8005994339228
 21
345.01210981039429
 31
0.0
  0
LINE
  5
ED2
  8
0
 62
     0
 10
320.6755994339228
 20
345.1301098103944
 30
0.0
 11
320.8005994339228
 21
345.1301098103944
 31
0.0
  0
LINE
  5
ED3
  8
0
 62
     0
 10
320.6755994339228
 20
345.24810981039428
 30
0.0
 11
320.8005994339228
 21
345.24810981039428
 31
0.0
  0
LINE
  5
ED4
  8
0
 62
     0
 10
320.6755994339228
 20
345.36610981039428
 30
0.0
 11
320.8005994339228
 21
345.36610981039428
 31
0.0
  0
LINE
  5
ED5
  8
0
 62
     0
 10
320.6755994339228
 20
345.48410981039427
 30
0.0
 11
320.8005994339228
 21
345.48410981039427
 31
0.0
  0
LINE
  5
ED6
  8
0
 62
     0
 10
320.6755994339228
 20
345.60210981039432
 30
0.0
 11
320.8005994339228
 21
345.60210981039432
 31
0.0
  0
LINE
  5
ED7
  8
0
 62
     0
 10
320.6755994339228
 20
345.72010981039432
 30
0.0
 11
320.8005994339228
 21
345.72010981039432
 31
0.0
  0
LINE
  5
ED8
  8
0
 62
     0
 10
320.6755994339228
 20
345.83810981039431
 30
0.0
 11
320.8005994339228
 21
345.83810981039431
 31
0.0
  0
LINE
  5
ED9
  8
0
 62
     0
 10
320.6755994339228
 20
345.95610981039431
 30
0.0
 11
320.8005994339228
 21
345.95610981039431
 31
0.0
  0
LINE
  5
EDA
  8
0
 62
     0
 10
320.6755994339228
 20
346.07410981039442
 30
0.0
 11
320.8005994339228
 21
346.07410981039442
 31
0.0
  0
LINE
  5
EDB
  8
0
 62
     0
 10
320.6755994339228
 20
346.1921098103943
 30
0.0
 11
320.8005994339228
 21
346.1921098103943
 31
0.0
  0
LINE
  5
EDC
  8
0
 62
     0
 10
320.6755994339228
 20
346.31010981039441
 30
0.0
 11
320.8005994339228
 21
346.31010981039441
 31
0.0
  0
LINE
  5
EDD
  8
0
 62
     0
 10
320.6755994339228
 20
346.42810981039429
 30
0.0
 11
320.8005994339228
 21
346.42810981039429
 31
0.0
  0
LINE
  5
EDE
  8
0
 62
     0
 10
320.6755994339228
 20
346.54610981039428
 30
0.0
 11
320.8005994339228
 21
346.54610981039428
 31
0.0
  0
LINE
  5
EDF
  8
0
 62
     0
 10
320.6755994339228
 20
346.66410981039428
 30
0.0
 11
320.8005994339228
 21
346.66410981039428
 31
0.0
  0
LINE
  5
EE0
  8
0
 62
     0
 10
320.6755994339228
 20
346.78210981039427
 30
0.0
 11
320.8005994339228
 21
346.78210981039427
 31
0.0
  0
LINE
  5
EE1
  8
0
 62
     0
 10
320.6755994339228
 20
346.90010981039433
 30
0.0
 11
320.8005994339228
 21
346.90010981039433
 31
0.0
  0
LINE
  5
EE2
  8
0
 62
     0
 10
320.6755994339228
 20
347.01810981039432
 30
0.0
 11
320.8005994339228
 21
347.01810981039432
 31
0.0
  0
LINE
  5
EE3
  8
0
 62
     0
 10
320.6755994339228
 20
347.13610981039432
 30
0.0
 11
320.8005994339228
 21
347.13610981039432
 31
0.0
  0
LINE
  5
EE4
  8
0
 62
     0
 10
320.6755994339228
 20
347.25410981039431
 30
0.0
 11
320.8005994339228
 21
347.25410981039431
 31
0.0
  0
LINE
  5
EE5
  8
0
 62
     0
 10
320.6755994339228
 20
347.37210981039442
 30
0.0
 11
320.8005994339228
 21
347.37210981039442
 31
0.0
  0
LINE
  5
EE6
  8
0
 62
     0
 10
320.6755994339228
 20
347.4901098103943
 30
0.0
 11
320.8005994339228
 21
347.4901098103943
 31
0.0
  0
LINE
  5
EE7
  8
0
 62
     0
 10
320.6755994339228
 20
347.6081098103943
 30
0.0
 11
320.8005994339228
 21
347.6081098103943
 31
0.0
  0
LINE
  5
EE8
  8
0
 62
     0
 10
320.6755994339228
 20
347.72610981039441
 30
0.0
 11
320.8005994339228
 21
347.72610981039441
 31
0.0
  0
LINE
  5
EE9
  8
0
 62
     0
 10
320.6755994339228
 20
347.84410981039429
 30
0.0
 11
320.8005994339228
 21
347.84410981039429
 31
0.0
  0
LINE
  5
EEA
  8
0
 62
     0
 10
320.6755994339228
 20
347.96210981039428
 30
0.0
 11
320.8005994339228
 21
347.96210981039428
 31
0.0
  0
LINE
  5
EEB
  8
0
 62
     0
 10
320.6755994339228
 20
348.08010981039428
 30
0.0
 11
320.8005994339228
 21
348.08010981039428
 31
0.0
  0
LINE
  5
EEC
  8
0
 62
     0
 10
320.6755994339228
 20
348.19810981039433
 30
0.0
 11
320.8005994339228
 21
348.19810981039433
 31
0.0
  0
LINE
  5
EED
  8
0
 62
     0
 10
320.6755994339228
 20
348.31610981039432
 30
0.0
 11
320.8005994339228
 21
348.31610981039432
 31
0.0
  0
LINE
  5
EEE
  8
0
 62
     0
 10
320.6755994339228
 20
348.43410981039432
 30
0.0
 11
320.8005994339228
 21
348.43410981039432
 31
0.0
  0
LINE
  5
EEF
  8
0
 62
     0
 10
320.6755994339228
 20
348.55210981039431
 30
0.0
 11
320.8005994339228
 21
348.55210981039431
 31
0.0
  0
LINE
  5
EF0
  8
0
 62
     0
 10
320.6755994339228
 20
348.67010981039442
 30
0.0
 11
320.8005994339228
 21
348.67010981039442
 31
0.0
  0
LINE
  5
EF1
  8
0
 62
     0
 10
320.6755994339228
 20
348.7881098103943
 30
0.0
 11
320.8005994339228
 21
348.7881098103943
 31
0.0
  0
LINE
  5
EF2
  8
0
 62
     0
 10
320.6755994339228
 20
348.90610981039441
 30
0.0
 11
320.8005994339228
 21
348.90610981039441
 31
0.0
  0
LINE
  5
EF3
  8
0
 62
     0
 10
320.6755994339228
 20
349.02410981039441
 30
0.0
 11
320.8005994339228
 21
349.02410981039441
 31
0.0
  0
LINE
  5
EF4
  8
0
 62
     0
 10
320.6755994339228
 20
349.14210981039429
 30
0.0
 11
320.8005994339228
 21
349.14210981039429
 31
0.0
  0
LINE
  5
EF5
  8
0
 62
     0
 10
320.6755994339228
 20
349.26010981039428
 30
0.0
 11
320.8005994339228
 21
349.26010981039428
 31
0.0
  0
LINE
  5
EF6
  8
0
 62
     0
 10
320.6755994339228
 20
349.37810981039428
 30
0.0
 11
320.8005994339228
 21
349.37810981039428
 31
0.0
  0
LINE
  5
EF7
  8
0
 62
     0
 10
320.6755994339228
 20
349.49610981039427
 30
0.0
 11
320.8005994339228
 21
349.49610981039427
 31
0.0
  0
LINE
  5
EF8
  8
0
 62
     0
 10
320.6755994339228
 20
349.61410981039432
 30
0.0
 11
320.8005994339228
 21
349.61410981039432
 31
0.0
  0
LINE
  5
EF9
  8
0
 62
     0
 10
320.6755994339228
 20
349.73210981039432
 30
0.0
 11
320.8005994339228
 21
349.73210981039432
 31
0.0
  0
LINE
  5
EFA
  8
0
 62
     0
 10
320.6755994339228
 20
349.85010981039431
 30
0.0
 11
320.8005994339228
 21
349.85010981039431
 31
0.0
  0
LINE
  5
EFB
  8
0
 62
     0
 10
320.6755994339228
 20
349.96810981039442
 30
0.0
 11
320.8005994339228
 21
349.96810981039442
 31
0.0
  0
LINE
  5
EFC
  8
0
 62
     0
 10
320.6755994339228
 20
350.0861098103943
 30
0.0
 11
320.8005994339228
 21
350.0861098103943
 31
0.0
  0
LINE
  5
EFD
  8
0
 62
     0
 10
320.6755994339228
 20
350.20410981039441
 30
0.0
 11
320.8005994339228
 21
350.20410981039441
 31
0.0
  0
LINE
  5
EFE
  8
0
 62
     0
 10
320.6755994339228
 20
350.32210981039429
 30
0.0
 11
320.8005994339228
 21
350.32210981039429
 31
0.0
  0
LINE
  5
EFF
  8
0
 62
     0
 10
320.6755994339228
 20
350.4401098103944
 30
0.0
 11
320.8005994339228
 21
350.4401098103944
 31
0.0
  0
LINE
  5
F00
  8
0
 62
     0
 10
320.6755994339228
 20
350.55810981039428
 30
0.0
 11
320.8005994339228
 21
350.55810981039428
 31
0.0
  0
LINE
  5
F01
  8
0
 62
     0
 10
320.6755994339228
 20
350.67610981039439
 30
0.0
 11
320.8005994339228
 21
350.67610981039439
 31
0.0
  0
LINE
  5
F02
  8
0
 62
     0
 10
320.6755994339228
 20
350.79410981039427
 30
0.0
 11
320.8005994339228
 21
350.79410981039427
 31
0.0
  0
LINE
  5
F03
  8
0
 62
     0
 10
320.6755994339228
 20
350.91210981039433
 30
0.0
 11
320.8005994339228
 21
350.91210981039433
 31
0.0
  0
LINE
  5
F04
  8
0
 62
     0
 10
320.6755994339228
 20
351.03010981039432
 30
0.0
 11
320.8005994339228
 21
351.03010981039432
 31
0.0
  0
LINE
  5
F05
  8
0
 62
     0
 10
320.6755994339228
 20
351.14810981039432
 30
0.0
 11
320.8005994339228
 21
351.14810981039432
 31
0.0
  0
LINE
  5
F06
  8
0
 62
     0
 10
320.6755994339228
 20
351.26610981039443
 30
0.0
 11
320.8005994339228
 21
351.26610981039443
 31
0.0
  0
LINE
  5
F07
  8
0
 62
     0
 10
320.6755994339228
 20
351.38410981039431
 30
0.0
 11
320.8005994339228
 21
351.38410981039431
 31
0.0
  0
LINE
  5
F08
  8
0
 62
     0
 10
320.6755994339228
 20
351.50210981039442
 30
0.0
 11
320.8005994339228
 21
351.50210981039442
 31
0.0
  0
LINE
  5
F09
  8
0
 62
     0
 10
320.6755994339228
 20
351.62010981039441
 30
0.0
 11
320.8005994339228
 21
351.62010981039441
 31
0.0
  0
LINE
  5
F0A
  8
0
 62
     0
 10
320.6755994339228
 20
351.73810981039429
 30
0.0
 11
320.8005994339228
 21
351.73810981039429
 31
0.0
  0
LINE
  5
F0B
  8
0
 62
     0
 10
320.6755994339228
 20
351.8561098103944
 30
0.0
 11
320.8005994339228
 21
351.8561098103944
 31
0.0
  0
LINE
  5
F0C
  8
0
 62
     0
 10
320.6755994339228
 20
351.97410981039428
 30
0.0
 11
320.8005994339228
 21
351.97410981039428
 31
0.0
  0
LINE
  5
F0D
  8
0
 62
     0
 10
320.6755994339228
 20
352.09210981039439
 30
0.0
 11
320.8005994339228
 21
352.09210981039439
 31
0.0
  0
LINE
  5
F0E
  8
0
 62
     0
 10
320.6755994339228
 20
352.21010981039427
 30
0.0
 11
320.8005994339228
 21
352.21010981039427
 31
0.0
  0
LINE
  5
F0F
  8
0
 62
     0
 10
320.6755994339228
 20
352.32810981039432
 30
0.0
 11
320.8005994339228
 21
352.32810981039432
 31
0.0
  0
LINE
  5
F10
  8
0
 62
     0
 10
320.6755994339228
 20
352.44610981039432
 30
0.0
 11
320.8005994339228
 21
352.44610981039432
 31
0.0
  0
LINE
  5
F11
  8
0
 62
     0
 10
320.6755994339228
 20
352.56410981039443
 30
0.0
 11
320.8005994339228
 21
352.56410981039443
 31
0.0
  0
LINE
  5
F12
  8
0
 62
     0
 10
320.6755994339228
 20
352.68210981039431
 30
0.0
 11
320.8005994339228
 21
352.68210981039431
 31
0.0
  0
LINE
  5
F13
  8
0
 62
     0
 10
320.6755994339228
 20
352.80010981039442
 30
0.0
 11
320.8005994339228
 21
352.80010981039442
 31
0.0
  0
LINE
  5
F14
  8
0
 62
     0
 10
320.6755994339228
 20
352.9181098103943
 30
0.0
 11
320.8005994339228
 21
352.9181098103943
 31
0.0
  0
LINE
  5
F15
  8
0
 62
     0
 10
320.6755994339228
 20
353.03610981039441
 30
0.0
 11
320.8005994339228
 21
353.03610981039441
 31
0.0
  0
LINE
  5
F16
  8
0
 62
     0
 10
320.6755994339228
 20
353.15410981039429
 30
0.0
 11
320.8005994339228
 21
353.15410981039429
 31
0.0
  0
LINE
  5
F17
  8
0
 62
     0
 10
320.6755994339228
 20
353.2721098103944
 30
0.0
 11
320.8005994339228
 21
353.2721098103944
 31
0.0
  0
LINE
  5
F18
  8
0
 62
     0
 10
320.6755994339228
 20
353.39010981039428
 30
0.0
 11
320.8005994339228
 21
353.39010981039428
 31
0.0
  0
LINE
  5
F19
  8
0
 62
     0
 10
320.6755994339228
 20
353.50810981039427
 30
0.0
 11
320.8005994339228
 21
353.50810981039427
 31
0.0
  0
LINE
  5
F1A
  8
0
 62
     0
 10
320.6755994339228
 20
353.62610981039433
 30
0.0
 11
320.8005994339228
 21
353.62610981039433
 31
0.0
  0
LINE
  5
F1B
  8
0
 62
     0
 10
320.6755994339228
 20
353.74410981039432
 30
0.0
 11
320.8005994339228
 21
353.74410981039432
 31
0.0
  0
LINE
  5
F1C
  8
0
 62
     0
 10
320.6755994339228
 20
353.86210981039432
 30
0.0
 11
320.8005994339228
 21
353.86210981039432
 31
0.0
  0
LINE
  5
F1D
  8
0
 62
     0
 10
320.6755994339228
 20
353.98010981039431
 30
0.0
 11
320.8005994339228
 21
353.98010981039431
 31
0.0
  0
LINE
  5
F1E
  8
0
 62
     0
 10
320.6755994339228
 20
354.09810981039442
 30
0.0
 11
320.8005994339228
 21
354.09810981039442
 31
0.0
  0
LINE
  5
F1F
  8
0
 62
     0
 10
320.6755994339228
 20
354.2161098103943
 30
0.0
 11
320.8005994339228
 21
354.2161098103943
 31
0.0
  0
LINE
  5
F20
  8
0
 62
     0
 10
320.6755994339228
 20
354.3341098103943
 30
0.0
 11
320.8005994339228
 21
354.3341098103943
 31
0.0
  0
LINE
  5
F21
  8
0
 62
     0
 10
320.6755994339228
 20
354.4521098103944
 30
0.0
 11
320.8005994339228
 21
354.4521098103944
 31
0.0
  0
LINE
  5
F22
  8
0
 62
     0
 10
320.6755994339228
 20
354.57010981039429
 30
0.0
 11
320.8005994339228
 21
354.57010981039429
 31
0.0
  0
LINE
  5
F23
  8
0
 62
     0
 10
320.6755994339228
 20
354.68810981039439
 30
0.0
 11
320.8005994339228
 21
354.68810981039439
 31
0.0
  0
LINE
  5
F24
  8
0
 62
     0
 10
320.6755994339228
 20
354.80610981039428
 30
0.0
 11
320.8005994339228
 21
354.80610981039428
 31
0.0
  0
LINE
  5
F25
  8
0
 62
     0
 10
320.6755994339228
 20
354.92410981039433
 30
0.0
 11
320.8005994339228
 21
354.92410981039433
 31
0.0
  0
LINE
  5
F26
  8
0
 62
     0
 10
320.6755994339228
 20
355.04210981039432
 30
0.0
 11
320.8005994339228
 21
355.04210981039432
 31
0.0
  0
LINE
  5
F27
  8
0
 62
     0
 10
320.6755994339228
 20
355.16010981039432
 30
0.0
 11
320.8005994339228
 21
355.16010981039432
 31
0.0
  0
LINE
  5
F28
  8
0
 62
     0
 10
320.6755994339228
 20
355.27810981039431
 30
0.0
 11
320.8005994339228
 21
355.27810981039431
 31
0.0
  0
LINE
  5
F29
  8
0
 62
     0
 10
320.6755994339228
 20
355.39610981039442
 30
0.0
 11
320.8005994339228
 21
355.39610981039442
 31
0.0
  0
LINE
  5
F2A
  8
0
 62
     0
 10
320.6755994339228
 20
355.5141098103943
 30
0.0
 11
320.8005994339228
 21
355.5141098103943
 31
0.0
  0
LINE
  5
F2B
  8
0
 62
     0
 10
320.6755994339228
 20
355.63210981039441
 30
0.0
 11
320.8005994339228
 21
355.63210981039441
 31
0.0
  0
LINE
  5
F2C
  8
0
 62
     0
 10
320.6755994339228
 20
355.75010981039429
 30
0.0
 11
320.8005994339228
 21
355.75010981039429
 31
0.0
  0
LINE
  5
F2D
  8
0
 62
     0
 10
320.6755994339228
 20
355.8681098103944
 30
0.0
 11
320.8005994339228
 21
355.8681098103944
 31
0.0
  0
LINE
  5
F2E
  8
0
 62
     0
 10
320.6755994339228
 20
355.98610981039428
 30
0.0
 11
320.8005994339228
 21
355.98610981039428
 31
0.0
  0
LINE
  5
F2F
  8
0
 62
     0
 10
320.6755994339228
 20
356.10410981039428
 30
0.0
 11
320.8005994339228
 21
356.10410981039428
 31
0.0
  0
LINE
  5
F30
  8
0
 62
     0
 10
320.6755994339228
 20
356.22210981039427
 30
0.0
 11
320.8005994339228
 21
356.22210981039427
 31
0.0
  0
LINE
  5
F31
  8
0
 62
     0
 10
320.6755994339228
 20
356.34010981039432
 30
0.0
 11
320.8005994339228
 21
356.34010981039432
 31
0.0
  0
LINE
  5
F32
  8
0
 62
     0
 10
320.6755994339228
 20
356.45810981039432
 30
0.0
 11
320.8005994339228
 21
356.45810981039432
 31
0.0
  0
LINE
  5
F33
  8
0
 62
     0
 10
320.6755994339228
 20
356.57610981039431
 30
0.0
 11
320.8005994339228
 21
356.57610981039431
 31
0.0
  0
LINE
  5
F34
  8
0
 62
     0
 10
320.6755994339228
 20
356.69410981039431
 30
0.0
 11
320.8005994339228
 21
356.69410981039431
 31
0.0
  0
LINE
  5
F35
  8
0
 62
     0
 10
320.6755994339228
 20
356.8121098103943
 30
0.0
 11
320.8005994339228
 21
356.8121098103943
 31
0.0
  0
LINE
  5
F36
  8
0
 62
     0
 10
320.6755994339228
 20
356.9301098103943
 30
0.0
 11
320.8005994339228
 21
356.9301098103943
 31
0.0
  0
LINE
  5
F37
  8
0
 62
     0
 10
320.6755994339228
 20
357.04810981039441
 30
0.0
 11
320.8005994339228
 21
357.04810981039441
 31
0.0
  0
LINE
  5
F38
  8
0
 62
     0
 10
320.6755994339228
 20
357.16610981039429
 30
0.0
 11
320.8005994339228
 21
357.16610981039429
 31
0.0
  0
LINE
  5
F39
  8
0
 62
     0
 10
320.6755994339228
 20
357.2841098103944
 30
0.0
 11
320.8005994339228
 21
357.2841098103944
 31
0.0
  0
LINE
  5
F3A
  8
0
 62
     0
 10
320.6755994339228
 20
357.40210981039428
 30
0.0
 11
320.8005994339228
 21
357.40210981039428
 31
0.0
  0
LINE
  5
F3B
  8
0
 62
     0
 10
320.6755994339228
 20
357.52010981039427
 30
0.0
 11
320.8005994339228
 21
357.52010981039427
 31
0.0
  0
LINE
  5
F3C
  8
0
 62
     0
 10
320.6755994339228
 20
357.63810981039433
 30
0.0
 11
320.8005994339228
 21
357.63810981039433
 31
0.0
  0
LINE
  5
F3D
  8
0
 62
     0
 10
320.6755994339228
 20
357.75610981039432
 30
0.0
 11
320.8005994339228
 21
357.75610981039432
 31
0.0
  0
LINE
  5
F3E
  8
0
 62
     0
 10
320.6755994339228
 20
357.87410981039432
 30
0.0
 11
320.8005994339228
 21
357.87410981039432
 31
0.0
  0
LINE
  5
F3F
  8
0
 62
     0
 10
320.6755994339228
 20
357.99210981039442
 30
0.0
 11
320.8005994339228
 21
357.99210981039442
 31
0.0
  0
LINE
  5
F40
  8
0
 62
     0
 10
320.6755994339228
 20
358.11010981039431
 30
0.0
 11
320.8005994339228
 21
358.11010981039431
 31
0.0
  0
LINE
  5
F41
  8
0
 62
     0
 10
320.6755994339228
 20
358.22810981039441
 30
0.0
 11
320.8005994339228
 21
358.22810981039441
 31
0.0
  0
LINE
  5
F42
  8
0
 62
     0
 10
320.6755994339228
 20
358.3461098103943
 30
0.0
 11
320.8005994339228
 21
358.3461098103943
 31
0.0
  0
LINE
  5
F43
  8
0
 62
     0
 10
320.6755994339228
 20
358.4641098103944
 30
0.0
 11
320.8005994339228
 21
358.4641098103944
 31
0.0
  0
LINE
  5
F44
  8
0
 62
     0
 10
320.6755994339228
 20
358.58210981039429
 30
0.0
 11
320.8005994339228
 21
358.58210981039429
 31
0.0
  0
LINE
  5
F45
  8
0
 62
     0
 10
320.6755994339228
 20
358.70010981039428
 30
0.0
 11
320.8005994339228
 21
358.70010981039428
 31
0.0
  0
LINE
  5
F46
  8
0
 62
     0
 10
320.6755994339228
 20
358.81810981039428
 30
0.0
 11
320.8005994339228
 21
358.81810981039428
 31
0.0
  0
LINE
  5
F47
  8
0
 62
     0
 10
320.6755994339228
 20
358.93610981039433
 30
0.0
 11
320.8005994339228
 21
358.93610981039433
 31
0.0
  0
LINE
  5
F48
  8
0
 62
     0
 10
320.6755994339228
 20
359.05410981039432
 30
0.0
 11
320.8005994339228
 21
359.05410981039432
 31
0.0
  0
LINE
  5
F49
  8
0
 62
     0
 10
320.6755994339228
 20
359.17210981039432
 30
0.0
 11
320.8005994339228
 21
359.17210981039432
 31
0.0
  0
LINE
  5
F4A
  8
0
 62
     0
 10
320.6755994339228
 20
359.29010981039443
 30
0.0
 11
320.8005994339228
 21
359.29010981039443
 31
0.0
  0
LINE
  5
F4B
  8
0
 62
     0
 10
320.6755994339228
 20
359.40810981039431
 30
0.0
 11
320.8005994339228
 21
359.40810981039431
 31
0.0
  0
ENDBLK
  5
F4D
  8
0
  0
BLOCK
  8
0
  2
*X5
 70
     1
 10
0.0
 20
0.0
 30
0.0
  3
*X5
  1

  0
LINE
  5
F98
  8
0
 62
     0
 10
252.22701645322979
 20
314.99999999999989
 30
0.0
 11
232.83104857529841
 21
314.99999999999989
 31
0.0
  0
LINE
  5
F99
  8
0
 62
     0
 10
252.22701645322979
 20
313.49999999999989
 30
0.0
 11
232.83104857529841
 21
313.49999999999989
 31
0.0
  0
LINE
  5
F9A
  8
0
 62
     0
 10
252.22701645322979
 20
312.0
 30
0.0
 11
232.8310485752983
 21
312.0
 31
0.0
  0
LINE
  5
F9B
  8
0
 62
     0
 10
252.22701645322979
 20
310.49999999999989
 30
0.0
 11
232.8310485752983
 21
310.49999999999989
 31
0.0
  0
LINE
  5
F9C
  8
0
 62
     0
 10
252.22701645322979
 20
308.99999999999989
 30
0.0
 11
232.8310485752983
 21
308.99999999999989
 31
0.0
  0
LINE
  5
F9D
  8
0
 62
     0
 10
252.22701645322979
 20
307.49999999999989
 30
0.0
 11
232.8310485752983
 21
307.49999999999989
 31
0.0
  0
LINE
  5
F9E
  8
0
 62
     0
 10
252.22701645322979
 20
306.0
 30
0.0
 11
232.8310485752983
 21
306.0
 31
0.0
  0
LINE
  5
F9F
  8
0
 62
     0
 10
252.22701645322979
 20
304.49999999999989
 30
0.0
 11
232.8310485752983
 21
304.49999999999989
 31
0.0
  0
LINE
  5
FA0
  8
0
 62
     0
 10
252.22701645322971
 20
302.99999999999989
 30
0.0
 11
232.8310485752983
 21
302.99999999999989
 31
0.0
  0
LINE
  5
FA1
  8
0
 62
     0
 10
252.22701645322971
 20
301.5
 30
0.0
 11
232.8310485752983
 21
301.5
 31
0.0
  0
LINE
  5
FA2
  8
0
 62
     0
 10
252.22701645322971
 20
300.0
 30
0.0
 11
232.8310485752983
 21
300.0
 31
0.0
  0
LINE
  5
FA3
  8
0
 62
     0
 10
252.22701645322971
 20
298.49999999999989
 30
0.0
 11
232.8310485752983
 21
298.49999999999989
 31
0.0
  0
LINE
  5
FA4
  8
0
 62
     0
 10
252.22701645322971
 20
296.99999999999989
 30
0.0
 11
232.8310485752983
 21
296.99999999999989
 31
0.0
  0
LINE
  5
FA5
  8
0
 62
     0
 10
252.22701645322971
 20
295.5
 30
0.0
 11
232.8310485752983
 21
295.5
 31
0.0
  0
LINE
  5
FA6
  8
0
 62
     0
 10
252.22701645322971
 20
293.99999999999989
 30
0.0
 11
232.8310485752983
 21
293.99999999999989
 31
0.0
  0
LINE
  5
FA7
  8
0
 62
     0
 10
252.22701645322971
 20
292.49999999999989
 30
0.0
 11
232.8310485752983
 21
292.49999999999989
 31
0.0
  0
LINE
  5
FA8
  8
0
 62
     0
 10
252.22701645322971
 20
291.0
 30
0.0
 11
232.8310485752983
 21
291.0
 31
0.0
  0
LINE
  5
FA9
  8
0
 62
     0
 10
252.2270164532296
 20
289.49999999999989
 30
0.0
 11
232.8310485752983
 21
289.49999999999989
 31
0.0
  0
LINE
  5
FAA
  8
0
 62
     0
 10
252.2270164532296
 20
287.99999999999989
 30
0.0
 11
232.83104857529821
 21
287.99999999999989
 31
0.0
  0
LINE
  5
FAB
  8
0
 62
     0
 10
252.2270164532296
 20
286.49999999999989
 30
0.0
 11
232.83104857529821
 21
286.49999999999989
 31
0.0
  0
LINE
  5
FAC
  8
0
 62
     0
 10
252.2270164532296
 20
285.0
 30
0.0
 11
232.83104857529821
 21
285.0
 31
0.0
  0
LINE
  5
FAD
  8
0
 62
     0
 10
252.2270164532296
 20
283.49999999999989
 30
0.0
 11
232.83104857529821
 21
283.49999999999989
 31
0.0
  0
LINE
  5
FAE
  8
0
 62
     0
 10
252.2270164532296
 20
281.99999999999989
 30
0.0
 11
232.83104857529821
 21
281.99999999999989
 31
0.0
  0
LINE
  5
FAF
  8
0
 62
     0
 10
252.2270164532296
 20
280.49999999999989
 30
0.0
 11
232.83104857529821
 21
280.49999999999989
 31
0.0
  0
LINE
  5
FB0
  8
0
 62
     0
 10
252.2270164532296
 20
279.0
 30
0.0
 11
232.83104857529821
 21
279.0
 31
0.0
  0
LINE
  5
FB1
  8
0
 62
     0
 10
252.2270164532296
 20
277.49999999999989
 30
0.0
 11
232.83104857529821
 21
277.49999999999989
 31
0.0
  0
LINE
  5
FB2
  8
0
 62
     0
 10
252.2270164532296
 20
275.99999999999989
 30
0.0
 11
232.83104857529821
 21
275.99999999999989
 31
0.0
  0
LINE
  5
FB3
  8
0
 62
     0
 10
252.2270164532296
 20
274.5
 30
0.0
 11
232.83104857529821
 21
274.5
 31
0.0
  0
LINE
  5
FB4
  8
0
 62
     0
 10
252.2270164532296
 20
272.99999999999989
 30
0.0
 11
232.83104857529821
 21
272.99999999999989
 31
0.0
  0
LINE
  5
FB5
  8
0
 62
     0
 10
252.2270164532296
 20
271.49999999999989
 30
0.0
 11
232.83104857529821
 21
271.49999999999989
 31
0.0
  0
LINE
  5
FB6
  8
0
 62
     0
 10
252.2270164532296
 20
269.99999999999989
 30
0.0
 11
232.83104857529821
 21
269.99999999999989
 31
0.0
  0
LINE
  5
FB7
  8
0
 62
     0
 10
252.2270164532296
 20
268.5
 30
0.0
 11
232.83104857529821
 21
268.5
 31
0.0
  0
LINE
  5
FB8
  8
0
 62
     0
 10
252.2270164532296
 20
266.99999999999989
 30
0.0
 11
232.83104857529821
 21
266.99999999999989
 31
0.0
  0
LINE
  5
FB9
  8
0
 62
     0
 10
252.22701645322951
 20
265.49999999999989
 30
0.0
 11
232.83104857529821
 21
265.49999999999989
 31
0.0
  0
LINE
  5
FBA
  8
0
 62
     0
 10
252.22701645322951
 20
264.0
 30
0.0
 11
232.8310485752981
 21
264.0
 31
0.0
  0
LINE
  5
FBB
  8
0
 62
     0
 10
252.22701645322951
 20
262.5
 30
0.0
 11
232.8310485752981
 21
262.5
 31
0.0
  0
LINE
  5
FBC
  8
0
 62
     0
 10
252.22701645322951
 20
260.99999999999989
 30
0.0
 11
232.8310485752981
 21
260.99999999999989
 31
0.0
  0
LINE
  5
FBD
  8
0
 62
     0
 10
252.22701645322951
 20
259.49999999999989
 30
0.0
 11
232.8310485752981
 21
259.49999999999989
 31
0.0
  0
LINE
  5
FBE
  8
0
 62
     0
 10
252.22701645322951
 20
258.0
 30
0.0
 11
232.8310485752981
 21
258.0
 31
0.0
  0
LINE
  5
FBF
  8
0
 62
     0
 10
252.22701645322951
 20
256.49999999999989
 30
0.0
 11
232.8310485752981
 21
256.49999999999989
 31
0.0
  0
LINE
  5
FC0
  8
0
 62
     0
 10
252.22701645322951
 20
255.0
 30
0.0
 11
232.8310485752981
 21
255.0
 31
0.0
  0
LINE
  5
FC1
  8
0
 62
     0
 10
252.22701645322951
 20
253.5
 30
0.0
 11
232.8310485752981
 21
253.5
 31
0.0
  0
LINE
  5
FC2
  8
0
 62
     0
 10
252.2270164532294
 20
252.0
 30
0.0
 11
232.8310485752981
 21
252.0
 31
0.0
  0
LINE
  5
FC3
  8
0
 62
     0
 10
252.2270164532294
 20
250.5
 30
0.0
 11
232.8310485752981
 21
250.5
 31
0.0
  0
LINE
  5
FC4
  8
0
 62
     0
 10
252.2270164532294
 20
249.0
 30
0.0
 11
232.8310485752981
 21
249.0
 31
0.0
  0
LINE
  5
FC5
  8
0
 62
     0
 10
252.2270164532294
 20
247.5
 30
0.0
 11
232.8310485752981
 21
247.5
 31
0.0
  0
LINE
  5
FC6
  8
0
 62
     0
 10
252.2270164532294
 20
246.0
 30
0.0
 11
232.8310485752981
 21
246.0
 31
0.0
  0
LINE
  5
FC7
  8
0
 62
     0
 10
252.2270164532294
 20
244.5
 30
0.0
 11
232.8310485752981
 21
244.5
 31
0.0
  0
LINE
  5
FC8
  8
0
 62
     0
 10
252.2270164532294
 20
243.0
 30
0.0
 11
232.8310485752981
 21
243.0
 31
0.0
  0
LINE
  5
FC9
  8
0
 62
     0
 10
252.2270164532294
 20
241.5
 30
0.0
 11
232.8310485752981
 21
241.5
 31
0.0
  0
LINE
  5
FCA
  8
0
 62
     0
 10
252.2270164532294
 20
240.0
 30
0.0
 11
232.8310485752981
 21
240.0
 31
0.0
  0
LINE
  5
FCB
  8
0
 62
     0
 10
252.22701645322931
 20
238.5
 30
0.0
 11
232.8310485752981
 21
238.5
 31
0.0
  0
LINE
  5
FCC
  8
0
 62
     0
 10
252.22701645322931
 20
237.0
 30
0.0
 11
232.8310485752981
 21
237.0
 31
0.0
  0
LINE
  5
FCD
  8
0
 62
     0
 10
252.22701645322931
 20
235.5
 30
0.0
 11
232.8310485752981
 21
235.5
 31
0.0
  0
LINE
  5
FCE
  8
0
 62
     0
 10
252.22701645322931
 20
234.0
 30
0.0
 11
232.8310485752981
 21
234.0
 31
0.0
  0
LINE
  5
FCF
  8
0
 62
     0
 10
252.22701645322931
 20
232.5
 30
0.0
 11
232.8310485752981
 21
232.5
 31
0.0
  0
LINE
  5
FD0
  8
0
 62
     0
 10
252.22701645322931
 20
231.0
 30
0.0
 11
232.8310485752981
 21
231.0
 31
0.0
  0
LINE
  5
FD1
  8
0
 62
     0
 10
252.22701645322931
 20
229.5
 30
0.0
 11
232.8310485752981
 21
229.5
 31
0.0
  0
LINE
  5
FD2
  8
0
 62
     0
 10
252.22701645322931
 20
228.0
 30
0.0
 11
232.8310485752981
 21
228.0
 31
0.0
  0
LINE
  5
FD3
  8
0
 62
     0
 10
252.22701645322931
 20
226.5
 30
0.0
 11
232.8310485752981
 21
226.5
 31
0.0
  0
LINE
  5
FD4
  8
0
 62
     0
 10
252.22701645322931
 20
225.0
 30
0.0
 11
232.83104857529801
 21
225.0
 31
0.0
  0
LINE
  5
FD5
  8
0
 62
     0
 10
252.2270164532292
 20
223.5
 30
0.0
 11
232.83104857529801
 21
223.5
 31
0.0
  0
LINE
  5
FD6
  8
0
 62
     0
 10
252.2270164532292
 20
222.0
 30
0.0
 11
232.83104857529801
 21
222.0
 31
0.0
  0
LINE
  5
FD7
  8
0
 62
     0
 10
252.2270164532292
 20
220.5
 30
0.0
 11
232.83104857529801
 21
220.5
 31
0.0
  0
LINE
  5
FD8
  8
0
 62
     0
 10
252.2270164532292
 20
219.0
 30
0.0
 11
232.83104857529801
 21
219.0
 31
0.0
  0
LINE
  5
FD9
  8
0
 62
     0
 10
252.2270164532292
 20
217.5
 30
0.0
 11
232.83104857529801
 21
217.5
 31
0.0
  0
LINE
  5
FDA
  8
0
 62
     0
 10
252.2270164532292
 20
216.0
 30
0.0
 11
232.83104857529801
 21
216.0
 31
0.0
  0
LINE
  5
FDB
  8
0
 62
     0
 10
252.2270164532292
 20
214.5
 30
0.0
 11
232.83104857529801
 21
214.5
 31
0.0
  0
LINE
  5
FDC
  8
0
 62
     0
 10
252.2270164532292
 20
213.0
 30
0.0
 11
232.83104857529801
 21
213.0
 31
0.0
  0
LINE
  5
FDD
  8
0
 62
     0
 10
252.2270164532292
 20
211.5
 30
0.0
 11
232.83104857529801
 21
211.5
 31
0.0
  0
LINE
  5
FDE
  8
0
 62
     0
 10
252.2270164532292
 20
210.0
 30
0.0
 11
232.83104857529801
 21
210.0
 31
0.0
  0
LINE
  5
FDF
  8
0
 62
     0
 10
252.2270164532292
 20
208.5
 30
0.0
 11
232.83104857529801
 21
208.5
 31
0.0
  0
LINE
  5
FE0
  8
0
 62
     0
 10
252.2270164532292
 20
207.0
 30
0.0
 11
232.83104857529801
 21
207.0
 31
0.0
  0
LINE
  5
FE1
  8
0
 62
     0
 10
252.2270164532292
 20
205.5
 30
0.0
 11
232.83104857529801
 21
205.5
 31
0.0
  0
LINE
  5
FE2
  8
0
 62
     0
 10
252.2270164532292
 20
204.0
 30
0.0
 11
232.83104857529801
 21
204.0
 31
0.0
  0
LINE
  5
FE3
  8
0
 62
     0
 10
252.2270164532292
 20
202.5
 30
0.0
 11
232.8310485752979
 21
202.5
 31
0.0
  0
LINE
  5
FE4
  8
0
 62
     0
 10
252.22701645322911
 20
201.0
 30
0.0
 11
232.8310485752979
 21
201.0
 31
0.0
  0
LINE
  5
FE5
  8
0
 62
     0
 10
252.22701645322911
 20
199.49999999999989
 30
0.0
 11
232.8310485752979
 21
199.49999999999989
 31
0.0
  0
LINE
  5
FE6
  8
0
 62
     0
 10
252.22701645322911
 20
198.0
 30
0.0
 11
232.8310485752979
 21
198.0
 31
0.0
  0
LINE
  5
FE7
  8
0
 62
     0
 10
252.22701645322911
 20
196.5
 30
0.0
 11
232.8310485752979
 21
196.5
 31
0.0
  0
LINE
  5
FE8
  8
0
 62
     0
 10
252.22701645322911
 20
195.0
 30
0.0
 11
232.8310485752979
 21
195.0
 31
0.0
  0
LINE
  5
FE9
  8
0
 62
     0
 10
252.22701645322911
 20
193.5
 30
0.0
 11
232.8310485752979
 21
193.5
 31
0.0
  0
LINE
  5
FEA
  8
0
 62
     0
 10
252.22701645322911
 20
191.99999999999989
 30
0.0
 11
232.8310485752979
 21
191.99999999999989
 31
0.0
  0
LINE
  5
FEB
  8
0
 62
     0
 10
252.22701645322911
 20
190.5
 30
0.0
 11
232.8310485752979
 21
190.5
 31
0.0
  0
LINE
  5
FEC
  8
0
 62
     0
 10
252.22701645322911
 20
188.99999999999989
 30
0.0
 11
232.8310485752979
 21
188.99999999999989
 31
0.0
  0
LINE
  5
FED
  8
0
 62
     0
 10
252.22701645322911
 20
187.5
 30
0.0
 11
232.8310485752979
 21
187.5
 31
0.0
  0
LINE
  5
FEE
  8
0
 62
     0
 10
252.227016453229
 20
185.99999999999989
 30
0.0
 11
232.8310485752979
 21
185.99999999999989
 31
0.0
  0
LINE
  5
FEF
  8
0
 62
     0
 10
252.227016453229
 20
184.49999999999989
 30
0.0
 11
232.8310485752979
 21
184.49999999999989
 31
0.0
  0
LINE
  5
FF0
  8
0
 62
     0
 10
252.227016453229
 20
183.0
 30
0.0
 11
232.8310485752979
 21
183.0
 31
0.0
  0
LINE
  5
FF1
  8
0
 62
     0
 10
252.227016453229
 20
181.49999999999989
 30
0.0
 11
232.8310485752979
 21
181.49999999999989
 31
0.0
  0
LINE
  5
FF2
  8
0
 62
     0
 10
252.227016453229
 20
180.0
 30
0.0
 11
232.8310485752979
 21
180.0
 31
0.0
  0
LINE
  5
FF3
  8
0
 62
     0
 10
252.227016453229
 20
178.49999999999989
 30
0.0
 11
232.83104857529781
 21
178.49999999999989
 31
0.0
  0
LINE
  5
FF4
  8
0
 62
     0
 10
252.227016453229
 20
177.0
 30
0.0
 11
232.83104857529781
 21
177.0
 31
0.0
  0
LINE
  5
FF5
  8
0
 62
     0
 10
252.227016453229
 20
175.49999999999989
 30
0.0
 11
232.83104857529781
 21
175.49999999999989
 31
0.0
  0
ENDBLK
  5
FF7
  8
0
  0
BLOCK
  8
0
  2
*X6
 70
     1
 10
0.0
 20
0.0
 30
0.0
  3
*X6
  1

  0
LINE
  5
FF9
  8
0
 62
     0
 10
172.5
 20
24.76839964283085
 30
0.0
 11
172.5
 21
134.7683996428276
 31
0.0
  0
LINE
  5
FFA
  8
0
 62
     0
 10
171.0
 20
24.768399642830829
 30
0.0
 11
171.0
 21
134.7683996428276
 31
0.0
  0
LINE
  5
FFB
  8
0
 62
     0
 10
169.5
 20
24.768399642830811
 30
0.0
 11
169.5
 21
134.7683996428276
 31
0.0
  0
LINE
  5
FFC
  8
0
 62
     0
 10
168.0
 20
24.76839964283079
 30
0.0
 11
168.0
 21
134.7683996428276
 31
0.0
  0
LINE
  5
FFD
  8
0
 62
     0
 10
166.5
 20
24.768399642830762
 30
0.0
 11
166.5
 21
134.7683996428276
 31
0.0
  0
LINE
  5
FFE
  8
0
 62
     0
 10
165.0
 20
24.768399642830751
 30
0.0
 11
165.0
 21
134.7683996428276
 31
0.0
  0
LINE
  5
FFF
  8
0
 62
     0
 10
163.5
 20
24.76839964283073
 30
0.0
 11
163.5
 21
134.7683996428276
 31
0.0
  0
LINE
  5
1000
  8
0
 62
     0
 10
162.0
 20
24.768399642830708
 30
0.0
 11
162.0
 21
134.7683996428276
 31
0.0
  0
LINE
  5
1001
  8
0
 62
     0
 10
160.5
 20
24.76839964283068
 30
0.0
 11
160.5
 21
134.7683996428276
 31
0.0
  0
LINE
  5
1002
  8
0
 62
     0
 10
159.0
 20
24.768399642830659
 30
0.0
 11
159.0
 21
134.7683996428276
 31
0.0
  0
LINE
  5
1003
  8
0
 62
     0
 10
157.5
 20
24.768399642830641
 30
0.0
 11
157.5
 21
134.7683996428276
 31
0.0
  0
LINE
  5
1004
  8
0
 62
     0
 10
156.0
 20
24.768399642830619
 30
0.0
 11
156.0
 21
134.7683996428276
 31
0.0
  0
LINE
  5
1005
  8
0
 62
     0
 10
154.5
 20
24.768399642830602
 30
0.0
 11
154.5
 21
134.7683996428276
 31
0.0
  0
LINE
  5
1006
  8
0
 62
     0
 10
153.0
 20
24.76839964283058
 30
0.0
 11
153.0
 21
134.7683996428276
 31
0.0
  0
LINE
  5
1007
  8
0
 62
     0
 10
151.5
 20
24.768399642830559
 30
0.0
 11
151.5
 21
134.7683996428276
 31
0.0
  0
LINE
  5
1008
  8
0
 62
     0
 10
150.0
 20
24.768399642830541
 30
0.0
 11
150.0
 21
134.7683996428276
 31
0.0
  0
LINE
  5
1009
  8
0
 62
     0
 10
148.5
 20
24.76839964283052
 30
0.0
 11
148.5
 21
134.7683996428276
 31
0.0
  0
LINE
  5
100A
  8
0
 62
     0
 10
147.0
 20
24.768399642830499
 30
0.0
 11
147.0
 21
134.7683996428276
 31
0.0
  0
LINE
  5
100B
  8
0
 62
     0
 10
145.5
 20
24.768399642830481
 30
0.0
 11
145.5
 21
134.7683996428276
 31
0.0
  0
LINE
  5
100C
  8
0
 62
     0
 10
144.0
 20
24.76839964283046
 30
0.0
 11
144.0
 21
134.7683996428276
 31
0.0
  0
LINE
  5
100D
  8
0
 62
     0
 10
142.5
 20
24.768399642830438
 30
0.0
 11
142.5
 21
134.7683996428276
 31
0.0
  0
LINE
  5
100E
  8
0
 62
     0
 10
141.0
 20
24.768399642830421
 30
0.0
 11
141.0
 21
134.7683996428276
 31
0.0
  0
LINE
  5
100F
  8
0
 62
     0
 10
139.5
 20
24.768399642830399
 30
0.0
 11
139.5
 21
134.7683996428276
 31
0.0
  0
LINE
  5
1010
  8
0
 62
     0
 10
138.0
 20
24.768399642830381
 30
0.0
 11
138.0
 21
134.7683996428276
 31
0.0
  0
LINE
  5
1011
  8
0
 62
     0
 10
136.5
 20
24.76839964283036
 30
0.0
 11
136.5
 21
134.7683996428276
 31
0.0
  0
LINE
  5
1012
  8
0
 62
     0
 10
135.0
 20
24.768399642830339
 30
0.0
 11
135.0
 21
134.7683996428276
 31
0.0
  0
LINE
  5
1013
  8
0
 62
     0
 10
133.5
 20
24.768399642830321
 30
0.0
 11
133.5
 21
134.7683996428276
 31
0.0
  0
LINE
  5
1014
  8
0
 62
     0
 10
132.0
 20
24.7683996428303
 30
0.0
 11
132.0
 21
134.7683996428276
 31
0.0
  0
LINE
  5
1015
  8
0
 62
     0
 10
130.5
 20
24.768399642830278
 30
0.0
 11
130.5
 21
134.7683996428276
 31
0.0
  0
LINE
  5
1016
  8
0
 62
     0
 10
129.0
 20
24.76839964283025
 30
0.0
 11
129.0
 21
134.7683996428276
 31
0.0
  0
LINE
  5
1017
  8
0
 62
     0
 10
127.5
 20
24.768399642830229
 30
0.0
 11
127.5
 21
134.7683996428276
 31
0.0
  0
LINE
  5
1018
  8
0
 62
     0
 10
126.0
 20
24.768399642830211
 30
0.0
 11
126.0
 21
134.7683996428276
 31
0.0
  0
LINE
  5
1019
  8
0
 62
     0
 10
124.5
 20
24.7683996428302
 30
0.0
 11
124.5
 21
134.7683996428276
 31
0.0
  0
LINE
  5
101A
  8
0
 62
     0
 10
123.0
 20
24.768399642830168
 30
0.0
 11
123.0
 21
134.7683996428276
 31
0.0
  0
LINE
  5
101B
  8
0
 62
     0
 10
121.5
 20
24.76839964283015
 30
0.0
 11
121.5
 21
134.7683996428276
 31
0.0
  0
LINE
  5
101C
  8
0
 62
     0
 10
120.0
 20
24.768399642830129
 30
0.0
 11
120.0
 21
134.7683996428276
 31
0.0
  0
LINE
  5
101D
  8
0
 62
     0
 10
118.5
 20
24.768399642830111
 30
0.0
 11
118.5
 21
134.7683996428276
 31
0.0
  0
LINE
  5
101E
  8
0
 62
     0
 10
117.0
 20
24.76839964283009
 30
0.0
 11
117.0
 21
134.7683996428276
 31
0.0
  0
LINE
  5
101F
  8
0
 62
     0
 10
115.5
 20
24.768399642830069
 30
0.0
 11
115.5
 21
134.7683996428276
 31
0.0
  0
LINE
  5
1020
  8
0
 62
     0
 10
114.0
 20
24.768399642830051
 30
0.0
 11
114.0
 21
134.7683996428276
 31
0.0
  0
LINE
  5
1021
  8
0
 62
     0
 10
112.5
 20
24.76839964283003
 30
0.0
 11
112.5
 21
134.7683996428276
 31
0.0
  0
LINE
  5
1022
  8
0
 62
     0
 10
111.0
 20
24.768399642830008
 30
0.0
 11
111.0
 21
134.7683996428276
 31
0.0
  0
LINE
  5
1023
  8
0
 62
     0
 10
109.5
 20
24.768399642829991
 30
0.0
 11
109.5
 21
134.7683996428276
 31
0.0
  0
LINE
  5
1024
  8
0
 62
     0
 10
108.0
 20
24.768399642829969
 30
0.0
 11
108.0
 21
134.7683996428276
 31
0.0
  0
LINE
  5
1025
  8
0
 62
     0
 10
106.5
 20
24.768399642829952
 30
0.0
 11
106.5
 21
134.7683996428276
 31
0.0
  0
LINE
  5
1026
  8
0
 62
     0
 10
105.0
 20
24.76839964282993
 30
0.0
 11
105.0
 21
134.7683996428276
 31
0.0
  0
LINE
  5
1027
  8
0
 62
     0
 10
103.5
 20
24.768399642829909
 30
0.0
 11
103.5
 21
134.7683996428276
 31
0.0
  0
LINE
  5
1028
  8
0
 62
     0
 10
102.0
 20
24.768399642829891
 30
0.0
 11
102.0
 21
134.7683996428276
 31
0.0
  0
LINE
  5
1029
  8
0
 62
     0
 10
100.5
 20
24.768399642829859
 30
0.0
 11
100.5
 21
134.7683996428276
 31
0.0
  0
LINE
  5
102A
  8
0
 62
     0
 10
99.0
 20
24.768399642829849
 30
0.0
 11
99.000000000000014
 21
134.7683996428276
 31
0.0
  0
LINE
  5
102B
  8
0
 62
     0
 10
97.5
 20
24.76839964282982
 30
0.0
 11
97.500000000000014
 21
134.7683996428276
 31
0.0
  0
LINE
  5
102C
  8
0
 62
     0
 10
96.0
 20
24.768399642829809
 30
0.0
 11
96.000000000000014
 21
134.7683996428276
 31
0.0
  0
LINE
  5
102D
  8
0
 62
     0
 10
94.500000000000014
 20
24.768399642829781
 30
0.0
 11
94.500000000000014
 21
134.7683996428276
 31
0.0
  0
LINE
  5
102E
  8
0
 62
     0
 10
93.0
 20
24.76839964282976
 30
0.0
 11
93.000000000000014
 21
134.7683996428276
 31
0.0
  0
LINE
  5
102F
  8
0
 62
     0
 10
91.5
 20
24.768399642829738
 30
0.0
 11
91.500000000000014
 21
134.7683996428276
 31
0.0
  0
LINE
  5
1030
  8
0
 62
     0
 10
90.0
 20
24.768399642829721
 30
0.0
 11
90.000000000000014
 21
134.7683996428276
 31
0.0
  0
LINE
  5
1031
  8
0
 62
     0
 10
88.499999999999986
 20
24.768399642829699
 30
0.0
 11
88.500000000000014
 21
134.7683996428276
 31
0.0
  0
LINE
  5
1032
  8
0
 62
     0
 10
87.0
 20
24.768399642829682
 30
0.0
 11
87.000000000000014
 21
134.7683996428276
 31
0.0
  0
LINE
  5
1033
  8
0
 62
     0
 10
85.5
 20
24.76839964282966
 30
0.0
 11
85.500000000000014
 21
134.7683996428276
 31
0.0
  0
LINE
  5
1034
  8
0
 62
     0
 10
84.0
 20
24.768399642829639
 30
0.0
 11
84.000000000000014
 21
134.7683996428276
 31
0.0
  0
LINE
  5
1035
  8
0
 62
     0
 10
82.5
 20
24.768399642829621
 30
0.0
 11
82.500000000000014
 21
134.7683996428276
 31
0.0
  0
LINE
  5
1036
  8
0
 62
     0
 10
81.0
 20
24.7683996428296
 30
0.0
 11
81.000000000000014
 21
134.7683996428276
 31
0.0
  0
LINE
  5
1037
  8
0
 62
     0
 10
79.5
 20
24.768399642829579
 30
0.0
 11
79.500000000000014
 21
134.7683996428276
 31
0.0
  0
LINE
  5
1038
  8
0
 62
     0
 10
78.0
 20
24.768399642829561
 30
0.0
 11
78.000000000000014
 21
134.7683996428276
 31
0.0
  0
LINE
  5
1039
  8
0
 62
     0
 10
76.5
 20
24.768399642829539
 30
0.0
 11
76.500000000000014
 21
134.7683996428276
 31
0.0
  0
LINE
  5
103A
  8
0
 62
     0
 10
75.0
 20
24.768399642829522
 30
0.0
 11
75.000000000000014
 21
134.7683996428276
 31
0.0
  0
LINE
  5
103B
  8
0
 62
     0
 10
73.5
 20
24.76839964282949
 30
0.0
 11
73.500000000000014
 21
134.7683996428276
 31
0.0
  0
LINE
  5
103C
  8
0
 62
     0
 10
72.0
 20
24.768399642829479
 30
0.0
 11
72.000000000000014
 21
134.7683996428276
 31
0.0
  0
LINE
  5
103D
  8
0
 62
     0
 10
70.5
 20
24.768399642829451
 30
0.0
 11
70.500000000000014
 21
134.7683996428276
 31
0.0
  0
LINE
  5
103E
  8
0
 62
     0
 10
69.0
 20
24.768399642829429
 30
0.0
 11
69.000000000000014
 21
134.7683996428276
 31
0.0
  0
LINE
  5
103F
  8
0
 62
     0
 10
67.5
 20
24.768399642829412
 30
0.0
 11
67.500000000000014
 21
134.7683996428276
 31
0.0
  0
LINE
  5
1040
  8
0
 62
     0
 10
66.0
 20
24.768399642829401
 30
0.0
 11
66.000000000000014
 21
134.7683996428276
 31
0.0
  0
LINE
  5
1041
  8
0
 62
     0
 10
64.5
 20
24.768399642829369
 30
0.0
 11
64.500000000000014
 21
134.7683996428276
 31
0.0
  0
LINE
  5
1042
  8
0
 62
     0
 10
63.0
 20
24.768399642829351
 30
0.0
 11
63.0
 21
134.7683996428276
 31
0.0
  0
LINE
  5
1043
  8
0
 62
     0
 10
61.5
 20
24.76839964282933
 30
0.0
 11
61.500000000000007
 21
134.7683996428276
 31
0.0
  0
LINE
  5
1044
  8
0
 62
     0
 10
60.0
 20
24.768399642829309
 30
0.0
 11
60.0
 21
134.7683996428276
 31
0.0
  0
LINE
  5
1045
  8
0
 62
     0
 10
58.5
 20
24.768399642829291
 30
0.0
 11
58.500000000000007
 21
134.7683996428276
 31
0.0
  0
LINE
  5
1046
  8
0
 62
     0
 10
57.0
 20
24.768399642829269
 30
0.0
 11
57.000000000000007
 21
134.7683996428276
 31
0.0
  0
LINE
  5
1047
  8
0
 62
     0
 10
55.5
 20
24.768399642829252
 30
0.0
 11
55.5
 21
134.7683996428276
 31
0.0
  0
LINE
  5
1048
  8
0
 62
     0
 10
54.0
 20
24.76839964282923
 30
0.0
 11
54.000000000000007
 21
134.7683996428276
 31
0.0
  0
LINE
  5
1049
  8
0
 62
     0
 10
52.5
 20
24.768399642829209
 30
0.0
 11
52.5
 21
134.7683996428276
 31
0.0
  0
LINE
  5
104A
  8
0
 62
     0
 10
51.0
 20
24.768399642829191
 30
0.0
 11
51.000000000000007
 21
134.7683996428276
 31
0.0
  0
LINE
  5
104B
  8
0
 62
     0
 10
49.5
 20
24.76839964282917
 30
0.0
 11
49.500000000000007
 21
134.7683996428276
 31
0.0
  0
LINE
  5
104C
  8
0
 62
     0
 10
48.0
 20
24.768399642829149
 30
0.0
 11
48.0
 21
134.7683996428276
 31
0.0
  0
LINE
  5
104D
  8
0
 62
     0
 10
46.5
 20
24.768399642829131
 30
0.0
 11
46.500000000000007
 21
134.7683996428276
 31
0.0
  0
LINE
  5
104E
  8
0
 62
     0
 10
45.0
 20
24.76839964282911
 30
0.0
 11
45.0
 21
134.7683996428276
 31
0.0
  0
LINE
  5
104F
  8
0
 62
     0
 10
43.5
 20
24.768399642829088
 30
0.0
 11
43.5
 21
134.7683996428276
 31
0.0
  0
LINE
  5
1050
  8
0
 62
     0
 10
42.0
 20
24.76839964282906
 30
0.0
 11
42.000000000000007
 21
134.7683996428276
 31
0.0
  0
LINE
  5
1051
  8
0
 62
     0
 10
40.499999999999993
 20
24.768399642829038
 30
0.0
 11
40.5
 21
134.7683996428276
 31
0.0
  0
LINE
  5
1052
  8
0
 62
     0
 10
39.0
 20
24.768399642829021
 30
0.0
 11
39.000000000000007
 21
134.7683996428276
 31
0.0
  0
LINE
  5
1053
  8
0
 62
     0
 10
37.5
 20
24.76839964282901
 30
0.0
 11
37.500000000000007
 21
134.7683996428276
 31
0.0
  0
LINE
  5
1054
  8
0
 62
     0
 10
36.0
 20
24.768399642828982
 30
0.0
 11
36.000000000000007
 21
134.7683996428276
 31
0.0
  0
LINE
  5
1055
  8
0
 62
     0
 10
34.5
 20
24.76839964282896
 30
0.0
 11
34.500000000000007
 21
134.7683996428276
 31
0.0
  0
LINE
  5
1056
  8
0
 62
     0
 10
33.0
 20
24.768399642828939
 30
0.0
 11
33.000000000000007
 21
134.7683996428276
 31
0.0
  0
ENDBLK
  5
1058
  8
0
  0
BLOCK
  8
0
  2
*X7
 70
     1
 10
0.0
 20
0.0
 30
0.0
  3
*X7
  1

  0
LINE
  5
105A
  8
0
 62
     0
 10
540.0
 20
24.768399642827671
 30
0.0
 11
540.0
 21
133.26839964282809
 31
0.0
  0
LINE
  5
105B
  8
0
 62
     0
 10
537.0
 20
24.768399642827671
 30
0.0
 11
537.0
 21
133.26839964282809
 31
0.0
  0
LINE
  5
105C
  8
0
 62
     0
 10
534.0
 20
24.768399642827671
 30
0.0
 11
534.0
 21
133.26839964282809
 31
0.0
  0
LINE
  5
105D
  8
0
 62
     0
 10
531.0
 20
24.768399642827671
 30
0.0
 11
531.0
 21
133.26839964282809
 31
0.0
  0
LINE
  5
105E
  8
0
 62
     0
 10
528.0
 20
24.768399642827671
 30
0.0
 11
528.0
 21
133.26839964282809
 31
0.0
  0
LINE
  5
105F
  8
0
 62
     0
 10
525.0
 20
24.768399642827671
 30
0.0
 11
525.0
 21
133.26839964282809
 31
0.0
  0
LINE
  5
1060
  8
0
 62
     0
 10
522.0
 20
24.768399642827671
 30
0.0
 11
522.0
 21
133.26839964282809
 31
0.0
  0
LINE
  5
1061
  8
0
 62
     0
 10
519.0
 20
24.768399642827671
 30
0.0
 11
519.0
 21
133.26839964282809
 31
0.0
  0
LINE
  5
1062
  8
0
 62
     0
 10
516.0
 20
24.768399642827671
 30
0.0
 11
516.0
 21
133.26839964282809
 31
0.0
  0
LINE
  5
1063
  8
0
 62
     0
 10
513.0
 20
24.768399642827671
 30
0.0
 11
513.0
 21
133.26839964282809
 31
0.0
  0
LINE
  5
1064
  8
0
 62
     0
 10
510.0
 20
24.768399642827671
 30
0.0
 11
510.0
 21
133.26839964282809
 31
0.0
  0
LINE
  5
1065
  8
0
 62
     0
 10
507.0
 20
24.768399642827671
 30
0.0
 11
507.0
 21
133.26839964282809
 31
0.0
  0
LINE
  5
1066
  8
0
 62
     0
 10
504.0
 20
24.768399642827671
 30
0.0
 11
504.0
 21
133.26839964282809
 31
0.0
  0
LINE
  5
1067
  8
0
 62
     0
 10
501.0
 20
24.768399642827671
 30
0.0
 11
501.0
 21
133.26839964282809
 31
0.0
  0
LINE
  5
1068
  8
0
 62
     0
 10
498.0
 20
24.768399642827671
 30
0.0
 11
498.0
 21
133.26839964282809
 31
0.0
  0
LINE
  5
1069
  8
0
 62
     0
 10
495.0
 20
24.768399642827671
 30
0.0
 11
495.0
 21
133.26839964282809
 31
0.0
  0
LINE
  5
106A
  8
0
 62
     0
 10
492.0
 20
24.768399642827671
 30
0.0
 11
492.0
 21
133.26839964282809
 31
0.0
  0
LINE
  5
106B
  8
0
 62
     0
 10
489.0
 20
24.768399642827671
 30
0.0
 11
489.0
 21
133.26839964282809
 31
0.0
  0
LINE
  5
106C
  8
0
 62
     0
 10
486.0
 20
24.768399642827671
 30
0.0
 11
486.0
 21
133.26839964282809
 31
0.0
  0
LINE
  5
106D
  8
0
 62
     0
 10
483.0
 20
24.768399642827671
 30
0.0
 11
483.0
 21
133.26839964282809
 31
0.0
  0
LINE
  5
106E
  8
0
 62
     0
 10
480.0
 20
24.768399642827671
 30
0.0
 11
480.0
 21
133.26839964282809
 31
0.0
  0
LINE
  5
106F
  8
0
 62
     0
 10
477.0
 20
24.768399642827671
 30
0.0
 11
477.0
 21
133.26839964282809
 31
0.0
  0
LINE
  5
1070
  8
0
 62
     0
 10
474.0
 20
24.768399642827671
 30
0.0
 11
474.0
 21
133.26839964282809
 31
0.0
  0
LINE
  5
1071
  8
0
 62
     0
 10
471.0
 20
24.768399642827671
 30
0.0
 11
471.0
 21
133.26839964282809
 31
0.0
  0
LINE
  5
1072
  8
0
 62
     0
 10
468.0
 20
24.768399642827671
 30
0.0
 11
468.0
 21
133.26839964282809
 31
0.0
  0
LINE
  5
1073
  8
0
 62
     0
 10
465.0
 20
24.768399642827671
 30
0.0
 11
465.0
 21
133.26839964282809
 31
0.0
  0
LINE
  5
1074
  8
0
 62
     0
 10
462.0
 20
24.768399642827671
 30
0.0
 11
462.0
 21
133.26839964282809
 31
0.0
  0
LINE
  5
1075
  8
0
 62
     0
 10
459.0
 20
24.768399642827671
 30
0.0
 11
459.0
 21
133.26839964282809
 31
0.0
  0
LINE
  5
1076
  8
0
 62
     0
 10
456.0
 20
24.768399642827671
 30
0.0
 11
456.0
 21
133.26839964282809
 31
0.0
  0
LINE
  5
1077
  8
0
 62
     0
 10
453.0
 20
24.768399642827671
 30
0.0
 11
453.0
 21
133.26839964282809
 31
0.0
  0
LINE
  5
1078
  8
0
 62
     0
 10
450.0
 20
24.768399642827671
 30
0.0
 11
450.0
 21
133.26839964282809
 31
0.0
  0
LINE
  5
1079
  8
0
 62
     0
 10
447.0
 20
24.768399642827671
 30
0.0
 11
447.0
 21
133.26839964282809
 31
0.0
  0
LINE
  5
107A
  8
0
 62
     0
 10
444.0
 20
24.768399642827671
 30
0.0
 11
444.0
 21
133.26839964282809
 31
0.0
  0
LINE
  5
107B
  8
0
 62
     0
 10
441.0
 20
24.768399642827671
 30
0.0
 11
441.0
 21
133.26839964282809
 31
0.0
  0
LINE
  5
107C
  8
0
 62
     0
 10
438.0
 20
24.768399642827671
 30
0.0
 11
438.0
 21
133.26839964282809
 31
0.0
  0
LINE
  5
107D
  8
0
 62
     0
 10
435.0
 20
24.768399642827671
 30
0.0
 11
435.0
 21
133.26839964282809
 31
0.0
  0
LINE
  5
107E
  8
0
 62
     0
 10
432.0
 20
24.768399642827671
 30
0.0
 11
432.0
 21
133.26839964282809
 31
0.0
  0
LINE
  5
107F
  8
0
 62
     0
 10
429.0
 20
24.768399642827671
 30
0.0
 11
429.0
 21
133.26839964282809
 31
0.0
  0
LINE
  5
1080
  8
0
 62
     0
 10
426.0
 20
24.768399642827671
 30
0.0
 11
426.0
 21
133.26839964282809
 31
0.0
  0
LINE
  5
1081
  8
0
 62
     0
 10
423.0
 20
24.768399642827671
 30
0.0
 11
423.0
 21
133.26839964282809
 31
0.0
  0
LINE
  5
1082
  8
0
 62
     0
 10
420.0
 20
24.768399642827671
 30
0.0
 11
420.0
 21
133.26839964282809
 31
0.0
  0
LINE
  5
1083
  8
0
 62
     0
 10
417.0
 20
24.768399642827671
 30
0.0
 11
417.0
 21
133.26839964282809
 31
0.0
  0
LINE
  5
1084
  8
0
 62
     0
 10
414.0
 20
24.768399642827671
 30
0.0
 11
414.0
 21
133.26839964282809
 31
0.0
  0
LINE
  5
1085
  8
0
 62
     0
 10
411.0
 20
24.768399642827671
 30
0.0
 11
411.0
 21
133.26839964282809
 31
0.0
  0
LINE
  5
1086
  8
0
 62
     0
 10
408.0
 20
24.768399642827671
 30
0.0
 11
408.0
 21
133.26839964282809
 31
0.0
  0
LINE
  5
1087
  8
0
 62
     0
 10
405.0
 20
24.768399642827671
 30
0.0
 11
405.0
 21
133.26839964282809
 31
0.0
  0
LINE
  5
1088
  8
0
 62
     0
 10
402.0
 20
24.768399642827671
 30
0.0
 11
402.0
 21
133.26839964282809
 31
0.0
  0
LINE
  5
1089
  8
0
 62
     0
 10
401.7001144910534
 20
27.0
 30
0.0
 11
542.57511449105345
 21
27.0
 31
0.0
  0
LINE
  5
108A
  8
0
 62
     0
 10
401.7001144910534
 20
30.0
 30
0.0
 11
542.57511449105345
 21
30.0
 31
0.0
  0
LINE
  5
108B
  8
0
 62
     0
 10
401.7001144910534
 20
33.0
 30
0.0
 11
542.57511449105345
 21
33.0
 31
0.0
  0
LINE
  5
108C
  8
0
 62
     0
 10
401.7001144910534
 20
36.0
 30
0.0
 11
542.57511449105345
 21
36.0
 31
0.0
  0
LINE
  5
108D
  8
0
 62
     0
 10
401.7001144910534
 20
39.0
 30
0.0
 11
542.57511449105345
 21
39.0
 31
0.0
  0
LINE
  5
108E
  8
0
 62
     0
 10
401.7001144910534
 20
42.0
 30
0.0
 11
542.57511449105345
 21
42.0
 31
0.0
  0
LINE
  5
108F
  8
0
 62
     0
 10
401.7001144910534
 20
45.0
 30
0.0
 11
542.57511449105345
 21
45.0
 31
0.0
  0
LINE
  5
1090
  8
0
 62
     0
 10
401.7001144910534
 20
48.0
 30
0.0
 11
542.57511449105345
 21
48.0
 31
0.0
  0
LINE
  5
1091
  8
0
 62
     0
 10
401.7001144910534
 20
51.0
 30
0.0
 11
542.57511449105345
 21
51.0
 31
0.0
  0
LINE
  5
1092
  8
0
 62
     0
 10
401.7001144910534
 20
54.0
 30
0.0
 11
542.57511449105345
 21
54.0
 31
0.0
  0
LINE
  5
1093
  8
0
 62
     0
 10
401.7001144910534
 20
57.0
 30
0.0
 11
542.57511449105345
 21
57.0
 31
0.0
  0
LINE
  5
1094
  8
0
 62
     0
 10
401.7001144910534
 20
60.0
 30
0.0
 11
542.57511449105345
 21
60.0
 31
0.0
  0
LINE
  5
1095
  8
0
 62
     0
 10
401.7001144910534
 20
63.0
 30
0.0
 11
542.57511449105345
 21
63.0
 31
0.0
  0
LINE
  5
1096
  8
0
 62
     0
 10
401.7001144910534
 20
66.0
 30
0.0
 11
542.57511449105345
 21
66.0
 31
0.0
  0
LINE
  5
1097
  8
0
 62
     0
 10
401.7001144910534
 20
69.0
 30
0.0
 11
542.57511449105345
 21
69.0
 31
0.0
  0
LINE
  5
1098
  8
0
 62
     0
 10
401.7001144910534
 20
72.0
 30
0.0
 11
542.57511449105345
 21
72.0
 31
0.0
  0
LINE
  5
1099
  8
0
 62
     0
 10
401.7001144910534
 20
75.0
 30
0.0
 11
542.57511449105345
 21
75.0
 31
0.0
  0
LINE
  5
109A
  8
0
 62
     0
 10
401.7001144910534
 20
78.0
 30
0.0
 11
542.57511449105345
 21
78.0
 31
0.0
  0
LINE
  5
109B
  8
0
 62
     0
 10
401.7001144910534
 20
81.0
 30
0.0
 11
542.57511449105345
 21
81.0
 31
0.0
  0
LINE
  5
109C
  8
0
 62
     0
 10
401.7001144910534
 20
84.0
 30
0.0
 11
542.57511449105345
 21
84.0
 31
0.0
  0
LINE
  5
109D
  8
0
 62
     0
 10
401.7001144910534
 20
87.0
 30
0.0
 11
542.57511449105345
 21
87.0
 31
0.0
  0
LINE
  5
109E
  8
0
 62
     0
 10
401.7001144910534
 20
90.0
 30
0.0
 11
542.57511449105345
 21
90.0
 31
0.0
  0
LINE
  5
109F
  8
0
 62
     0
 10
401.7001144910534
 20
93.0
 30
0.0
 11
542.57511449105345
 21
93.0
 31
0.0
  0
LINE
  5
10A0
  8
0
 62
     0
 10
401.7001144910534
 20
96.0
 30
0.0
 11
542.57511449105345
 21
96.0
 31
0.0
  0
LINE
  5
10A1
  8
0
 62
     0
 10
401.7001144910534
 20
99.0
 30
0.0
 11
542.57511449105345
 21
99.0
 31
0.0
  0
LINE
  5
10A2
  8
0
 62
     0
 10
401.7001144910534
 20
102.0
 30
0.0
 11
542.57511449105345
 21
102.0
 31
0.0
  0
LINE
  5
10A3
  8
0
 62
     0
 10
401.7001144910534
 20
105.0
 30
0.0
 11
542.57511449105345
 21
105.0
 31
0.0
  0
LINE
  5
10A4
  8
0
 62
     0
 10
401.7001144910534
 20
108.0
 30
0.0
 11
542.57511449105345
 21
108.0
 31
0.0
  0
LINE
  5
10A5
  8
0
 62
     0
 10
401.7001144910534
 20
111.0
 30
0.0
 11
542.57511449105345
 21
111.0
 31
0.0
  0
LINE
  5
10A6
  8
0
 62
     0
 10
401.7001144910534
 20
114.0
 30
0.0
 11
542.57511449105345
 21
114.0
 31
0.0
  0
LINE
  5
10A7
  8
0
 62
     0
 10
401.7001144910534
 20
117.0
 30
0.0
 11
542.57511449105345
 21
117.0
 31
0.0
  0
LINE
  5
10A8
  8
0
 62
     0
 10
401.7001144910534
 20
120.0
 30
0.0
 11
542.57511449105345
 21
120.0
 31
0.0
  0
LINE
  5
10A9
  8
0
 62
     0
 10
401.7001144910534
 20
123.0
 30
0.0
 11
542.57511449105345
 21
123.0
 31
0.0
  0
LINE
  5
10AA
  8
0
 62
     0
 10
401.7001144910534
 20
126.0
 30
0.0
 11
542.57511449105345
 21
126.0
 31
0.0
  0
LINE
  5
10AB
  8
0
 62
     0
 10
401.7001144910534
 20
129.0
 30
0.0
 11
542.57511449105345
 21
129.0
 31
0.0
  0
LINE
  5
10AC
  8
0
 62
     0
 10
401.7001144910534
 20
132.0
 30
0.0
 11
542.57511449105345
 21
132.0
 31
0.0
  0
ENDBLK
  5
10AE
  8
0
  0
ENDSEC
  0
SECTION
  2
ENTITIES
  0
LINE
  5
35F
  8
0
 10
325.2060485752977
 20
134.7683996428274
 30
0.0
 11
325.2060485752977
 21
23.26839964282723
 31
0.0
  0
LINE
  5
360
  8
0
 10
317.70604857529747
 20
23.26839964282723
 30
0.0
 11
317.70604857529747
 21
134.7683996428274
 31
0.0
  0
LINE
  5
361
  8
0
 10
317.70604857529747
 20
134.7683996428274
 30
0.0
 11
325.2060485752977
 21
134.7683996428274
 31
0.0
  0
LINE
  5
362
  8
0
 10
317.70604857529747
 20
23.26839964282723
 30
0.0
 11
325.2060485752977
 21
23.26839964282723
 31
0.0
  0
LINE
  5
364
  8
0
 10
286.4560485752973
 20
141.7683996428301
 30
0.0
 11
286.4560485752973
 21
134.7683996428301
 31
0.0
  0
LINE
  5
365
  8
0
 10
257.70604857529742
 20
134.7683996428301
 30
0.0
 11
257.70604857529742
 21
141.7683996428301
 31
0.0
  0
LINE
  5
366
  8
0
 10
286.4560485752973
 20
134.7683996428301
 30
0.0
 11
257.70604857529742
 21
134.7683996428301
 31
0.0
  0
LINE
  5
367
  8
0
 10
257.70604857529742
 20
141.7683996428301
 30
0.0
 11
286.4560485752973
 21
141.7683996428301
 31
0.0
  0
LINE
  5
368
  8
0
 10
230.33104857529781
 20
134.7683996428276
 30
0.0
 11
317.70604857529793
 21
134.7683996428276
 31
0.0
  0
LINE
  5
369
  8
0
 10
317.70604857529793
 20
9.76839964282766
 30
0.0
 11
315.95604857529838
 21
9.76839964282766
 31
0.0
  0
LINE
  5
36A
  8
0
 10
232.0810485752985
 20
9.76839964282766
 30
0.0
 11
230.33104857529781
 21
9.76839964282766
 31
0.0
  0
LINE
  5
36B
  8
0
 10
230.33104857529781
 20
9.76839964282766
 30
0.0
 11
230.33104857529781
 21
134.7683996428276
 31
0.0
  0
LINE
  5
36C
  8
0
 10
232.0810485752985
 20
9.76839964282766
 30
0.0
 11
232.0810485752985
 21
11.76839964282839
 31
0.0
  0
LINE
  5
36D
  8
0
 10
232.0810485752985
 20
11.76839964282839
 30
0.0
 11
315.95604857529838
 21
11.76839964282839
 31
0.0
  0
LINE
  5
36E
  8
0
 10
315.95604857529838
 20
11.76839964282839
 30
0.0
 11
315.95604857529838
 21
9.76839964282766
 31
0.0
  0
LINE
  5
36F
  8
0
 10
317.70604857529793
 20
9.76839964282766
 30
0.0
 11
317.70604857529793
 21
134.7683996428276
 31
0.0
  0
ARC
  5
370
  8
0
 10
260.76854857529742
 20
93.768399642828811
 30
0.0
 40
8.2500000000000053
 50
179.99999999999949
 51
359.99999999999881
  0
ARC
  5
371
  8
0
 10
260.76854857529742
 20
93.768399642828811
 30
0.0
 40
8.2500000000000089
 50
359.99999999999949
 51
179.99999999999949
  0
ARC
  5
372
  8
0
 10
260.76854857529742
 20
93.768399642828811
 30
0.0
 40
7.6875000000000062
 50
0.0000000000005598
 51
180.0
  0
ARC
  5
373
  8
0
 10
260.76854857529742
 20
93.768399642828811
 30
0.0
 40
7.687499999999992
 50
180.0
 51
359.9999999999996
  0
LINE
  5
374
  8
0
 10
265.89104934928531
 20
91.326543794031394
 30
0.0
 11
265.69610887309477
 21
90.877635063872674
 31
0.0
  0
LINE
  5
375
  8
0
 10
265.69610887309477
 20
90.877635063872674
 30
0.0
 11
265.24521601595188
 21
90.720393000380597
 31
0.0
  0
LINE
  5
376
  8
0
 10
265.24521601595188
 20
90.720393000380597
 30
0.0
 11
264.92068724611062
 21
90.784629111491725
 31
0.0
  0
LINE
  5
377
  8
0
 10
264.92068724611062
 20
90.784629111491725
 30
0.0
 11
264.68519617468218
 21
90.977337444825068
 31
0.0
  0
LINE
  5
378
  8
0
 10
264.68519617468218
 20
90.977337444825068
 30
0.0
 11
264.49422395245989
 21
91.735273952761574
 31
0.0
  0
LINE
  5
379
  8
0
 10
264.49422395245989
 20
91.735273952761574
 30
0.0
 11
264.6782517302376
 21
92.499162841650445
 31
0.0
  0
LINE
  5
37A
  8
0
 10
264.6782517302376
 20
92.499162841650445
 30
0.0
 11
264.90803843658682
 21
92.688894984507584
 31
0.0
  0
LINE
  5
37B
  8
0
 10
264.90803843658682
 20
92.688894984507584
 30
0.0
 11
265.22934300007893
 21
92.752139032126635
 31
0.0
  0
LINE
  5
37C
  8
0
 10
265.22934300007893
 20
92.752139032126635
 30
0.0
 11
265.6975969683329
 21
92.608785857523472
 31
0.0
  0
LINE
  5
37D
  8
0
 10
265.6975969683329
 20
92.608785857523472
 30
0.0
 11
265.89104934928531
 21
92.183686651174284
 31
0.0
  0
LINE
  5
37E
  8
0
 10
265.89104934928531
 20
92.183686651174284
 30
0.0
 11
267.03390649214242
 21
92.183686651174284
 31
0.0
  0
LINE
  5
37F
  8
0
 10
267.03390649214242
 20
92.183686651174284
 30
0.0
 11
266.87368823817411
 21
92.831380103555205
 31
0.0
  0
LINE
  5
380
  8
0
 10
266.87368823817411
 20
92.831380103555205
 30
0.0
 11
266.50612871436471
 21
93.310174746412343
 31
0.0
  0
LINE
  5
381
  8
0
 10
266.50612871436471
 20
93.310174746412343
 30
0.0
 11
265.94710093658682
 21
93.605933674983788
 31
0.0
  0
LINE
  5
382
  8
0
 10
265.94710093658682
 20
93.605933674983788
 30
0.0
 11
265.21247792071381
 21
93.704519984507584
 31
0.0
  0
LINE
  5
383
  8
0
 10
265.21247792071381
 20
93.704519984507584
 30
0.0
 11
264.41448684928531
 21
93.572575540063156
 31
0.0
  0
LINE
  5
384
  8
0
 10
264.41448684928531
 20
93.572575540063156
 30
0.0
 11
263.80424379372971
 21
93.176742206729827
 31
0.0
  0
LINE
  5
385
  8
0
 10
263.80424379372971
 20
93.176742206729827
 30
0.0
 11
263.41696700801538
 21
92.552734270221904
 31
0.0
  0
LINE
  5
386
  8
0
 10
263.41696700801538
 20
92.552734270221904
 30
0.0
 11
263.28787474611067
 21
91.736266016253623
 31
0.0
  0
LINE
  5
387
  8
0
 10
263.28787474611067
 20
91.736266016253623
 30
0.0
 11
263.41758704769802
 21
90.917937643237764
 31
0.0
  0
LINE
  5
388
  8
0
 10
263.41758704769802
 20
90.917937643237764
 30
0.0
 11
263.80672395245978
 21
90.294301730539345
 31
0.0
  0
LINE
  5
389
  8
0
 10
263.80672395245978
 20
90.294301730539345
 30
0.0
 11
264.4220513334123
 21
89.899584468634586
 31
0.0
  0
LINE
  5
38A
  8
0
 10
264.4220513334123
 20
89.899584468634586
 30
0.0
 11
265.23033506357098
 21
89.768012047999676
 31
0.0
  0
LINE
  5
38B
  8
0
 10
265.23033506357098
 20
89.768012047999676
 30
0.0
 11
265.95342534134869
 21
89.870194587682207
 31
0.0
  0
LINE
  5
38C
  8
0
 10
265.95342534134869
 20
89.870194587682207
 30
0.0
 11
266.50960093658682
 21
90.176742206729827
 31
0.0
  0
LINE
  5
38D
  8
0
 10
266.50960093658682
 20
90.176742206729827
 30
0.0
 11
266.87703645245978
 21
90.668557682920266
 31
0.0
  0
LINE
  5
38E
  8
0
 10
266.87703645245978
 20
90.668557682920266
 30
0.0
 11
267.03390649214242
 21
91.326543794031394
 31
0.0
  0
LINE
  5
38F
  8
0
 10
267.03390649214242
 20
91.326543794031394
 30
0.0
 11
265.89104934928531
 21
91.326543794031394
 31
0.0
  0
LINE
  5
390
  8
0
 10
258.6693219715176
 20
92.100617982954617
 30
0.0
 11
259.84690133659689
 21
92.100617982954617
 31
0.0
  0
LINE
  5
391
  8
0
 10
259.84690133659689
 20
92.100617982954617
 30
0.0
 11
259.99372673342231
 21
92.608554490891109
 31
0.0
  0
LINE
  5
392
  8
0
 10
259.99372673342231
 20
92.608554490891109
 30
0.0
 11
261.19709974929532
 21
92.608554490891109
 31
0.0
  0
LINE
  5
393
  8
0
 10
261.19709974929532
 20
92.608554490891109
 30
0.0
 11
261.33896482866038
 21
92.100617982954617
 31
0.0
  0
LINE
  5
394
  8
0
 10
261.33896482866038
 20
92.100617982954617
 30
0.0
 11
262.54233784453339
 21
92.100617982954617
 31
0.0
  0
LINE
  5
395
  8
0
 10
262.54233784453339
 20
92.100617982954617
 30
0.0
 11
261.2129727651685
 21
95.910141792478413
 31
0.0
  0
LINE
  5
396
  8
0
 10
261.2129727651685
 20
95.910141792478413
 30
0.0
 11
259.9838060985017
 21
95.910141792478413
 31
0.0
  0
LINE
  5
397
  8
0
 10
259.9838060985017
 20
95.910141792478413
 30
0.0
 11
258.6693219715176
 21
92.100617982954617
 31
0.0
  0
LINE
  5
398
  8
0
 10
260.21396482866038
 20
93.433951316287946
 30
0.0
 11
260.5998775270732
 21
94.737522744859376
 31
0.0
  0
LINE
  5
399
  8
0
 10
260.5998775270732
 20
94.737522744859376
 30
0.0
 11
260.9768616540573
 21
93.433951316287946
 31
0.0
  0
LINE
  5
39A
  8
0
 10
260.9768616540573
 20
93.433951316287946
 30
0.0
 11
260.21396482866038
 21
93.433951316287946
 31
0.0
  0
LINE
  5
39B
  8
0
 10
254.90859078125629
 20
93.841006292134878
 30
0.0
 11
256.607995543161
 21
93.841006292134878
 31
0.0
  0
LINE
  5
39C
  8
0
 10
256.607995543161
 20
93.841006292134878
 30
0.0
 11
257.37585268601811
 21
93.87969676832536
 31
0.0
  0
LINE
  5
39D
  8
0
 10
257.37585268601811
 20
93.87969676832536
 30
0.0
 11
257.78855109871648
 21
94.011641212769817
 31
0.0
  0
LINE
  5
39E
  8
0
 10
257.78855109871648
 20
94.011641212769817
 30
0.0
 11
258.19678522570058
 21
94.394577720706323
 31
0.0
  0
LINE
  5
39F
  8
0
 10
258.19678522570058
 20
94.394577720706323
 30
0.0
 11
258.33716220982762
 21
94.98187930800789
 31
0.0
  0
LINE
  5
3A0
  8
0
 10
258.33716220982762
 20
94.98187930800789
 30
0.0
 11
258.19331300347841
 21
95.544875339753929
 31
0.0
  0
LINE
  5
3A1
  8
0
 10
258.19331300347841
 20
95.544875339753929
 30
0.0
 11
257.749860622526
 21
95.869776133404713
 31
0.0
  0
LINE
  5
3A2
  8
0
 10
257.749860622526
 20
95.869776133404713
 30
0.0
 11
258.09509871776407
 21
96.187236450865043
 31
0.0
  0
LINE
  5
3A3
  8
0
 10
258.09509871776407
 20
96.187236450865043
 30
0.0
 11
258.21017808284353
 21
96.639617403245978
 31
0.0
  0
LINE
  5
3A4
  8
0
 10
258.21017808284353
 20
96.639617403245978
 30
0.0
 11
258.05640824157371
 21
97.199637244515841
 31
0.0
  0
LINE
  5
3A5
  8
0
 10
258.05640824157371
 20
97.199637244515841
 30
0.0
 11
257.61394792411329
 21
97.539418990547574
 31
0.0
  0
LINE
  5
3A6
  8
0
 10
257.61394792411329
 20
97.539418990547574
 30
0.0
 11
257.218610622526
 21
97.624736450865058
 31
0.0
  0
LINE
  5
3A7
  8
0
 10
257.218610622526
 20
97.624736450865058
 30
0.0
 11
256.48497967014521
 21
97.650530101658688
 31
0.0
  0
LINE
  5
3A8
  8
0
 10
256.48497967014521
 20
97.650530101658688
 30
0.0
 11
254.90859078125629
 21
97.650530101658717
 31
0.0
  0
LINE
  5
3A9
  8
0
 10
254.90859078125629
 20
97.650530101658717
 30
0.0
 11
254.90859078125629
 21
93.841006292134878
 31
0.0
  0
LINE
  5
3AA
  8
0
 10
256.1149399876054
 20
94.729895181023764
 30
0.0
 11
256.1149399876054
 21
95.428307879436474
 31
0.0
  0
LINE
  5
3AB
  8
0
 10
256.1149399876054
 20
95.428307879436474
 30
0.0
 11
256.66355109871648
 21
95.428307879436474
 31
0.0
  0
LINE
  5
3AC
  8
0
 10
256.66355109871648
 20
95.428307879436474
 30
0.0
 11
257.07277728919269
 21
95.348942800071399
 31
0.0
  0
LINE
  5
3AD
  8
0
 10
257.07277728919269
 20
95.348942800071399
 30
0.0
 11
257.19430506697051
 21
95.082077720706295
 31
0.0
  0
LINE
  5
3AE
  8
0
 10
257.19430506697051
 20
95.082077720706295
 30
0.0
 11
257.07525744792292
 21
94.812236450865043
 31
0.0
  0
LINE
  5
3AF
  8
0
 10
257.07525744792292
 20
94.812236450865043
 30
0.0
 11
256.67446379712931
 21
94.729895181023764
 31
0.0
  0
LINE
  5
3B0
  8
0
 10
256.67446379712931
 20
94.729895181023764
 30
0.0
 11
256.1149399876054
 21
94.729895181023764
 31
0.0
  0
LINE
  5
3B1
  8
0
 10
256.1149399876054
 20
96.126720577849156
 30
0.0
 11
256.1149399876054
 21
96.761641212769831
 31
0.0
  0
LINE
  5
3B2
  8
0
 10
256.1149399876054
 20
96.761641212769831
 30
0.0
 11
256.44926538443087
 21
96.761641212769831
 31
0.0
  0
LINE
  5
3B3
  8
0
 10
256.44926538443087
 20
96.761641212769831
 30
0.0
 11
256.9576979241134
 21
96.694180895309458
 31
0.0
  0
LINE
  5
3B4
  8
0
 10
256.9576979241134
 20
96.694180895309458
 30
0.0
 11
257.0673209399863
 21
96.444180895309458
 31
0.0
  0
LINE
  5
3B5
  8
0
 10
257.0673209399863
 20
96.444180895309458
 30
0.0
 11
256.96513840030377
 21
96.199141212769817
 31
0.0
  0
LINE
  5
3B6
  8
0
 10
256.96513840030377
 20
96.199141212769817
 30
0.0
 11
256.61295586062118
 21
96.126720577849156
 31
0.0
  0
LINE
  5
3B7
  8
0
 10
256.61295586062118
 20
96.126720577849156
 30
0.0
 11
256.1149399876054
 21
96.126720577849156
 31
0.0
  0
ARC
  5
3B8
  8
0
 10
260.76854857529702
 20
93.768399642829479
 30
0.0
 40
9.0000000000000302
 50
179.99999999999969
 51
359.99999999999881
  0
ARC
  5
3B9
  8
0
 10
260.76854857529702
 20
93.768399642829479
 30
0.0
 40
9.0
 50
359.99999999999937
 51
179.99999999999969
  0
ARC
  5
3C5
  8
0
 10
291.20604857529793
 20
36.89339964282766
 30
0.0
 40
0.4999999999999944
 50
359.9999999999992
 51
180.0
  0
ARC
  5
3C6
  8
0
 10
291.20604857529793
 20
36.89339964282766
 30
0.0
 40
0.5000000000000289
 50
180.0000000000004
 51
359.99999999999841
  0
LINE
  5
3C7
  8
0
 10
269.95604857529798
 20
142.0183996428278
 30
0.0
 11
269.95604857529798
 21
141.7683996428303
 31
0.0
  0
LINE
  5
3C8
  8
0
 10
277.9560485752977
 20
141.7683996428303
 30
0.0
 11
277.9560485752977
 21
142.0183996428278
 31
0.0
  0
LINE
  5
3C9
  8
0
 10
269.95604857529781
 20
142.01839964282769
 30
0.0
 11
270.09234479169697
 21
142.01839964282769
 31
0.0
  0
LINE
  5
3CA
  8
0
 10
270.09234527014138
 20
142.01839964282769
 30
0.0
 11
271.12762033027087
 21
142.01839964282769
 31
0.0
  0
LINE
  5
3CB
  8
0
 10
271.12762145055149
 20
142.01839964282769
 30
0.0
 11
272.92077234184791
 21
142.01839964282769
 31
0.0
  0
LINE
  5
3CC
  8
0
 10
272.92077239488748
 20
142.01839964282769
 30
0.0
 11
273.95604779470472
 21
142.01839964282769
 31
0.0
  0
LINE
  5
3CD
  8
0
 10
273.95604857529759
 20
142.01839964282769
 30
0.0
 11
274.99132475570769
 21
142.01839964282769
 31
0.0
  0
LINE
  5
3CE
  8
0
 10
274.99132619026437
 20
142.01839964282769
 30
0.0
 11
275.9560485752977
 21
142.01839964282769
 31
0.0
  0
LINE
  5
3CF
  8
0
 10
275.95604877450222
 20
142.01839964282769
 30
0.0
 11
276.78447518010267
 21
142.01839964282769
 31
0.0
  0
LINE
  5
3D0
  8
0
 10
276.78447570004391
 20
142.01839964282769
 30
0.0
 11
277.42015019043538
 21
142.01839964282769
 31
0.0
  0
LINE
  5
3D1
  8
0
 10
277.42015190940072
 20
142.01839964282769
 30
0.0
 11
277.9560485752977
 21
142.01839964282769
 31
0.0
  0
ARC
  5
3D2
  8
0
 10
308.45604857529793
 20
18.268399642828079
 30
0.0
 40
4.0000000000000204
 50
359.9999999999992
 51
179.99999999999929
  0
ARC
  5
3D3
  8
0
 10
308.45604857529793
 20
18.268399642828079
 30
0.0
 40
4.0000000000000018
 50
180.0
 51
359.9999999999992
  0
ARC
  5
3D4
  8
0
 10
284.70604857529781
 20
24.39339964282766
 30
0.0
 40
1.50000000000001
 50
359.99999999999898
 51
179.99999999999909
  0
ARC
  5
3D5
  8
0
 10
284.70604857529781
 20
24.39339964282766
 30
0.0
 40
1.4999999999999909
 50
180.0000000000006
 51
0.0000000000001527
  0
ARC
  5
3D6
  8
0
 10
284.70604857529781
 20
14.39339964282766
 30
0.0
 40
1.0000000000000111
 50
359.99999999999881
 51
179.99999999999889
  0
ARC
  5
3D7
  8
0
 10
284.70604857529781
 20
14.39339964282766
 30
0.0
 40
1.0
 50
180.0
 51
359.9999999999992
  0
CIRCLE
  5
3D8
  8
0
 10
286.33104857529793
 20
48.89339964282766
 30
0.0
 40
8.5000000000000266
  0
LINE
  5
3D9
  8
0
 10
544.20011449104925
 20
134.7683996428274
 30
0.0
 11
400.07511449104908
 21
134.7683996428274
 31
0.0
  0
LINE
  5
3DA
  8
0
 10
400.07511449104908
 20
134.7683996428274
 30
0.0
 11
400.07511449104908
 21
23.26839964282723
 31
0.0
  0
LINE
  5
3DB
  8
0
 10
400.07511449104908
 20
23.26839964282723
 30
0.0
 11
544.20011449104925
 21
23.26839964282723
 31
0.0
  0
LINE
  5
3DC
  8
0
 10
544.20011449104925
 20
23.26839964282723
 30
0.0
 11
544.20011449104925
 21
134.7683996428274
 31
0.0
  0
LINE
  5
3DD
  8
0
 10
542.57511449104925
 20
133.2683996428274
 30
0.0
 11
542.57511449104925
 21
24.76839964282723
 31
0.0
  0
LINE
  5
3DE
  8
0
 10
542.57511449104925
 20
24.76839964282723
 30
0.0
 11
401.70011449104919
 21
24.76839964282723
 31
0.0
  0
LINE
  5
3DF
  8
0
 10
401.70011449104919
 20
24.76839964282723
 30
0.0
 11
401.70011449104919
 21
133.2683996428274
 31
0.0
  0
LINE
  5
3E0
  8
0
 10
401.70011449104919
 20
133.2683996428274
 30
0.0
 11
542.57511449104925
 21
133.2683996428274
 31
0.0
  0
LINE
  5
3E1
  8
0
 10
544.20011449104925
 20
134.7683996428274
 30
0.0
 11
544.20011449104925
 21
23.26839964282723
 31
0.0
  0
LINE
  5
3E2
  8
0
 10
544.20011449104925
 20
23.26839964282723
 30
0.0
 11
400.07511449104919
 21
23.26839964282723
 31
0.0
  0
LINE
  5
3E3
  8
0
 10
400.07511449104919
 20
23.26839964282723
 30
0.0
 11
400.07511449104919
 21
134.7683996428274
 31
0.0
  0
LINE
  5
3E4
  8
0
 10
400.07511449104919
 20
134.7683996428274
 30
0.0
 11
544.20011449104925
 21
134.7683996428274
 31
0.0
  0
LINE
  5
3E5
  8
0
 10
542.57511449104948
 20
133.2683996428274
 30
0.0
 11
401.70011449104919
 21
133.2683996428274
 31
0.0
  0
LINE
  5
3E6
  8
0
 10
401.70011449104919
 20
133.2683996428274
 30
0.0
 11
401.70011449104919
 21
24.76839964282723
 31
0.0
  0
LINE
  5
3E7
  8
0
 10
401.70011449104919
 20
24.76839964282723
 30
0.0
 11
542.57511449104948
 21
24.76839964282723
 31
0.0
  0
LINE
  5
3E8
  8
0
 10
542.57511449104948
 20
24.76839964282723
 30
0.0
 11
542.57511449104948
 21
133.2683996428274
 31
0.0
  0
ARC
  5
3F1
  8
0
 10
508.01261449104948
 20
85.268399642827546
 30
0.0
 40
35.499999999998359
 50
179.99999999999949
 51
359.99999999999898
  0
ARC
  5
3F2
  8
0
 10
508.01261449104948
 20
85.268399642827546
 30
0.0
 40
35.499999999998352
 50
0.0000000000000509
 51
179.99999999999949
  0
ARC
  5
3F3
  8
0
 10
508.01261449104948
 20
85.268399642827546
 30
0.0
 40
35.499999999998359
 50
179.99999999999949
 51
359.99999999999898
  0
ARC
  5
3F4
  8
0
 10
508.01261449104948
 20
85.268399642827546
 30
0.0
 40
35.499999999998352
 50
0.0000000000000509
 51
179.99999999999949
  0
ARC
  5
3F5
  8
0
 10
508.01261449104959
 20
85.268399642827546
 30
0.0
 40
33.499999999998359
 50
179.99999999999949
 51
359.9999999999992
  0
ARC
  5
3F6
  8
0
 10
508.01261449104959
 20
85.268399642827546
 30
0.0
 40
33.499999999998373
 50
0.0000000000002544
 51
179.99999999999949
  0
ARC
  5
3F7
  8
0
 10
436.26261449104891
 20
85.268399642827802
 30
0.0
 40
35.500000000000227
 50
179.99999999999949
 51
359.9999999999992
  0
ARC
  5
3F8
  8
0
 10
436.26261449104891
 20
85.268399642827802
 30
0.0
 40
35.500000000000227
 50
0.0000000000000509
 51
179.99999999999949
  0
ARC
  5
3F9
  8
0
 10
436.26261449104891
 20
85.268399642827802
 30
0.0
 40
35.500000000000227
 50
179.99999999999949
 51
359.9999999999992
  0
ARC
  5
3FA
  8
0
 10
436.26261449104891
 20
85.268399642827802
 30
0.0
 40
35.500000000000227
 50
0.0000000000000509
 51
179.99999999999949
  0
ARC
  5
3FB
  8
0
 10
436.26261449104902
 20
85.268399642827802
 30
0.0
 40
33.500000000000227
 50
179.99999999999949
 51
359.99999999999898
  0
ARC
  5
3FC
  8
0
 10
436.26261449104902
 20
85.268399642827802
 30
0.0
 40
33.500000000000242
 50
0.0000000000002036
 51
179.99999999999949
  0
LINE
  5
3FD
  8
0
 10
542.57511449104925
 20
24.76839964282766
 30
0.0
 11
542.57511449104925
 21
133.26839964282809
 31
0.0
  0
LINE
  5
3FE
  8
0
 10
542.57511449104925
 20
133.26839964282809
 30
0.0
 11
401.70011449104919
 21
133.26839964282809
 31
0.0
  0
LINE
  5
3FF
  8
0
 10
401.70011449104919
 20
133.26839964282809
 30
0.0
 11
401.70011449104919
 21
24.76839964282766
 31
0.0
  0
LINE
  5
400
  8
0
 10
401.70011449104919
 20
24.76839964282766
 30
0.0
 11
542.57511449104925
 21
24.76839964282766
 31
0.0
  0
LINE
  5
401
  8
0
 10
542.57511449104925
 20
24.76839964282766
 30
0.0
 11
401.70011449104919
 21
24.76839964282766
 31
0.0
  0
LINE
  5
402
  8
0
 10
401.70011449104919
 20
24.76839964282766
 30
0.0
 11
401.70011449104919
 21
133.26839964282809
 31
0.0
  0
LINE
  5
403
  8
0
 10
401.70011449104919
 20
133.26839964282809
 30
0.0
 11
542.57511449104925
 21
133.26839964282809
 31
0.0
  0
LINE
  5
404
  8
0
 10
542.57511449104925
 20
133.26839964282809
 30
0.0
 11
542.57511449104925
 21
24.76839964282766
 31
0.0
  0
LINE
  5
409
  8
0
 10
400.0751144910534
 20
134.7683996428301
 30
0.0
 11
544.20011449105345
 21
134.7683996428301
 31
0.0
  0
LINE
  5
40A
  8
0
 10
544.20011449105345
 20
134.7683996428301
 30
0.0
 11
544.20011449105345
 21
141.7683996428301
 31
0.0
  0
LINE
  5
40B
  8
0
 10
544.20011449105345
 20
141.7683996428301
 30
0.0
 11
400.0751144910534
 21
141.7683996428301
 31
0.0
  0
LINE
  5
40C
  8
0
 10
400.0751144910534
 20
141.7683996428301
 30
0.0
 11
400.0751144910534
 21
134.7683996428301
 31
0.0
  0
LINE
  5
40D
  8
0
 10
400.07511449105351
 20
134.7683996428301
 30
0.0
 11
400.07511449105351
 21
141.7683996428301
 31
0.0
  0
LINE
  5
40E
  8
0
 10
400.07511449105351
 20
141.7683996428301
 30
0.0
 11
544.20011449105368
 21
141.7683996428301
 31
0.0
  0
LINE
  5
40F
  8
0
 10
544.20011449105368
 20
141.7683996428301
 30
0.0
 11
544.20011449105368
 21
134.7683996428301
 31
0.0
  0
LINE
  5
410
  8
0
 10
544.20011449105368
 20
134.7683996428301
 30
0.0
 11
400.07511449105351
 21
134.7683996428301
 31
0.0
  0
LINE
  5
416
  8
0
 10
400.07511449105289
 20
134.7683996428276
 30
0.0
 11
544.200114491053
 21
134.7683996428276
 31
0.0
  0
LINE
  5
418
  8
0
 10
544.20011449105334
 20
134.7683996428276
 30
0.0
 11
542.57511449105527
 21
134.7683996428276
 31
0.0
  0
LINE
  5
41A
  8
0
 10
542.57511449105527
 20
134.7683996428276
 30
0.0
 11
401.70011449105527
 21
134.7683996428276
 31
0.0
  0
LINE
  5
41C
  8
0
 10
401.70011449105539
 20
134.7683996428276
 30
0.0
 11
400.07511449105323
 21
134.7683996428276
 31
0.0
  0
LINE
  5
41D
  8
0
 10
544.200114491053
 20
9.76839964282766
 30
0.0
 11
400.07511449105289
 21
9.76839964282766
 31
0.0
  0
LINE
  5
41F
  8
0
 10
400.07511449105289
 20
9.76839964282766
 30
0.0
 11
544.200114491053
 21
9.76839964282766
 31
0.0
  0
LINE
  5
421
  8
0
 10
400.07511449105323
 20
9.76839964282766
 30
0.0
 11
544.20011449105334
 21
9.76839964282766
 31
0.0
  0
LINE
  5
423
  8
0
 10
544.20011449105334
 20
9.76839964282766
 30
0.0
 11
400.07511449105328
 21
9.76839964282766
 31
0.0
  0
LINE
  5
425
  8
0
 10
401.70011449105539
 20
134.7683996428276
 30
0.0
 11
401.70011449105391
 21
24.768399642830872
 31
0.0
  0
LINE
  5
426
  8
0
 10
401.70011449105391
 20
24.76839964283085
 30
0.0
 11
542.57511449105391
 21
24.768399642828939
 31
0.0
  0
LINE
  5
427
  8
0
 10
542.57511449105391
 20
24.768399642828939
 30
0.0
 11
542.57511449105527
 21
134.7683996428276
 31
0.0
  0
LINE
  5
428
  8
0
 10
544.20011449105334
 20
134.7683996428276
 30
0.0
 11
544.20011449105334
 21
9.76839964282766
 31
0.0
  0
LINE
  5
429
  8
0
 10
400.07511449105323
 20
9.76839964282766
 30
0.0
 11
400.07511449105323
 21
134.7683996428276
 31
0.0
  0
LINE
  5
42A
  8
0
 10
400.07511449105323
 20
9.76839964282766
 30
0.0
 11
400.07511449105323
 21
11.768399642828401
 31
0.0
  0
LINE
  5
42C
  8
0
 10
400.07511449105289
 20
11.768399642828401
 30
0.0
 11
400.07511449105289
 21
9.76839964282766
 31
0.0
  0
LINE
  5
42D
  8
0
 10
400.07511449105289
 20
9.76839964282766
 30
0.0
 11
400.07511449105289
 21
134.7683996428276
 31
0.0
  0
LINE
  5
42E
  8
0
 10
401.70011449105328
 20
133.26839964282809
 30
0.0
 11
542.57511449105334
 21
133.26839964282809
 31
0.0
  0
LINE
  5
42F
  8
0
 10
542.57511449105334
 20
133.26839964282809
 30
0.0
 11
542.57511449105334
 21
24.76839964282766
 31
0.0
  0
LINE
  5
430
  8
0
 10
542.57511449105334
 20
24.76839964282766
 30
0.0
 11
401.70011449105328
 21
24.76839964282766
 31
0.0
  0
LINE
  5
431
  8
0
 10
401.70011449105328
 20
24.76839964282766
 30
0.0
 11
401.70011449105328
 21
133.26839964282809
 31
0.0
  0
LINE
  5
432
  8
0
 10
544.200114491053
 20
9.76839964282766
 30
0.0
 11
544.200114491053
 21
134.7683996428276
 31
0.0
  0
LINE
  5
433
  8
0
 10
544.200114491053
 20
9.76839964282766
 30
0.0
 11
544.200114491053
 21
11.768399642826409
 31
0.0
  0
LINE
  5
435
  8
0
 10
544.20011449105334
 20
11.768399642826409
 30
0.0
 11
544.20011449105334
 21
9.7683996428276814
 31
0.0
  0
LINE
  5
436
  8
0
 10
544.20011449105368
 20
11.768399642826401
 30
0.0
 11
400.07511449105368
 21
11.768399642828401
 31
0.0
  0
LINE
  5
437
  8
0
 10
544.20011449105334
 20
11.768399642826401
 30
0.0
 11
400.0751144910534
 21
11.768399642828401
 31
0.0
  0
LINE
  5
439
  8
0
 10
542.57511449105391
 20
24.768399642828911
 30
0.0
 11
542.57511449105527
 21
134.76839964282931
 31
0.0
  0
LINE
  5
43A
  8
0
 10
401.70011449105527
 20
134.7683996428313
 30
0.0
 11
401.70011449105391
 21
24.768399642830872
 31
0.0
  0
LINE
  5
43C
  8
0
 10
542.57511449105391
 20
24.768399642828911
 30
0.0
 11
401.70011449105391
 21
24.76839964283085
 31
0.0
  0
LINE
  5
43D
  8
0
 10
542.57511449105345
 20
133.26839964282809
 30
0.0
 11
401.7001144910534
 21
133.26839964282809
 31
0.0
1001
ACAD
1000
ASC_BOUNDS
1002
{
1070
    19
1005
812
1002
}
  0
LINE
  5
43E
  8
0
 10
401.7001144910534
 20
133.26839964282809
 30
0.0
 11
401.7001144910534
 21
24.76839964282766
 31
0.0
1001
ACAD
1000
ASC_BOUNDS
1002
{
1070
    19
1005
812
1002
}
  0
LINE
  5
43F
  8
0
 10
401.7001144910534
 20
24.76839964282766
 30
0.0
 11
542.57511449105345
 21
24.76839964282766
 31
0.0
1001
ACAD
1000
ASC_BOUNDS
1002
{
1070
    19
1005
812
1002
}
  0
LINE
  5
440
  8
0
 10
542.57511449105345
 20
24.76839964282766
 30
0.0
 11
542.57511449105345
 21
133.26839964282809
 31
0.0
1001
ACAD
1000
ASC_BOUNDS
1002
{
1070
    19
1005
812
1002
}
  0
LINE
  5
446
  8
0
 10
174.82146090477849
 20
134.7683996428301
 30
0.0
 11
174.82146090477849
 21
141.7683996428301
 31
0.0
  0
LINE
  5
447
  8
0
 10
174.82146090477849
 20
141.7683996428301
 30
0.0
 11
30.696460904778458
 21
141.7683996428301
 31
0.0
  0
LINE
  5
448
  8
0
 10
30.696460904778458
 20
141.7683996428301
 30
0.0
 11
30.696460904778458
 21
134.7683996428301
 31
0.0
  0
LINE
  5
449
  8
0
 10
30.69646090477886
 20
134.7683996428276
 30
0.0
 11
32.3214609047767
 21
134.7683996428276
 31
0.0
  0
LINE
  5
44A
  8
0
 10
32.321460904776792
 20
134.7683996428276
 30
0.0
 11
173.1964609047767
 21
134.7683996428276
 31
0.0
1001
ACAD
1000
ASC_BOUNDS
1002
{
1070
    19
1005
800
1002
}
  0
LINE
  5
44B
  8
0
 10
173.19646090477659
 20
134.7683996428276
 30
0.0
 11
174.82146090477869
 21
134.7683996428276
 31
0.0
  0
LINE
  5
44C
  8
0
 10
174.82146090477869
 20
9.76839964282766
 30
0.0
 11
30.69646090477886
 21
9.76839964282766
 31
0.0
  0
LINE
  5
44D
  8
0
 10
173.19646090477659
 20
134.7683996428276
 30
0.0
 11
173.19646090477821
 21
24.768399642830872
 31
0.0
1001
ACAD
1000
ASC_BOUNDS
1002
{
1070
    19
1005
800
1002
}
  0
LINE
  5
44E
  8
0
 10
173.19646090477821
 20
24.76839964283085
 30
0.0
 11
32.321460904778213
 21
24.768399642828939
 31
0.0
1001
ACAD
1000
ASC_BOUNDS
1002
{
1070
    19
1005
800
1002
}
  0
LINE
  5
44F
  8
0
 10
32.321460904778242
 20
24.768399642828939
 30
0.0
 11
32.3214609047767
 21
134.7683996428276
 31
0.0
1001
ACAD
1000
ASC_BOUNDS
1002
{
1070
    19
1005
800
1002
}
  0
LINE
  5
450
  8
0
 10
30.69646090477886
 20
134.7683996428276
 30
0.0
 11
30.69646090477886
 21
9.76839964282766
 31
0.0
  0
LINE
  5
451
  8
0
 10
174.82146090477869
 20
9.76839964282766
 30
0.0
 11
174.82146090477869
 21
134.7683996428276
 31
0.0
  0
LINE
  5
45E
  8
0
 10
325.20604857529833
 20
317.69804237123049
 30
0.0
 11
317.70604857529833
 21
317.69804237123049
 31
0.0
  0
LINE
  5
45F
  8
0
 10
317.70604857529747
 20
173.5730423712306
 30
0.0
 11
325.20604857529759
 21
173.57304237123051
 31
0.0
  0
POLYLINE
  5
465
  8
0
  6
HIDDEN2
 66
     1
 10
0.0
 20
0.0
 30
0.0
  0
VERTEX
  5
F4E
  8
0
  6
HIDDEN2
 10
307.33104857529821
 20
315.01054237122918
 30
0.0
  0
VERTEX
  5
F4F
  8
0
  6
HIDDEN2
 10
307.54024348903818
 20
315.02224891928307
 30
0.0
  0
VERTEX
  5
F50
  8
0
  6
HIDDEN2
 10
307.7468261891139
 20
315.05722238395958
 30
0.0
  0
VERTEX
  5
F51
  8
0
  6
HIDDEN2
 10
307.94821708053269
 20
315.11502605214412
 30
0.0
  0
VERTEX
  5
F52
  8
0
  6
HIDDEN2
 10
308.14190139833659
 20
315.1949381303229
 30
0.0
  0
VERTEX
  5
F53
  8
0
  6
HIDDEN2
 10
308.32546060943389
 20
315.29596075760691
 30
0.0
  0
VERTEX
  5
F54
  8
0
  6
HIDDEN2
 10
308.49660261278399
 20
315.41683246600621
 30
0.0
  0
VERTEX
  5
F55
  8
0
  6
HIDDEN2
 10
308.65319036082838
 20
315.55604393236018
 30
0.0
  0
VERTEX
  5
F56
  8
0
  6
HIDDEN2
 10
308.79326854476989
 20
315.71185682523401
 30
0.0
  0
VERTEX
  5
F57
  8
0
  6
HIDDEN2
 10
308.91508801048428
 20
315.882325511435
 30
0.0
  0
VERTEX
  5
F58
  8
0
  6
HIDDEN2
 10
309.01712760018017
 20
316.06532135110558
 30
0.0
  0
VERTEX
  5
F59
  8
0
  6
HIDDEN2
 10
309.0981131470736
 20
316.25855927801553
 30
0.0
  0
VERTEX
  5
F5A
  8
0
  6
HIDDEN2
 10
309.15703338588833
 20
316.459626333149
 30
0.0
  0
VERTEX
  5
F5B
  8
0
  6
HIDDEN2
 10
309.19315258051012
 20
316.66601179528698
 30
0.0
  0
VERTEX
  5
F5C
  8
0
  6
HIDDEN2
 10
309.21435082603102
 20
317.01054237122918
 30
0.0
  0
VERTEX
  5
F5D
  8
0
  6
HIDDEN2
 10
309.45604857529821
 20
317.01054237122918
 30
0.0
  0
SEQEND
  5
F5E
  8
0
  6
HIDDEN2
  0
POLYLINE
  5
466
  8
0
  6
HIDDEN2
 66
     1
 10
0.0
 20
0.0
 30
0.0
  0
VERTEX
  5
F5F
  8
0
  6
HIDDEN2
 10
309.45604857529793
 20
246.01054237123259
 30
0.0
  0
VERTEX
  5
F60
  8
0
  6
HIDDEN2
 10
309.21304357570477
 20
246.01054237123259
 30
0.0
  0
VERTEX
  5
F61
  8
0
  6
HIDDEN2
 10
309.19434202724398
 20
246.34473728497261
 30
0.0
  0
VERTEX
  5
F62
  8
0
  6
HIDDEN2
 10
309.15936856256758
 20
246.55131998504831
 30
0.0
  0
VERTEX
  5
F63
  8
0
  6
HIDDEN2
 10
309.10156489438299
 20
246.75271087646709
 30
0.0
  0
VERTEX
  5
F64
  8
0
  6
HIDDEN2
 10
309.02165281620432
 20
246.9463951942711
 30
0.0
  0
VERTEX
  5
F65
  8
0
  6
HIDDEN2
 10
308.92063018892009
 20
247.12995440536841
 30
0.0
  0
VERTEX
  5
F66
  8
0
  6
HIDDEN2
 10
308.79975848052101
 20
247.30109640871851
 30
0.0
  0
VERTEX
  5
F67
  8
0
  6
HIDDEN2
 10
308.66054701416681
 20
247.45768415676281
 30
0.0
  0
VERTEX
  5
F68
  8
0
  6
HIDDEN2
 10
308.5047341212931
 20
247.59776234070441
 30
0.0
  0
VERTEX
  5
F69
  8
0
  6
HIDDEN2
 10
308.33426543509211
 20
247.71958180641869
 30
0.0
  0
VERTEX
  5
F6A
  8
0
  6
HIDDEN2
 10
308.15126959542152
 20
247.82162139611469
 30
0.0
  0
VERTEX
  5
F6B
  8
0
  6
HIDDEN2
 10
307.95803166851169
 20
247.90260694300801
 30
0.0
  0
VERTEX
  5
F6C
  8
0
  6
HIDDEN2
 10
307.75696461337822
 20
247.9615271818227
 30
0.0
  0
VERTEX
  5
F6D
  8
0
  6
HIDDEN2
 10
307.55057915124019
 20
247.99764637644449
 30
0.0
  0
VERTEX
  5
F6E
  8
0
  6
HIDDEN2
 10
307.34145241418321
 20
248.0105135070468
 30
0.0
  0
VERTEX
  5
F6F
  8
0
  6
HIDDEN2
 10
307.33104857529793
 20
248.01054237123259
 30
0.0
  0
SEQEND
  5
F70
  8
0
  6
HIDDEN2
  0
LINE
  5
468
  8
0
  6
HIDDEN2
 10
300.20604857529793
 20
248.01054237123259
 30
0.0
 11
307.33104857529793
 21
248.01054237123259
 31
0.0
  0
LINE
  5
469
  8
0
  6
HIDDEN2
 10
307.33104857529821
 20
315.01054237122918
 30
0.0
 11
300.20604857529821
 21
315.01054237122918
 31
0.0
  0
LINE
  5
46A
  8
0
  6
HIDDEN2
 10
309.45604857529793
 20
246.01054237123259
 30
0.0
 11
309.45604857529821
 21
317.01054237122918
 31
0.0
  0
LINE
  5
46B
  8
0
  6
HIDDEN2
 10
309.45604857529821
 20
317.01054237122918
 30
0.0
 11
309.45604857529793
 21
246.01054237123259
 31
0.0
  0
POLYLINE
  5
473
  8
0
  6
HIDDEN2
 66
     1
 10
0.0
 20
0.0
 30
0.0
  0
VERTEX
  5
F71
  8
0
  6
HIDDEN2
 10
307.33104857529793
 20
243.26054237123051
 30
0.0
  0
VERTEX
  5
F72
  8
0
  6
HIDDEN2
 10
307.54024348903801
 20
243.27224891928441
 30
0.0
  0
VERTEX
  5
F73
  8
0
  6
HIDDEN2
 10
307.74682618911362
 20
243.30722238396089
 30
0.0
  0
VERTEX
  5
F74
  8
0
  6
HIDDEN2
 10
307.9482170805324
 20
243.36502605214551
 30
0.0
  0
VERTEX
  5
F75
  8
0
  6
HIDDEN2
 10
308.14190139833642
 20
243.4449381303242
 30
0.0
  0
VERTEX
  5
F76
  8
0
  6
HIDDEN2
 10
308.32546060943372
 20
243.5459607576083
 30
0.0
  0
VERTEX
  5
F77
  8
0
  6
HIDDEN2
 10
308.49660261278382
 20
243.66683246600749
 30
0.0
  0
VERTEX
  5
F78
  8
0
  6
HIDDEN2
 10
308.65319036082809
 20
243.8060439323616
 30
0.0
  0
VERTEX
  5
F79
  8
0
  6
HIDDEN2
 10
308.79326854476972
 20
243.96185682523529
 30
0.0
  0
VERTEX
  5
F7A
  8
0
  6
HIDDEN2
 10
308.91508801048411
 20
244.13232551143631
 30
0.0
  0
VERTEX
  5
F7B
  8
0
  6
HIDDEN2
 10
309.01712760017989
 20
244.3153213511068
 30
0.0
  0
VERTEX
  5
F7C
  8
0
  6
HIDDEN2
 10
309.09811314707338
 20
244.50855927801669
 30
0.0
  0
VERTEX
  5
F7D
  8
0
  6
HIDDEN2
 10
309.1570333858881
 20
244.70962633315031
 30
0.0
  0
VERTEX
  5
F7E
  8
0
  6
HIDDEN2
 10
309.19315258050989
 20
244.91601179528831
 30
0.0
  0
VERTEX
  5
F7F
  8
0
  6
HIDDEN2
 10
309.21435082603068
 20
245.26054237123051
 30
0.0
  0
VERTEX
  5
F80
  8
0
  6
HIDDEN2
 10
309.45604857529793
 20
245.26054237123051
 30
0.0
  0
SEQEND
  5
F81
  8
0
  6
HIDDEN2
  0
POLYLINE
  5
474
  8
0
  6
HIDDEN2
 66
     1
 10
0.0
 20
0.0
 30
0.0
  0
VERTEX
  5
F82
  8
0
  6
HIDDEN2
 10
309.45604857529759
 20
174.26054237123009
 30
0.0
  0
VERTEX
  5
F83
  8
0
  6
HIDDEN2
 10
309.2130435757046
 20
174.26054237123009
 30
0.0
  0
VERTEX
  5
F84
  8
0
  6
HIDDEN2
 10
309.19434202724369
 20
174.59473728497011
 30
0.0
  0
VERTEX
  5
F85
  8
0
  6
HIDDEN2
 10
309.15936856256729
 20
174.80131998504581
 30
0.0
  0
VERTEX
  5
F86
  8
0
  6
HIDDEN2
 10
309.1015648943827
 20
175.00271087646459
 30
0.0
  0
VERTEX
  5
F87
  8
0
  6
HIDDEN2
 10
309.02165281620398
 20
175.1963951942686
 30
0.0
  0
VERTEX
  5
F88
  8
0
  6
HIDDEN2
 10
308.92063018891992
 20
175.37995440536591
 30
0.0
  0
VERTEX
  5
F89
  8
0
  6
HIDDEN2
 10
308.79975848052072
 20
175.55109640871601
 30
0.0
  0
VERTEX
  5
F8A
  8
0
  6
HIDDEN2
 10
308.66054701416658
 20
175.70768415676031
 30
0.0
  0
VERTEX
  5
F8B
  8
0
  6
HIDDEN2
 10
308.50473412129281
 20
175.84776234070179
 30
0.0
  0
VERTEX
  5
F8C
  8
0
  6
HIDDEN2
 10
308.33426543509182
 20
175.96958180641619
 30
0.0
  0
VERTEX
  5
F8D
  8
0
  6
HIDDEN2
 10
308.15126959542118
 20
176.07162139611219
 30
0.0
  0
VERTEX
  5
F8E
  8
0
  6
HIDDEN2
 10
307.95803166851141
 20
176.15260694300551
 30
0.0
  0
VERTEX
  5
F8F
  8
0
  6
HIDDEN2
 10
307.75696461337787
 20
176.21152718182029
 30
0.0
  0
VERTEX
  5
F90
  8
0
  6
HIDDEN2
 10
307.5505791512399
 20
176.24764637644211
 30
0.0
  0
VERTEX
  5
F91
  8
0
  6
HIDDEN2
 10
307.34145241418292
 20
176.26051350704429
 30
0.0
  0
VERTEX
  5
F92
  8
0
  6
HIDDEN2
 10
307.3310485752977
 20
176.26054237123009
 30
0.0
  0
SEQEND
  5
F93
  8
0
  6
HIDDEN2
  0
LINE
  5
476
  8
0
  6
HIDDEN2
 10
300.2060485752977
 20
176.26054237123009
 30
0.0
 11
307.3310485752977
 21
176.26054237123009
 31
0.0
  0
LINE
  5
477
  8
0
  6
HIDDEN2
 10
307.33104857529793
 20
243.26054237123051
 30
0.0
 11
300.20604857529793
 21
243.26054237123051
 31
0.0
  0
LINE
  5
478
  8
0
  6
HIDDEN2
 10
309.45604857529759
 20
174.26054237123009
 30
0.0
 11
309.45604857529793
 21
245.26054237123051
 31
0.0
  0
LINE
  5
479
  8
0
  6
HIDDEN2
 10
309.45604857529793
 20
245.26054237123051
 30
0.0
 11
309.45604857529759
 21
174.26054237123009
 31
0.0
  0
LINE
  5
484
  8
0
  6
HIDDEN2
 10
300.20604857529833
 20
316.0730423712306
 30
0.0
 11
301.70604857529833
 21
316.0730423712306
 31
0.0
  0
LINE
  5
485
  8
0
  6
HIDDEN2
 10
300.20604857529759
 20
175.1980423712306
 30
0.0
 11
301.70604857529759
 21
175.1980423712306
 31
0.0
  0
LINE
  5
486
  8
0
  6
HIDDEN2
 10
315.34458210128469
 20
252.6355423712302
 30
0.0
 11
300.20604857529793
 21
252.63554237123029
 31
0.0
  0
LINE
  5
487
  8
0
  6
HIDDEN2
 10
300.20604857529781
 20
238.63554237123029
 30
0.0
 11
315.34458210128469
 21
238.6355423712302
 31
0.0
  0
LINE
  5
488
  8
0
  6
HIDDEN2
 10
315.34458210128469
 20
238.6355423712302
 30
0.0
 11
315.34458210128469
 21
252.6355423712302
 31
0.0
  0
LINE
  5
489
  8
0
  6
HIDDEN2
 10
315.34458210128469
 20
252.6355423712302
 30
0.0
 11
315.34458210128469
 21
238.6355423712302
 31
0.0
  0
LINE
  5
496
  8
0
 10
286.45604857529781
 20
317.69804237123481
 30
0.0
 11
286.4560485752973
 21
173.57304237123469
 31
0.0
  0
LINE
  5
499
  8
0
 10
257.70604857529742
 20
173.57304237123481
 30
0.0
 11
257.70604857529793
 21
317.69804237123492
 31
0.0
  0
LINE
  5
49B
  8
0
 10
257.70604857529793
 20
317.69804237123492
 30
0.0
 11
286.45604857529781
 21
317.69804237123481
 31
0.0
  0
LINE
  5
49C
  8
0
 10
257.70604857529742
 20
173.57304237123481
 30
0.0
 11
286.4560485752973
 21
173.57304237123469
 31
0.0
  0
LINE
  5
49D
  8
0
 10
230.33104857529781
 20
173.57304237123461
 30
0.0
 11
317.70604857529781
 21
173.57304237123429
 31
0.0
  0
LINE
  5
49F
  8
0
 10
317.70604857529833
 20
317.69804237123418
 30
0.0
 11
230.33104857529841
 21
317.69804237123458
 31
0.0
  0
LINE
  5
4A0
  8
0
 10
230.33104857529841
 20
317.69804237123458
 30
0.0
 11
230.33104857529841
 21
316.07304237123668
 31
0.0
  0
LINE
  5
4A1
  8
0
 10
230.33104857529841
 20
316.07304237123668
 30
0.0
 11
252.22701645323011
 21
316.07304237123662
 31
0.0
  0
LINE
  5
4A2
  8
0
 10
252.22701645322979
 20
316.07304237123662
 30
0.0
 11
252.227016453229
 21
175.1980423712366
 31
0.0
1001
ACAD
1000
ASC_BOUNDS
1002
{
1070
    19
1005
7F7
1002
}
  0
LINE
  5
4A3
  8
0
 10
252.2270164532296
 20
175.1980423712366
 30
0.0
 11
230.33104857529781
 21
175.19804237123671
 31
0.0
  0
LINE
  5
4A4
  8
0
 10
230.33104857529781
 20
175.19804237123671
 30
0.0
 11
230.33104857529781
 21
173.57304237123461
 31
0.0
  0
LINE
  5
4A6
  8
0
 10
230.33104857529781
 20
175.1980423712352
 30
0.0
 11
230.33104857529841
 21
316.07304237123509
 31
0.0
  0
LINE
  5
4B3
  8
0
 10
230.33104857529841
 20
316.07304237123509
 30
0.0
 11
232.83104857529841
 21
316.07304237123509
 31
0.0
  0
LINE
  5
4B4
  8
0
 10
232.83104857529841
 20
316.07304237123509
 30
0.0
 11
252.22701645323011
 21
316.07304237123662
 31
0.0
1001
ACAD
1000
ASC_BOUNDS
1002
{
1070
    19
1005
7F7
1002
}
  0
LINE
  5
4B5
  8
0
 10
252.2270164532296
 20
175.1980423712366
 30
0.0
 11
232.83104857529781
 21
175.1980423712352
 31
0.0
1001
ACAD
1000
ASC_BOUNDS
1002
{
1070
    19
1005
7F7
1002
}
  0
LINE
  5
4B6
  8
0
 10
232.83104857529781
 20
175.1980423712352
 30
0.0
 11
230.33104857529781
 21
175.1980423712352
 31
0.0
  0
LINE
  5
4B7
  8
0
 10
232.83104857529841
 20
316.07304237123509
 30
0.0
 11
232.83104857529781
 21
175.1980423712352
 31
0.0
1001
ACAD
1000
ASC_BOUNDS
1002
{
1070
    19
1005
7F7
1002
}
  0
LINE
  5
4BB
  8
0
  6
HIDDEN2
 10
325.20604857529759
 20
175.19804237123461
 30
0.0
 11
300.20604857529747
 21
175.19804237123469
 31
0.0
  0
LINE
  5
4BC
  8
0
  6
HIDDEN2
 10
325.20604857529833
 20
316.07304237123469
 30
0.0
 11
300.20604857529821
 21
316.07304237123469
 31
0.0
  0
LINE
  5
4C3
  8
0
 10
290.70604857529793
 20
173.57304237123441
 30
0.0
 11
290.70604857529793
 21
173.32304237123449
 31
0.0
  0
LINE
  5
4C4
  8
0
 10
291.70604857529793
 20
173.32304237123449
 30
0.0
 11
291.70604857529793
 21
173.57304237123441
 31
0.0
  0
LINE
  5
4C5
  8
0
 10
291.70604857529793
 20
173.57304237123441
 30
0.0
 11
290.70604857529793
 21
173.57304237123441
 31
0.0
  0
LINE
  5
4C6
  8
0
 10
290.70604857529793
 20
173.57304237123441
 30
0.0
 11
291.70604857529793
 21
173.57304237123441
 31
0.0
  0
LINE
  5
4C7
  8
0
 10
291.70604857529793
 20
173.32304237123449
 30
0.0
 11
290.70604857529793
 21
173.32304237123449
 31
0.0
  0
LINE
  5
4C8
  8
0
 10
290.70604857529793
 20
173.32304237123449
 30
0.0
 11
291.70604857529793
 21
173.32304237123449
 31
0.0
  0
ARC
  5
4C9
  8
0
 10
273.95604857529759
 20
245.6355423712304
 30
0.0
 40
3.9999999999999929
 50
90.0
 51
269.99999999999841
  0
ARC
  5
4CA
  8
0
 10
273.95604857529759
 20
245.6355423712304
 30
0.0
 40
3.999999999999996
 50
270.0
 51
90.0
  0
LINE
  5
4CB
  8
0
 10
304.45604857529793
 20
173.57304237123441
 30
0.0
 11
304.45604857529793
 21
173.32304237123441
 31
0.0
  0
LINE
  5
4CC
  8
0
 10
312.45604857529793
 20
173.32304237123441
 30
0.0
 11
312.45604857529793
 21
173.57304237123441
 31
0.0
  0
LINE
  5
4CD
  8
0
 10
283.20604857529793
 20
173.57304237123449
 30
0.0
 11
283.20604857529793
 21
173.32304237123449
 31
0.0
  0
LINE
  5
4CE
  8
0
 10
286.20604857529793
 20
173.32304237123449
 30
0.0
 11
286.20604857529793
 21
173.57304237123449
 31
0.0
  0
LINE
  5
4CF
  8
0
 10
283.70604857529793
 20
173.57304237123449
 30
0.0
 11
283.70604857529793
 21
173.32304237123449
 31
0.0
  0
LINE
  5
4D0
  8
0
 10
285.70604857529793
 20
173.32304237123449
 30
0.0
 11
285.70604857529793
 21
173.57304237123449
 31
0.0
  0
LINE
  5
4D1
  8
0
 10
312.45604857529793
 20
173.57304237123441
 30
0.0
 11
304.45604857529793
 21
173.57304237123441
 31
0.0
  0
LINE
  5
4D2
  8
0
 10
304.45604857529793
 20
173.57304237123441
 30
0.0
 11
312.45604857529793
 21
173.57304237123441
 31
0.0
  0
LINE
  5
4D3
  8
0
 10
286.20604857529793
 20
173.57304237123449
 30
0.0
 11
283.20604857529793
 21
173.57304237123449
 31
0.0
  0
LINE
  5
4D4
  8
0
 10
283.20604857529793
 20
173.57304237123449
 30
0.0
 11
286.20604857529793
 21
173.57304237123449
 31
0.0
  0
LINE
  5
4D5
  8
0
 10
285.70604857529793
 20
173.57304237123449
 30
0.0
 11
283.70604857529793
 21
173.57304237123449
 31
0.0
  0
LINE
  5
4D6
  8
0
 10
283.70604857529793
 20
173.57304237123449
 30
0.0
 11
285.70604857529793
 21
173.57304237123449
 31
0.0
  0
LINE
  5
4D7
  8
0
 10
312.45604857529793
 20
173.32304237123441
 30
0.0
 11
304.45604857529793
 21
173.32304237123441
 31
0.0
  0
LINE
  5
4D8
  8
0
 10
304.45604857529793
 20
173.32304237123441
 30
0.0
 11
312.45604857529793
 21
173.32304237123441
 31
0.0
  0
LINE
  5
4D9
  8
0
 10
286.20604857529793
 20
173.32304237123449
 30
0.0
 11
283.20604857529793
 21
173.32304237123449
 31
0.0
  0
LINE
  5
4DA
  8
0
 10
283.20604857529793
 20
173.32304237123449
 30
0.0
 11
286.20604857529793
 21
173.32304237123449
 31
0.0
  0
LINE
  5
4DB
  8
0
 10
285.70604857529793
 20
173.32304237123449
 30
0.0
 11
283.70604857529793
 21
173.32304237123449
 31
0.0
  0
LINE
  5
4DC
  8
0
 10
283.70604857529793
 20
173.32304237123449
 30
0.0
 11
285.70604857529793
 21
173.32304237123449
 31
0.0
  0
LINE
  5
7E9
  8
0
  6
HIDDEN2
 10
300.20604857529747
 20
175.19804237123469
 30
0.0
 11
300.20604857529833
 21
316.0730423712306
 31
0.0
  0
LINE
  5
7EA
  8
0
 10
325.20604857529833
 20
317.69804237123049
 30
0.0
 11
325.20604857529759
 21
173.57304237123051
 31
0.0
  0
INSERT
  5
7F7
  8
0
  6
CONTINUOUS
  2
*X5
 10
0.0
 20
0.0
 30
0.0
1001
GRADIENTCOLOR1ACI
1070
     5
1001
GRADIENTCOLOR2ACI
1070
     2
1001
ACAD
1000
HATCH
1002
{
1070
    19
1000
ANSI31
1040
12.0
1040
2.3561944901923439
1000
ASC_BOUNDS
1070
     1
1070
     1
1070
     4
1005
4A2
1005
4B5
1005
4B7
1005
4B4
1000
ASC_SEEDPOINT
1011
242.6678298149227
1021
0.0
1031
0.0
1021
270.04621091592531
1031
0.0
1000
R14_HATCH_DATA
1000
7F7
1011
1.0
1021
0.0
1031
0.0
1021
0.0
1031
0.0
1011
0.0
1021
0.0
1031
0.0
1021
1.0
1031
0.0
1011
0.0
1021
0.0
1031
0.0
1021
0.0
1031
1.0
1040
0.0
1010
0.0
1020
0.0
1030
1.0
1000
ANSI31
1070
     0
1070
     1
1071
        1
1071
        7
1070
     0
1070
     1
1071
        4
1040
252.22701645322979
1040
316.07304237123662
1040
232.83104857529841
1040
316.07304237123509
1040
232.83104857529781
1040
175.1980423712352
1040
252.227016453229
1040
175.1980423712366
1071
        4
1005
4B4
1005
4B7
1005
4B5
1005
4A2
1070
     1
1070
     1
1040
2.3561944901923439
1040
12.0
1070
     0
1070
     1
1040
3.1415926535897931
1040
0.0
1040
0.0
1040
-0.0000000000000002
1040
-1.5
1070
     0
1040
0.1939969381301249
1071
        1
1040
242.6678298149227
1040
270.04621091592531
1040
0.0
1002
}
  0
INSERT
  5
800
  8
0
  6
CONTINUOUS
  2
*X6
 10
0.0
 20
0.0
 30
0.0
1001
GRADIENTCOLOR1ACI
1070
     5
1001
GRADIENTCOLOR2ACI
1070
     2
1001
ACAD
1000
HATCH
1002
{
1070
    19
1000
ANSI31
1040
12.0
1040
0.7853981633974483
1000
ASC_BOUNDS
1070
     1
1070
     1
1070
     4
1005
44D
1005
44E
1005
44F
1005
44A
1000
ASC_SEEDPOINT
1011
61.99757100215902
1021
0.0
1031
0.0
1021
88.288639702263026
1031
0.0
1000
R14_HATCH_DATA
1000
800
1011
1.0
1021
0.0
1031
0.0
1021
0.0
1031
0.0
1011
0.0
1021
0.0
1031
0.0
1021
1.0
1031
0.0
1011
0.0
1021
0.0
1031
0.0
1021
0.0
1031
1.0
1040
0.0
1010
0.0
1020
0.0
1030
1.0
1000
ANSI31
1070
     0
1070
     1
1071
        1
1071
        7
1070
     0
1070
     1
1071
        4
1040
173.19646090477659
1040
134.7683996428276
1040
32.3214609047767
1040
134.7683996428276
1040
32.321460904778242
1040
24.768399642828928
1040
173.19646090477821
1040
24.768399642830861
1071
        4
1005
44A
1005
44F
1005
44E
1005
44D
1070
     1
1070
     1
1040
0.7853981633974483
1040
12.0
1070
     0
1070
     1
1040
1.5707963267948959
1040
0.0
1040
0.0
1040
-1.5
1040
0.0000000000000002
1070
     0
1040
0.1957109646237262
1071
        1
1040
61.99757100215902
1040
88.288639702263026
1040
0.0
1002
}
  0
INSERT
  5
812
  8
0
  6
CONTINUOUS
  2
*X7
 10
0.0
 20
0.0
 30
0.0
1001
GRADIENTCOLOR1ACI
1070
     5
1001
GRADIENTCOLOR2ACI
1070
     2
1001
ACAD
1000
HATCH
1002
{
1070
    19
1000
NET
1040
24.0
1040
0.0
1000
ASC_BOUNDS
1070
     1
1070
     1
1070
     4
1005
440
1005
43F
1005
43E
1005
43D
1000
ASC_SEEDPOINT
1011
444.53029822060529
1021
0.0
1031
0.0
1021
103.6543790052765
1031
0.0
1000
R14_HATCH_DATA
1000
812
1011
1.0
1021
0.0
1031
0.0
1021
0.0
1031
0.0
1011
0.0
1021
0.0
1031
0.0
1021
1.0
1031
0.0
1011
0.0
1021
0.0
1031
0.0
1021
0.0
1031
1.0
1040
0.0
1010
0.0
1020
0.0
1030
1.0
1000
NET
1070
     0
1070
     1
1071
        1
1071
        7
1070
     0
1070
     1
1071
        4
1040
542.57511449105345
1040
133.26839964282809
1040
401.7001144910534
1040
133.26839964282809
1040
401.7001144910534
1040
24.768399642827671
1040
542.57511449105345
1040
24.768399642827671
1071
        4
1005
43D
1005
43E
1005
43F
1005
440
1070
     1
1070
     1
1040
0.0
1040
24.0
1070
     0
1070
     2
1040
0.0
1040
0.0
1040
0.0
1040
0.0
1040
3.0
1070
     0
1040
1.5707963267948959
1040
0.0
1040
0.0
1040
-3.0
1040
0.0000000000000002
1070
     0
1040
0.3167077148487321
1071
        1
1040
444.53029822060529
1040
103.6543790052765
1040
0.0
1002
}
  0
ENDSEC
  0
EOF
