  0
SECTION
  2
HEADER
  9
$ACADVER
  1
AC1009
  9
$INSBASE
 10
0.0
 20
0.0
 30
0.0
  9
$EXTMIN
 10
-11.68664847233538
 20
1.0718891445538361
 30
-0.0015258207003583
  9
$EXTMAX
 10
371.72578985810588
 20
248.23121187445381
 30
0.0000000349246037
  9
$LIMMIN
 10
0.0
 20
0.0
  9
$LIMMAX
 10
12.0
 20
9.0
  9
$ORTHOMODE
 70
     1
  9
$REGENMODE
 70
     1
  9
$FILLMODE
 70
     1
  9
$QTEXTMODE
 70
     0
  9
$MIRRTEXT
 70
     0
  9
$DRAGMODE
 70
     2
  9
$LTSCALE
 40
48.0
  9
$OSMODE
 70
    37
  9
$ATTMODE
 70
     1
  9
$TEXTSIZE
 40
0.2
  9
$TRACEWID
 40
0.05
  9
$TEXTSTYLE
  7
ROMANS
  9
$CLAYER
  8
0
  9
$CELTYPE
  6
BYLAYER
  9
$CECOLOR
 62
   256
  9
$DIMSCALE
 40
1.0
  9
$DIMASZ
 40
0.09375
  9
$DIMEXO
 40
0.0625
  9
$DIMDLI
 40
0.375
  9
$DIMRND
 40
0.0
  9
$DIMDLE
 40
0.0
  9
$DIMEXE
 40
0.03125
  9
$DIMTP
 40
0.0
  9
$DIMTM
 40
0.0
  9
$DIMTXT
 40
0.09375
  9
$DIMCEN
 40
0.09375
  9
$DIMTSZ
 40
0.0
  9
$DIMTOL
 70
     0
  9
$DIMLIM
 70
     0
  9
$DIMTIH
 70
     0
  9
$DIMTOH
 70
     0
  9
$DIMSE1
 70
     0
  9
$DIMSE2
 70
     0
  9
$DIMTAD
 70
     0
  9
$DIMZIN
 70
     0
  9
$DIMBLK
  1

  9
$DIMASO
 70
     1
  9
$DIMSHO
 70
     1
  9
$DIMPOST
  1

  9
$DIMAPOST
  1

  9
$DIMALT
 70
     0
  9
$DIMALTD
 70
     2
  9
$DIMALTF
 40
25.399999999999999
  9
$DIMLFAC
 40
1.0
  9
$DIMTOFL
 70
     0
  9
$DIMTVP
 40
0.0
  9
$DIMTIX
 70
     0
  9
$DIMSOXD
 70
     0
  9
$DIMSAH
 70
     0
  9
$DIMBLK1
  1

  9
$DIMBLK2
  1

  9
$DIMSTYLE
  2
BAC
  9
$DIMCLRD
 70
     0
  9
$DIMCLRE
 70
     6
  9
$DIMCLRT
 70
     0
  9
$DIMTFAC
 40
1.0
  9
$DIMGAP
 40
0.0625
  9
$LUNITS
 70
     5
  9
$LUPREC
 70
     6
  9
$SKETCHINC
 40
0.1
  9
$FILLETRAD
 40
0.0
  9
$AUNITS
 70
     0
  9
$AUPREC
 70
     0
  9
$MENU
  1
.
  9
$ELEVATION
 40
0.0
  9
$PELEVATION
 40
0.0
  9
$THICKNESS
 40
0.0
  9
$LIMCHECK
 70
     0
  9
$BLIPMODE
 70
     0
  9
$CHAMFERA
 40
0.5
  9
$CHAMFERB
 40
0.5
  9
$SKPOLY
 70
     0
  9
$TDCREATE
 40
2456825.687363646
  9
$TDUPDATE
 40
2456825.6936656488
  9
$TDINDWG
 40
0.0063037616
  9
$TDUSRTIMER
 40
0.0063033218
  9
$USRTIMER
 70
     1
  9
$ANGBASE
 50
0.0
  9
$ANGDIR
 70
     0
  9
$PDMODE
 70
     0
  9
$PDSIZE
 40
0.0
  9
$PLINEWID
 40
0.0
  9
$COORDS
 70
     1
  9
$SPLFRAME
 70
     0
  9
$SPLINETYPE
 70
     6
  9
$SPLINESEGS
 70
     8
  9
$ATTDIA
 70
     0
  9
$ATTREQ
 70
     1
  9
$HANDLING
 70
     1
  9
$HANDSEED
  5
A83
  9
$SURFTAB1
 70
     6
  9
$SURFTAB2
 70
     6
  9
$SURFTYPE
 70
     6
  9
$SURFU
 70
     6
  9
$SURFV
 70
     6
  9
$UCSNAME
  2

  9
$UCSORG
 10
0.0
 20
0.0
 30
0.0
  9
$UCSXDIR
 10
1.0
 20
0.0
 30
0.0
  9
$UCSYDIR
 10
0.0
 20
1.0
 30
0.0
  9
$PUCSNAME
  2

  9
$PUCSORG
 10
0.0
 20
0.0
 30
0.0
  9
$PUCSXDIR
 10
1.0
 20
0.0
 30
0.0
  9
$PUCSYDIR
 10
0.0
 20
1.0
 30
0.0
  9
$USERI1
 70
     0
  9
$USERI2
 70
     0
  9
$USERI3
 70
     0
  9
$USERI4
 70
     0
  9
$USERI5
 70
     0
  9
$USERR1
 40
0.0
  9
$USERR2
 40
0.0
  9
$USERR3
 40
0.0
  9
$USERR4
 40
0.0
  9
$USERR5
 40
0.0
  9
$WORLDVIEW
 70
     1
  9
$SHADEDGE
 70
     3
  9
$SHADEDIF
 70
    70
  9
$TILEMODE
 70
     1
  9
$MAXACTVP
 70
    48
  9
$PLIMCHECK
 70
     0
  9
$PEXTMIN
 10
1.0000000000000000E+020
 20
1.0000000000000000E+020
 30
1.0000000000000000E+020
  9
$PEXTMAX
 10
-1.0000000000000000E+020
 20
-1.0000000000000000E+020
 30
-1.0000000000000000E+020
  9
$PLIMMIN
 10
0.0
 20
0.0
  9
$PLIMMAX
 10
12.0
 20
9.0
  9
$UNITMODE
 70
     0
  9
$VISRETAIN
 70
     1
  9
$PLINEGEN
 70
     0
  9
$PSLTSCALE
 70
     1
  0
ENDSEC
  0
SECTION
  2
TABLES
  0
TABLE
  2
VPORT
 70
     1
  0
VPORT
  2
*ACTIVE
 70
     0
 10
0.0
 20
0.0
 11
1.0
 21
1.0
 12
180.01957069288531
 22
124.65155050950381
 13
0.0
 23
0.0
 14
0.5
 24
0.5
 15
0.5
 25
0.5
 16
0.0
 26
0.0
 36
1.0
 17
0.0
 27
0.0
 37
0.0
 40
248.80339804739381
 41
1.7702552719200879
 42
50.0
 43
0.0
 44
0.0
 50
0.0
 51
0.0
 71
     0
 72
   100
 73
     1
 74
     1
 75
     0
 76
     0
 77
     0
 78
     0
  0
ENDTAB
  0
TABLE
  2
LTYPE
 70
    20
  0
LTYPE
  2
CONTINUOUS
 70
     0
  3
Solid line
 72
    65
 73
     0
 40
0.0
  0
LTYPE
  2
CENTER
 70
     0
  3
Center ____ _ ____ _ ____ _ ____ _ ____ _ ____
 72
    65
 73
     4
 40
2.0
 49
1.25
 49
-0.25
 49
0.25
 49
-0.25
  0
LTYPE
  2
CENTER2
 70
     0
  3
Center (.5x) ___ _ ___ _ ___ _ ___ _ ___ _ ___
 72
    65
 73
     4
 40
1.125
 49
0.75
 49
-0.125
 49
0.125
 49
-0.125
  0
LTYPE
  2
HIDDEN
 70
     0
  3
Hidden __ __ __ __ __ __ __ __ __ __ __ __ __ _
 72
    65
 73
     2
 40
0.375
 49
0.25
 49
-0.125
  0
LTYPE
  2
HIDDEN2
 70
     0
  3
Hidden (.5x) _ _ _ _ _ _ _ _ _ _ _ _ _ _ _ _ _
 72
    65
 73
     2
 40
0.1875
 49
0.125
 49
-0.0625
  0
LTYPE
  2
PHANTOM2
 70
     0
  3
Phantom (.5x) ___ _ _ ___ _ _ ___ _ _ ___ _ _
 72
    65
 73
     6
 40
1.25
 49
0.625
 49
-0.125
 49
0.125
 49
-0.125
 49
0.125
 49
-0.125
  0
LTYPE
  2
AMCONSTR
 70
     0
  3
_______________________
 72
    65
 73
     2
 40
9999.0
 49
9999.0
 49
0.0
  0
LTYPE
  2
AMZIGZAG2
 70
     0
  3
/\/-/\/-/\/-/\/-/\/-/\/
 72
    65
 73
     2
 40
0.4401
 49
0.0001
 49
-0.4400000000000001
  0
LTYPE
  2
ACANSTGB
 70
     0
  3
__ . . __ . .
 72
    65
 73
     6
 40
0.35433070866
 49
0.15748031496
 49
-0.03937007874
 49
0.03937007874
 49
-0.03937007874
 49
0.03937007874
 49
-0.03937007874
  0
LTYPE
  2
ACANSTGL
 70
     0
  3
_ _ _ _ _
 72
    65
 73
     2
 40
0.11811023622
 49
0.07874015748
 49
-0.03937007874
  0
ENDTAB
  0
TABLE
  2
LAYER
 70
     8
  0
LAYER
  2
0
 70
     0
 62
     7
  6
CONTINUOUS
  0
ENDTAB
  0
TABLE
  2
STYLE
 70
    11
  0
STYLE
  2
STANDARD
 70
     0
 40
0.0
 41
1.0
 50
0.0
 71
     0
 42
0.2
  3
txt
  4

  0
STYLE
  2
ROMANS
 70
     0
 40
0.0
 41
0.75
 50
0.0
 71
     0
 42
0.2
  3
romans.shx
  4

  0
STYLE
  2

 70
     1
 40
0.0
 41
1.0
 50
0.0
 71
     0
 42
0.2
  3
genltshp.shx
  4

  0
STYLE
  2
ACANSGDT
 70
     0
 40
0.0
 41
1.0
 50
0.0
 71
     0
 42
0.2
  3
amgdt.shx
  4

  0
ENDTAB
  0
TABLE
  2
VIEW
 70
     0
  0
ENDTAB
  0
TABLE
  2
UCS
 70
     0
  0
ENDTAB
  0
TABLE
  2
APPID
 70
    15
  0
APPID
  2
ACAD
 70
     0
  0
APPID
  2
ACAD_MLEADERVER
 70
     0
  0
APPID
  2
ACAD_DSTYLE_DIMJAG
 70
     0
  0
APPID
  2
ACAD_DSTYLE_DIMTALN
 70
     0
  0
APPID
  2
ACAD_PSEXT
 70
     0
  0
APPID
  2
ACADANNOPO
 70
     0
  0
APPID
  2
MCAD_NO_VIS
 70
     0
  0
APPID
  2
ACAD_TEMP_GRAPHIC
 70
     0
  0
APPID
  2
ACATTRIBSERVICES
 70
     0
  0
APPID
  2
DESIGNERASSEMBLIES
 70
     0
  0
APPID
  2
ACAD_DSTYLE_DIMBREAK
 70
     0
  0
APPID
  2
ACAD_NAV_VCDISPLAY
 70
     0
  0
APPID
  2
ACAD_EXEMPT_FROM_CAD_STANDARDS
 70
     0
  0
APPID
  2
GRADIENTCOLOR1ACI
 70
     0
  0
APPID
  2
GRADIENTCOLOR2ACI
 70
     0
  0
ENDTAB
  0
TABLE
  2
DIMSTYLE
 70
    14
  0
DIMSTYLE
  2
BAC
 70
     0
  3

  4

  5

  6

  7

 40
1.0
 41
0.09375
 42
0.0625
 43
0.375
 44
0.03125
 45
0.0
 46
0.0
 47
0.0
 48
0.0
140
0.09375
141
0.09375
142
0.0
143
25.399999999999999
144
1.0
145
0.0
146
1.0
147
0.0625
 71
     0
 72
     0
 73
     0
 74
     0
 75
     0
 76
     0
 77
     0
 78
     0
170
     0
171
     2
172
     0
173
     0
174
     0
175
     0
176
     0
177
     6
178
     0
  0
DIMSTYLE
  2
AM_ANSI
 70
     0
  3

  4
mm
  5

  6

  7

 40
1.0
 41
0.12
 42
0.05
 43
0.5
 44
0.1
 45
0.0
 46
0.0
 47
0.1
 48
0.1
140
0.12
141
0.0
142
0.0
143
25.399999999999999
144
1.0
145
0.0
146
0.71
147
0.06
 71
     0
 72
     0
 73
     1
 74
     1
 75
     0
 76
     0
 77
     0
 78
     7
170
     0
171
     2
172
     0
173
     0
174
     0
175
     0
176
   256
177
   256
178
     2
  0
DIMSTYLE
  2
AM_ANSI$3
 70
     0
  3

  4
mm
  5

  6

  7

 40
1.0
 41
0.12
 42
0.05
 43
0.5
 44
0.1
 45
0.0
 46
0.0
 47
0.1
 48
0.1
140
0.12
141
0.0
142
0.0
143
25.399999999999999
144
1.0
145
0.0
146
0.71
147
0.06
 71
     0
 72
     0
 73
     1
 74
     1
 75
     0
 76
     0
 77
     0
 78
     7
170
     0
171
     2
172
     0
173
     0
174
     0
175
     0
176
   256
177
   256
178
     2
  0
DIMSTYLE
  2
AM_ANSI$4
 70
     0
  3

  4
mm
  5

  6

  7

 40
1.0
 41
0.12
 42
0.05
 43
0.5
 44
0.1
 45
0.0
 46
0.0
 47
0.1
 48
0.1
140
0.12
141
0.0
142
0.0
143
25.399999999999999
144
1.0
145
0.0
146
0.71
147
0.06
 71
     0
 72
     0
 73
     1
 74
     1
 75
     0
 76
     0
 77
     0
 78
     7
170
     0
171
     2
172
     0
173
     0
174
     0
175
     0
176
   256
177
   256
178
     2
  0
DIMSTYLE
  2
AM_ANSI$7
 70
     0
  3

  4
mm
  5

  6

  7

 40
1.0
 41
0.12
 42
0.05
 43
0.5
 44
0.1
 45
0.0
 46
0.0
 47
0.1
 48
0.1
140
0.12
141
0.0
142
0.0
143
25.399999999999999
144
1.0
145
0.0
146
0.71
147
0.06
 71
     0
 72
     0
 73
     1
 74
     1
 75
     0
 76
     0
 77
     0
 78
     7
170
     0
171
     2
172
     0
173
     0
174
     0
175
     0
176
   256
177
   256
178
     2
  0
DIMSTYLE
  2
AM_ANSI$SF
 70
     0
  3

  4
mm
  5

  6

  7

 40
1.0
 41
0.12
 42
0.05
 43
0.5
 44
0.1
 45
0.0
 46
0.0
 47
0.1
 48
0.1
140
0.12
141
0.0
142
0.0
143
25.399999999999999
144
1.0
145
0.0
146
0.71
147
0.06
 71
     0
 72
     0
 73
     1
 74
     1
 75
     1
 76
     1
 77
     0
 78
     7
170
     0
171
     2
172
     0
173
     0
174
     0
175
     0
176
   256
177
   256
178
     2
  0
DIMSTYLE
  2
AM_ANSI$SH
 70
     0
  3

  4
mm
  5

  6
GENAXEH
  7

 40
1.0
 41
0.12
 42
0.05
 43
0.5
 44
0.1
 45
0.0
 46
0.0
 47
0.1
 48
0.1
140
0.12
141
0.0
142
0.0
143
25.399999999999999
144
1.0
145
0.0
146
0.71
147
0.06
 71
     0
 72
     0
 73
     1
 74
     1
 75
     1
 76
     1
 77
     0
 78
     7
170
     0
171
     2
172
     0
173
     1
174
     0
175
     0
176
   256
177
   256
178
     2
  0
DIMSTYLE
  2
STANDARD
 70
     0
  3

  4

  5

  6

  7

 40
1.0
 41
0.18
 42
0.0625
 43
0.38
 44
0.18
 45
0.0
 46
0.0
 47
0.0
 48
0.0
140
0.18
141
0.09
142
0.0
143
25.399999999999999
144
1.0
145
0.0
146
1.0
147
0.09
 71
     0
 72
     0
 73
     1
 74
     1
 75
     0
 76
     0
 77
     0
 78
     0
170
     0
171
     2
172
     0
173
     0
174
     0
175
     0
176
     0
177
     0
178
     0
  0
ENDTAB
  0
ENDSEC
  0
SECTION
  2
BLOCKS
  0
BLOCK
  8
0
  2
$MODEL_SPACE
 70
     0
 10
0.0
 20
0.0
 30
0.0
  3
$MODEL_SPACE
  1

  0
ENDBLK
  5
1A
  8
0
  0
BLOCK
 67
     1
  8
0
  2
$PAPER_SPACE
 70
     0
 10
0.0
 20
0.0
 30
0.0
  3
$PAPER_SPACE
  1

  0
ENDBLK
  5
17
 67
     1
  8
0
  0
BLOCK
  8
0
  2
*U0
 70
     1
 10
0.0
 20
0.0
 30
0.0
  3
*U0
  1

  0
ENDBLK
  5
17A
  8
0
  0
BLOCK
  8
0
  2
GENAXEH
 70
     0
 10
0.0
 20
0.0
 30
0.0
  3
GENAXEH
  1

  0
LINE
  5
1AD
  8
0
 10
-1.0
 20
0.0
 30
0.0
 11
1.0
 21
0.0
 31
0.0
  0
ENDBLK
  5
1AF
  8
0
  0
BLOCK
  8
0
  2
*X4
 70
     1
 10
0.0
 20
0.0
 30
0.0
  3
*X4
  1

  0
LINE
  5
607
  8
0
 62
     0
 10
219.93071799264271
 20
126.9984832967953
 30
0.0
 11
219.93071799264271
 21
232.87348329679531
 31
0.0
  0
LINE
  5
608
  8
0
 62
     0
 10
219.86651932434691
 20
127.0374832968041
 30
0.0
 11
219.99151932434691
 21
127.0374832968041
 31
0.0
  0
LINE
  5
609
  8
0
 62
     0
 10
219.86651932434691
 20
127.15548329680411
 30
0.0
 11
219.99151932434691
 21
127.15548329680411
 31
0.0
  0
LINE
  5
60A
  8
0
 62
     0
 10
219.86651932434691
 20
127.2734832968041
 30
0.0
 11
219.99151932434691
 21
127.2734832968041
 31
0.0
  0
LINE
  5
60B
  8
0
 62
     0
 10
219.86651932434691
 20
127.391483296804
 30
0.0
 11
219.99151932434691
 21
127.391483296804
 31
0.0
  0
LINE
  5
60C
  8
0
 62
     0
 10
219.86651932434691
 20
127.50948329680401
 30
0.0
 11
219.99151932434691
 21
127.50948329680401
 31
0.0
  0
LINE
  5
60D
  8
0
 62
     0
 10
219.86651932434691
 20
127.6274832968041
 30
0.0
 11
219.99151932434691
 21
127.6274832968041
 31
0.0
  0
LINE
  5
60E
  8
0
 62
     0
 10
219.86651932434691
 20
127.7454832968041
 30
0.0
 11
219.99151932434691
 21
127.7454832968041
 31
0.0
  0
LINE
  5
60F
  8
0
 62
     0
 10
219.86651932434691
 20
127.86348329680411
 30
0.0
 11
219.99151932434691
 21
127.86348329680411
 31
0.0
  0
LINE
  5
610
  8
0
 62
     0
 10
219.86651932434691
 20
127.981483296804
 30
0.0
 11
219.99151932434691
 21
127.981483296804
 31
0.0
  0
LINE
  5
611
  8
0
 62
     0
 10
219.86651932434691
 20
128.09948329680401
 30
0.0
 11
219.99151932434691
 21
128.09948329680401
 31
0.0
  0
LINE
  5
612
  8
0
 62
     0
 10
219.86651932434691
 20
128.21748329680401
 30
0.0
 11
219.99151932434691
 21
128.21748329680401
 31
0.0
  0
LINE
  5
613
  8
0
 62
     0
 10
219.86651932434691
 20
128.33548329680411
 30
0.0
 11
219.99151932434691
 21
128.33548329680411
 31
0.0
  0
LINE
  5
614
  8
0
 62
     0
 10
219.86651932434691
 20
128.45348329680411
 30
0.0
 11
219.99151932434691
 21
128.45348329680411
 31
0.0
  0
LINE
  5
615
  8
0
 62
     0
 10
219.86651932434691
 20
128.5714832968041
 30
0.0
 11
219.99151932434691
 21
128.5714832968041
 31
0.0
  0
LINE
  5
616
  8
0
 62
     0
 10
219.86651932434691
 20
128.68948329680401
 30
0.0
 11
219.99151932434691
 21
128.68948329680401
 31
0.0
  0
LINE
  5
617
  8
0
 62
     0
 10
219.86651932434691
 20
128.80748329680409
 30
0.0
 11
219.99151932434691
 21
128.80748329680409
 31
0.0
  0
LINE
  5
618
  8
0
 62
     0
 10
219.86651932434691
 20
128.92548329680409
 30
0.0
 11
219.99151932434691
 21
128.92548329680409
 31
0.0
  0
LINE
  5
619
  8
0
 62
     0
 10
219.86651932434691
 20
129.04348329680411
 30
0.0
 11
219.99151932434691
 21
129.04348329680411
 31
0.0
  0
LINE
  5
61A
  8
0
 62
     0
 10
219.86651932434691
 20
129.16148329680411
 30
0.0
 11
219.99151932434691
 21
129.16148329680411
 31
0.0
  0
LINE
  5
61B
  8
0
 62
     0
 10
219.86651932434691
 20
129.27948329680399
 30
0.0
 11
219.99151932434691
 21
129.27948329680399
 31
0.0
  0
LINE
  5
61C
  8
0
 62
     0
 10
219.86651932434691
 20
129.39748329680401
 30
0.0
 11
219.99151932434691
 21
129.39748329680401
 31
0.0
  0
LINE
  5
61D
  8
0
 62
     0
 10
219.86651932434691
 20
129.51548329680401
 30
0.0
 11
219.99151932434691
 21
129.51548329680401
 31
0.0
  0
LINE
  5
61E
  8
0
 62
     0
 10
219.86651932434691
 20
129.63348329680409
 30
0.0
 11
219.99151932434691
 21
129.63348329680409
 31
0.0
  0
LINE
  5
61F
  8
0
 62
     0
 10
219.86651932434779
 20
129.75148329680411
 30
0.0
 11
219.99151932434779
 21
129.75148329680411
 31
0.0
  0
LINE
  5
620
  8
0
 62
     0
 10
219.86651932434779
 20
129.86948329680411
 30
0.0
 11
219.99151932434779
 21
129.86948329680411
 31
0.0
  0
LINE
  5
621
  8
0
 62
     0
 10
219.86651932434779
 20
129.98748329680399
 30
0.0
 11
219.99151932434779
 21
129.98748329680399
 31
0.0
  0
LINE
  5
622
  8
0
 62
     0
 10
219.86651932434779
 20
130.10548329680401
 30
0.0
 11
219.99151932434779
 21
130.10548329680401
 31
0.0
  0
LINE
  5
623
  8
0
 62
     0
 10
219.86651932434779
 20
130.22348329680409
 30
0.0
 11
219.99151932434779
 21
130.22348329680409
 31
0.0
  0
LINE
  5
624
  8
0
 62
     0
 10
219.86651932434779
 20
130.34148329680411
 30
0.0
 11
219.99151932434779
 21
130.34148329680411
 31
0.0
  0
LINE
  5
625
  8
0
 62
     0
 10
219.86651932434779
 20
130.45948329680411
 30
0.0
 11
219.99151932434779
 21
130.45948329680411
 31
0.0
  0
LINE
  5
626
  8
0
 62
     0
 10
219.86651932434779
 20
130.57748329680399
 30
0.0
 11
219.99151932434779
 21
130.57748329680399
 31
0.0
  0
LINE
  5
627
  8
0
 62
     0
 10
219.86651932434779
 20
130.69548329680401
 30
0.0
 11
219.99151932434779
 21
130.69548329680401
 31
0.0
  0
LINE
  5
628
  8
0
 62
     0
 10
219.86651932434779
 20
130.81348329680401
 30
0.0
 11
219.99151932434779
 21
130.81348329680401
 31
0.0
  0
LINE
  5
629
  8
0
 62
     0
 10
219.86651932434779
 20
130.931483296804
 30
0.0
 11
219.99151932434779
 21
130.931483296804
 31
0.0
  0
LINE
  5
62A
  8
0
 62
     0
 10
219.86651932434779
 20
131.04948329680411
 30
0.0
 11
219.99151932434779
 21
131.04948329680411
 31
0.0
  0
LINE
  5
62B
  8
0
 62
     0
 10
219.86651932434779
 20
131.16748329680399
 30
0.0
 11
219.99151932434779
 21
131.16748329680399
 31
0.0
  0
LINE
  5
62C
  8
0
 62
     0
 10
219.86651932434779
 20
131.28548329680399
 30
0.0
 11
219.99151932434779
 21
131.28548329680399
 31
0.0
  0
LINE
  5
62D
  8
0
 62
     0
 10
219.86651932434779
 20
131.40348329680401
 30
0.0
 11
219.99151932434779
 21
131.40348329680401
 31
0.0
  0
LINE
  5
62E
  8
0
 62
     0
 10
219.86651932434779
 20
131.52148329680409
 30
0.0
 11
219.99151932434779
 21
131.52148329680409
 31
0.0
  0
LINE
  5
62F
  8
0
 62
     0
 10
219.86651932434779
 20
131.63948329680409
 30
0.0
 11
219.99151932434779
 21
131.63948329680409
 31
0.0
  0
LINE
  5
630
  8
0
 62
     0
 10
219.86651932434779
 20
131.75748329680411
 30
0.0
 11
219.99151932434779
 21
131.75748329680411
 31
0.0
  0
LINE
  5
631
  8
0
 62
     0
 10
219.86651932434779
 20
131.87548329680399
 30
0.0
 11
219.99151932434779
 21
131.87548329680399
 31
0.0
  0
LINE
  5
632
  8
0
 62
     0
 10
219.86651932434779
 20
131.99348329680399
 30
0.0
 11
219.99151932434779
 21
131.99348329680399
 31
0.0
  0
LINE
  5
633
  8
0
 62
     0
 10
219.86651932434779
 20
132.11148329680401
 30
0.0
 11
219.99151932434779
 21
132.11148329680401
 31
0.0
  0
LINE
  5
634
  8
0
 62
     0
 10
219.86651932434779
 20
132.22948329680401
 30
0.0
 11
219.99151932434779
 21
132.22948329680401
 31
0.0
  0
LINE
  5
635
  8
0
 62
     0
 10
219.86651932434779
 20
132.34748329680411
 30
0.0
 11
219.99151932434779
 21
132.34748329680411
 31
0.0
  0
LINE
  5
636
  8
0
 62
     0
 10
219.86651932434779
 20
132.465483296804
 30
0.0
 11
219.99151932434779
 21
132.465483296804
 31
0.0
  0
LINE
  5
637
  8
0
 62
     0
 10
219.86651932434779
 20
132.58348329680399
 30
0.0
 11
219.99151932434779
 21
132.58348329680399
 31
0.0
  0
LINE
  5
638
  8
0
 62
     0
 10
219.86651932434779
 20
132.70148329680401
 30
0.0
 11
219.99151932434779
 21
132.70148329680401
 31
0.0
  0
LINE
  5
639
  8
0
 62
     0
 10
219.86651932434779
 20
132.81948329680409
 30
0.0
 11
219.99151932434779
 21
132.81948329680409
 31
0.0
  0
LINE
  5
63A
  8
0
 62
     0
 10
219.86651932434779
 20
132.93748329680409
 30
0.0
 11
219.99151932434779
 21
132.93748329680409
 31
0.0
  0
LINE
  5
63B
  8
0
 62
     0
 10
219.86651932434779
 20
133.05548329680411
 30
0.0
 11
219.99151932434779
 21
133.05548329680411
 31
0.0
  0
LINE
  5
63C
  8
0
 62
     0
 10
219.86651932434779
 20
133.17348329680399
 30
0.0
 11
219.99151932434779
 21
133.17348329680399
 31
0.0
  0
LINE
  5
63D
  8
0
 62
     0
 10
219.86651932434779
 20
133.29148329680399
 30
0.0
 11
219.99151932434779
 21
133.29148329680399
 31
0.0
  0
LINE
  5
63E
  8
0
 62
     0
 10
219.86651932434779
 20
133.40948329680401
 30
0.0
 11
219.99151932434779
 21
133.40948329680401
 31
0.0
  0
LINE
  5
63F
  8
0
 62
     0
 10
219.86651932434779
 20
133.52748329680401
 30
0.0
 11
219.99151932434779
 21
133.52748329680401
 31
0.0
  0
LINE
  5
640
  8
0
 62
     0
 10
219.86651932434779
 20
133.64548329680409
 30
0.0
 11
219.99151932434779
 21
133.64548329680409
 31
0.0
  0
LINE
  5
641
  8
0
 62
     0
 10
219.86651932434779
 20
133.763483296804
 30
0.0
 11
219.99151932434779
 21
133.763483296804
 31
0.0
  0
LINE
  5
642
  8
0
 62
     0
 10
219.86651932434779
 20
133.88148329680399
 30
0.0
 11
219.99151932434779
 21
133.88148329680399
 31
0.0
  0
LINE
  5
643
  8
0
 62
     0
 10
219.86651932434779
 20
133.99948329680399
 30
0.0
 11
219.99151932434779
 21
133.99948329680399
 31
0.0
  0
LINE
  5
644
  8
0
 62
     0
 10
219.86651932434779
 20
134.11748329680401
 30
0.0
 11
219.99151932434779
 21
134.11748329680401
 31
0.0
  0
LINE
  5
645
  8
0
 62
     0
 10
219.86651932434779
 20
134.23548329680409
 30
0.0
 11
219.99151932434779
 21
134.23548329680409
 31
0.0
  0
LINE
  5
646
  8
0
 62
     0
 10
219.86651932434779
 20
134.35348329680409
 30
0.0
 11
219.99151932434779
 21
134.35348329680409
 31
0.0
  0
LINE
  5
647
  8
0
 62
     0
 10
219.86651932434779
 20
134.471483296804
 30
0.0
 11
219.99151932434779
 21
134.471483296804
 31
0.0
  0
LINE
  5
648
  8
0
 62
     0
 10
219.86651932434779
 20
134.58948329680399
 30
0.0
 11
219.99151932434779
 21
134.58948329680399
 31
0.0
  0
LINE
  5
649
  8
0
 62
     0
 10
219.86651932434779
 20
134.70748329680401
 30
0.0
 11
219.99151932434779
 21
134.70748329680401
 31
0.0
  0
LINE
  5
64A
  8
0
 62
     0
 10
219.86651932434779
 20
134.82548329680401
 30
0.0
 11
219.99151932434779
 21
134.82548329680401
 31
0.0
  0
LINE
  5
64B
  8
0
 62
     0
 10
219.86651932434779
 20
134.943483296804
 30
0.0
 11
219.99151932434779
 21
134.943483296804
 31
0.0
  0
LINE
  5
64C
  8
0
 62
     0
 10
219.86651932434779
 20
135.06148329680411
 30
0.0
 11
219.99151932434779
 21
135.06148329680411
 31
0.0
  0
LINE
  5
64D
  8
0
 62
     0
 10
219.86651932434779
 20
135.17948329680411
 30
0.0
 11
219.99151932434779
 21
135.17948329680411
 31
0.0
  0
LINE
  5
64E
  8
0
 62
     0
 10
219.86651932434779
 20
135.29748329680399
 30
0.0
 11
219.99151932434779
 21
135.29748329680399
 31
0.0
  0
LINE
  5
64F
  8
0
 62
     0
 10
219.86651932434779
 20
135.41548329680401
 30
0.0
 11
219.99151932434779
 21
135.41548329680401
 31
0.0
  0
LINE
  5
650
  8
0
 62
     0
 10
219.86651932434779
 20
135.53348329680409
 30
0.0
 11
219.99151932434779
 21
135.53348329680409
 31
0.0
  0
LINE
  5
651
  8
0
 62
     0
 10
219.86651932434779
 20
135.65148329680409
 30
0.0
 11
219.99151932434779
 21
135.65148329680409
 31
0.0
  0
LINE
  5
652
  8
0
 62
     0
 10
219.86651932434779
 20
135.76948329680411
 30
0.0
 11
219.99151932434779
 21
135.76948329680411
 31
0.0
  0
LINE
  5
653
  8
0
 62
     0
 10
219.86651932434779
 20
135.88748329680411
 30
0.0
 11
219.99151932434779
 21
135.88748329680411
 31
0.0
  0
LINE
  5
654
  8
0
 62
     0
 10
219.86651932434779
 20
136.0054832968041
 30
0.0
 11
219.99151932434779
 21
136.0054832968041
 31
0.0
  0
LINE
  5
655
  8
0
 62
     0
 10
219.86651932434779
 20
136.12348329680401
 30
0.0
 11
219.99151932434779
 21
136.12348329680401
 31
0.0
  0
LINE
  5
656
  8
0
 62
     0
 10
219.86651932434779
 20
136.24148329680401
 30
0.0
 11
219.99151932434779
 21
136.24148329680401
 31
0.0
  0
LINE
  5
657
  8
0
 62
     0
 10
219.86651932434779
 20
136.35948329680409
 30
0.0
 11
219.99151932434779
 21
136.35948329680409
 31
0.0
  0
LINE
  5
658
  8
0
 62
     0
 10
219.86651932434779
 20
136.47748329680411
 30
0.0
 11
219.99151932434779
 21
136.47748329680411
 31
0.0
  0
LINE
  5
659
  8
0
 62
     0
 10
219.86651932434779
 20
136.5954832968041
 30
0.0
 11
219.99151932434779
 21
136.5954832968041
 31
0.0
  0
LINE
  5
65A
  8
0
 62
     0
 10
219.86651932434779
 20
136.7134832968041
 30
0.0
 11
219.99151932434779
 21
136.7134832968041
 31
0.0
  0
LINE
  5
65B
  8
0
 62
     0
 10
219.86651932434779
 20
136.83148329680409
 30
0.0
 11
219.99151932434779
 21
136.83148329680409
 31
0.0
  0
LINE
  5
65C
  8
0
 62
     0
 10
219.86651932434779
 20
136.94948329680409
 30
0.0
 11
219.99151932434779
 21
136.94948329680409
 31
0.0
  0
LINE
  5
65D
  8
0
 62
     0
 10
219.86651932434779
 20
137.06748329680411
 30
0.0
 11
219.99151932434779
 21
137.06748329680411
 31
0.0
  0
LINE
  5
65E
  8
0
 62
     0
 10
219.86651932434779
 20
137.18548329680411
 30
0.0
 11
219.99151932434779
 21
137.18548329680411
 31
0.0
  0
LINE
  5
65F
  8
0
 62
     0
 10
219.86651932434779
 20
137.3034832968041
 30
0.0
 11
219.99151932434779
 21
137.3034832968041
 31
0.0
  0
LINE
  5
660
  8
0
 62
     0
 10
219.86651932434779
 20
137.4214832968041
 30
0.0
 11
219.99151932434779
 21
137.4214832968041
 31
0.0
  0
LINE
  5
661
  8
0
 62
     0
 10
219.86651932434779
 20
137.53948329680401
 30
0.0
 11
219.99151932434779
 21
137.53948329680401
 31
0.0
  0
LINE
  5
662
  8
0
 62
     0
 10
219.86651932434779
 20
137.65748329680409
 30
0.0
 11
219.99151932434779
 21
137.65748329680409
 31
0.0
  0
LINE
  5
663
  8
0
 62
     0
 10
219.86651932434779
 20
137.77548329680411
 30
0.0
 11
219.99151932434779
 21
137.77548329680411
 31
0.0
  0
LINE
  5
664
  8
0
 62
     0
 10
219.86651932434779
 20
137.89348329680411
 30
0.0
 11
219.99151932434779
 21
137.89348329680411
 31
0.0
  0
LINE
  5
665
  8
0
 62
     0
 10
219.86651932434779
 20
138.0114832968041
 30
0.0
 11
219.99151932434779
 21
138.0114832968041
 31
0.0
  0
LINE
  5
666
  8
0
 62
     0
 10
219.86651932434779
 20
138.12948329680401
 30
0.0
 11
219.99151932434779
 21
138.12948329680401
 31
0.0
  0
LINE
  5
667
  8
0
 62
     0
 10
219.86651932434779
 20
138.24748329680409
 30
0.0
 11
219.99151932434779
 21
138.24748329680409
 31
0.0
  0
LINE
  5
668
  8
0
 62
     0
 10
219.86651932434779
 20
138.36548329680409
 30
0.0
 11
219.99151932434779
 21
138.36548329680409
 31
0.0
  0
LINE
  5
669
  8
0
 62
     0
 10
219.86651932434779
 20
138.48348329680411
 30
0.0
 11
219.99151932434779
 21
138.48348329680411
 31
0.0
  0
LINE
  5
66A
  8
0
 62
     0
 10
219.86651932434779
 20
138.6014832968041
 30
0.0
 11
219.99151932434779
 21
138.6014832968041
 31
0.0
  0
LINE
  5
66B
  8
0
 62
     0
 10
219.86651932434779
 20
138.7194832968041
 30
0.0
 11
219.99151932434779
 21
138.7194832968041
 31
0.0
  0
LINE
  5
66C
  8
0
 62
     0
 10
219.86651932434779
 20
138.83748329680401
 30
0.0
 11
219.99151932434779
 21
138.83748329680401
 31
0.0
  0
LINE
  5
66D
  8
0
 62
     0
 10
219.86651932434779
 20
138.95548329680409
 30
0.0
 11
219.99151932434779
 21
138.95548329680409
 31
0.0
  0
LINE
  5
66E
  8
0
 62
     0
 10
219.86651932434779
 20
139.07348329680411
 30
0.0
 11
219.99151932434779
 21
139.07348329680411
 31
0.0
  0
LINE
  5
66F
  8
0
 62
     0
 10
219.86651932434779
 20
139.19148329680411
 30
0.0
 11
219.99151932434779
 21
139.19148329680411
 31
0.0
  0
LINE
  5
670
  8
0
 62
     0
 10
219.86651932434779
 20
139.3094832968041
 30
0.0
 11
219.99151932434779
 21
139.3094832968041
 31
0.0
  0
LINE
  5
671
  8
0
 62
     0
 10
219.86651932434779
 20
139.4274832968041
 30
0.0
 11
219.99151932434779
 21
139.4274832968041
 31
0.0
  0
LINE
  5
672
  8
0
 62
     0
 10
219.86651932434779
 20
139.54548329680409
 30
0.0
 11
219.99151932434779
 21
139.54548329680409
 31
0.0
  0
LINE
  5
673
  8
0
 62
     0
 10
219.86651932434779
 20
139.66348329680409
 30
0.0
 11
219.99151932434779
 21
139.66348329680409
 31
0.0
  0
LINE
  5
674
  8
0
 62
     0
 10
219.86651932434779
 20
139.78148329680411
 30
0.0
 11
219.99151932434779
 21
139.78148329680411
 31
0.0
  0
LINE
  5
675
  8
0
 62
     0
 10
219.86651932434779
 20
139.89948329680411
 30
0.0
 11
219.99151932434779
 21
139.89948329680411
 31
0.0
  0
LINE
  5
676
  8
0
 62
     0
 10
219.86651932434779
 20
140.0174832968041
 30
0.0
 11
219.99151932434779
 21
140.0174832968041
 31
0.0
  0
LINE
  5
677
  8
0
 62
     0
 10
219.86651932434779
 20
140.13548329680401
 30
0.0
 11
219.99151932434779
 21
140.13548329680401
 31
0.0
  0
LINE
  5
678
  8
0
 62
     0
 10
219.86651932434779
 20
140.25348329680401
 30
0.0
 11
219.99151932434779
 21
140.25348329680401
 31
0.0
  0
LINE
  5
679
  8
0
 62
     0
 10
219.86651932434779
 20
140.37148329680409
 30
0.0
 11
219.99151932434779
 21
140.37148329680409
 31
0.0
  0
LINE
  5
67A
  8
0
 62
     0
 10
219.86651932434779
 20
140.48948329680411
 30
0.0
 11
219.99151932434779
 21
140.48948329680411
 31
0.0
  0
LINE
  5
67B
  8
0
 62
     0
 10
219.86651932434779
 20
140.60748329680411
 30
0.0
 11
219.99151932434779
 21
140.60748329680411
 31
0.0
  0
LINE
  5
67C
  8
0
 62
     0
 10
219.86651932434779
 20
140.7254832968041
 30
0.0
 11
219.99151932434779
 21
140.7254832968041
 31
0.0
  0
LINE
  5
67D
  8
0
 62
     0
 10
219.86651932434779
 20
140.84348329680401
 30
0.0
 11
219.99151932434779
 21
140.84348329680401
 31
0.0
  0
LINE
  5
67E
  8
0
 62
     0
 10
219.86651932434779
 20
140.96148329680409
 30
0.0
 11
219.99151932434779
 21
140.96148329680409
 31
0.0
  0
LINE
  5
67F
  8
0
 62
     0
 10
219.86651932434779
 20
141.07948329680411
 30
0.0
 11
219.99151932434779
 21
141.07948329680411
 31
0.0
  0
LINE
  5
680
  8
0
 62
     0
 10
219.86651932434779
 20
141.19748329680411
 30
0.0
 11
219.99151932434779
 21
141.19748329680411
 31
0.0
  0
LINE
  5
681
  8
0
 62
     0
 10
219.86651932434779
 20
141.31548329680399
 30
0.0
 11
219.99151932434779
 21
141.31548329680399
 31
0.0
  0
LINE
  5
682
  8
0
 62
     0
 10
219.86651932434779
 20
141.43348329680401
 30
0.0
 11
219.99151932434779
 21
141.43348329680401
 31
0.0
  0
LINE
  5
683
  8
0
 62
     0
 10
219.86651932434779
 20
141.55148329680401
 30
0.0
 11
219.99151932434779
 21
141.55148329680401
 31
0.0
  0
LINE
  5
684
  8
0
 62
     0
 10
219.86651932434779
 20
141.66948329680409
 30
0.0
 11
219.99151932434779
 21
141.66948329680409
 31
0.0
  0
LINE
  5
685
  8
0
 62
     0
 10
219.86651932434779
 20
141.78748329680411
 30
0.0
 11
219.99151932434779
 21
141.78748329680411
 31
0.0
  0
LINE
  5
686
  8
0
 62
     0
 10
219.86651932434779
 20
141.90548329680411
 30
0.0
 11
219.99151932434779
 21
141.90548329680411
 31
0.0
  0
LINE
  5
687
  8
0
 62
     0
 10
219.86651932434779
 20
142.02348329680399
 30
0.0
 11
219.99151932434779
 21
142.02348329680399
 31
0.0
  0
LINE
  5
688
  8
0
 62
     0
 10
219.86651932434779
 20
142.14148329680401
 30
0.0
 11
219.99151932434779
 21
142.14148329680401
 31
0.0
  0
LINE
  5
689
  8
0
 62
     0
 10
219.86651932434779
 20
142.25948329680409
 30
0.0
 11
219.99151932434779
 21
142.25948329680409
 31
0.0
  0
LINE
  5
68A
  8
0
 62
     0
 10
219.86651932434779
 20
142.37748329680409
 30
0.0
 11
219.99151932434779
 21
142.37748329680409
 31
0.0
  0
LINE
  5
68B
  8
0
 62
     0
 10
219.86651932434779
 20
142.495483296804
 30
0.0
 11
219.99151932434779
 21
142.495483296804
 31
0.0
  0
LINE
  5
68C
  8
0
 62
     0
 10
219.86651932434779
 20
142.61348329680399
 30
0.0
 11
219.99151932434779
 21
142.61348329680399
 31
0.0
  0
LINE
  5
68D
  8
0
 62
     0
 10
219.86651932434779
 20
142.7314832968041
 30
0.0
 11
219.99151932434779
 21
142.7314832968041
 31
0.0
  0
LINE
  5
68E
  8
0
 62
     0
 10
219.86651932434779
 20
142.84948329680401
 30
0.0
 11
219.99151932434779
 21
142.84948329680401
 31
0.0
  0
LINE
  5
68F
  8
0
 62
     0
 10
219.86651932434779
 20
142.96748329680409
 30
0.0
 11
219.99151932434779
 21
142.96748329680409
 31
0.0
  0
LINE
  5
690
  8
0
 62
     0
 10
219.86651932434779
 20
143.08548329680411
 30
0.0
 11
219.99151932434779
 21
143.08548329680411
 31
0.0
  0
LINE
  5
691
  8
0
 62
     0
 10
219.86651932434779
 20
143.20348329680411
 30
0.0
 11
219.99151932434779
 21
143.20348329680411
 31
0.0
  0
LINE
  5
692
  8
0
 62
     0
 10
219.86651932434779
 20
143.32148329680399
 30
0.0
 11
219.99151932434779
 21
143.32148329680399
 31
0.0
  0
LINE
  5
693
  8
0
 62
     0
 10
219.86651932434779
 20
143.43948329680401
 30
0.0
 11
219.99151932434779
 21
143.43948329680401
 31
0.0
  0
LINE
  5
694
  8
0
 62
     0
 10
219.86651932434779
 20
143.55748329680409
 30
0.0
 11
219.99151932434779
 21
143.55748329680409
 31
0.0
  0
LINE
  5
695
  8
0
 62
     0
 10
219.86651932434779
 20
143.67548329680409
 30
0.0
 11
219.99151932434779
 21
143.67548329680409
 31
0.0
  0
LINE
  5
696
  8
0
 62
     0
 10
219.86651932434779
 20
143.79348329680411
 30
0.0
 11
219.99151932434779
 21
143.79348329680411
 31
0.0
  0
LINE
  5
697
  8
0
 62
     0
 10
219.86651932434779
 20
143.91148329680411
 30
0.0
 11
219.99151932434779
 21
143.91148329680411
 31
0.0
  0
LINE
  5
698
  8
0
 62
     0
 10
219.86651932434779
 20
144.02948329680399
 30
0.0
 11
219.99151932434779
 21
144.02948329680399
 31
0.0
  0
LINE
  5
699
  8
0
 62
     0
 10
219.86651932434779
 20
144.14748329680401
 30
0.0
 11
219.99151932434779
 21
144.14748329680401
 31
0.0
  0
LINE
  5
69A
  8
0
 62
     0
 10
219.86651932434779
 20
144.26548329680401
 30
0.0
 11
219.99151932434779
 21
144.26548329680401
 31
0.0
  0
LINE
  5
69B
  8
0
 62
     0
 10
219.86651932434779
 20
144.38348329680409
 30
0.0
 11
219.99151932434779
 21
144.38348329680409
 31
0.0
  0
LINE
  5
69C
  8
0
 62
     0
 10
219.86651932434779
 20
144.501483296804
 30
0.0
 11
219.99151932434779
 21
144.501483296804
 31
0.0
  0
LINE
  5
69D
  8
0
 62
     0
 10
219.86651932434779
 20
144.61948329680399
 30
0.0
 11
219.99151932434779
 21
144.61948329680399
 31
0.0
  0
LINE
  5
69E
  8
0
 62
     0
 10
219.86651932434779
 20
144.73748329680399
 30
0.0
 11
219.99151932434779
 21
144.73748329680399
 31
0.0
  0
LINE
  5
69F
  8
0
 62
     0
 10
219.86651932434779
 20
144.85548329680401
 30
0.0
 11
219.99151932434779
 21
144.85548329680401
 31
0.0
  0
LINE
  5
6A0
  8
0
 62
     0
 10
219.86651932434779
 20
144.97348329680409
 30
0.0
 11
219.99151932434779
 21
144.97348329680409
 31
0.0
  0
LINE
  5
6A1
  8
0
 62
     0
 10
219.86651932434779
 20
145.09148329680411
 30
0.0
 11
219.99151932434779
 21
145.09148329680411
 31
0.0
  0
LINE
  5
6A2
  8
0
 62
     0
 10
219.86651932434779
 20
145.209483296804
 30
0.0
 11
219.99151932434779
 21
145.209483296804
 31
0.0
  0
LINE
  5
6A3
  8
0
 62
     0
 10
219.86651932434779
 20
145.32748329680399
 30
0.0
 11
219.99151932434779
 21
145.32748329680399
 31
0.0
  0
LINE
  5
6A4
  8
0
 62
     0
 10
219.86651932434779
 20
145.44548329680401
 30
0.0
 11
219.99151932434779
 21
145.44548329680401
 31
0.0
  0
LINE
  5
6A5
  8
0
 62
     0
 10
219.86651932434779
 20
145.56348329680401
 30
0.0
 11
219.99151932434779
 21
145.56348329680401
 31
0.0
  0
LINE
  5
6A6
  8
0
 62
     0
 10
219.86651932434779
 20
145.681483296804
 30
0.0
 11
219.99151932434779
 21
145.681483296804
 31
0.0
  0
LINE
  5
6A7
  8
0
 62
     0
 10
219.86651932434779
 20
145.799483296804
 30
0.0
 11
219.99151932434779
 21
145.799483296804
 31
0.0
  0
LINE
  5
6A8
  8
0
 62
     0
 10
219.86651932434779
 20
145.91748329680411
 30
0.0
 11
219.99151932434779
 21
145.91748329680411
 31
0.0
  0
LINE
  5
6A9
  8
0
 62
     0
 10
219.86651932434779
 20
146.03548329680399
 30
0.0
 11
219.99151932434779
 21
146.03548329680399
 31
0.0
  0
LINE
  5
6AA
  8
0
 62
     0
 10
219.86651932434779
 20
146.15348329680401
 30
0.0
 11
219.99151932434779
 21
146.15348329680401
 31
0.0
  0
LINE
  5
6AB
  8
0
 62
     0
 10
219.86651932434779
 20
146.27148329680409
 30
0.0
 11
219.99151932434779
 21
146.27148329680409
 31
0.0
  0
LINE
  5
6AC
  8
0
 62
     0
 10
219.86651932434779
 20
146.38948329680409
 30
0.0
 11
219.99151932434779
 21
146.38948329680409
 31
0.0
  0
LINE
  5
6AD
  8
0
 62
     0
 10
219.86651932434779
 20
146.507483296804
 30
0.0
 11
219.99151932434779
 21
146.507483296804
 31
0.0
  0
LINE
  5
6AE
  8
0
 62
     0
 10
219.86651932434779
 20
146.62548329680399
 30
0.0
 11
219.99151932434779
 21
146.62548329680399
 31
0.0
  0
LINE
  5
6AF
  8
0
 62
     0
 10
219.86651932434779
 20
146.74348329680399
 30
0.0
 11
219.99151932434779
 21
146.74348329680399
 31
0.0
  0
LINE
  5
6B0
  8
0
 62
     0
 10
219.86651932434779
 20
146.86148329680401
 30
0.0
 11
219.99151932434779
 21
146.86148329680401
 31
0.0
  0
LINE
  5
6B1
  8
0
 62
     0
 10
219.86651932434779
 20
146.97948329680409
 30
0.0
 11
219.99151932434779
 21
146.97948329680409
 31
0.0
  0
LINE
  5
6B2
  8
0
 62
     0
 10
219.86651932434779
 20
147.09748329680411
 30
0.0
 11
219.99151932434779
 21
147.09748329680411
 31
0.0
  0
LINE
  5
6B3
  8
0
 62
     0
 10
219.86651932434779
 20
147.215483296804
 30
0.0
 11
219.99151932434779
 21
147.215483296804
 31
0.0
  0
LINE
  5
6B4
  8
0
 62
     0
 10
219.86651932434779
 20
147.33348329680399
 30
0.0
 11
219.99151932434779
 21
147.33348329680399
 31
0.0
  0
LINE
  5
6B5
  8
0
 62
     0
 10
219.86651932434779
 20
147.45148329680401
 30
0.0
 11
219.99151932434779
 21
147.45148329680401
 31
0.0
  0
LINE
  5
6B6
  8
0
 62
     0
 10
219.86651932434779
 20
147.56948329680409
 30
0.0
 11
219.99151932434779
 21
147.56948329680409
 31
0.0
  0
LINE
  5
6B7
  8
0
 62
     0
 10
219.86651932434779
 20
147.68748329680409
 30
0.0
 11
219.99151932434779
 21
147.68748329680409
 31
0.0
  0
LINE
  5
6B8
  8
0
 62
     0
 10
219.86651932434779
 20
147.80548329680411
 30
0.0
 11
219.99151932434779
 21
147.80548329680411
 31
0.0
  0
LINE
  5
6B9
  8
0
 62
     0
 10
219.86651932434779
 20
147.92348329680411
 30
0.0
 11
219.99151932434779
 21
147.92348329680411
 31
0.0
  0
LINE
  5
6BA
  8
0
 62
     0
 10
219.86651932434779
 20
148.04148329680399
 30
0.0
 11
219.99151932434779
 21
148.04148329680399
 31
0.0
  0
LINE
  5
6BB
  8
0
 62
     0
 10
219.86651932434779
 20
148.15948329680401
 30
0.0
 11
219.99151932434779
 21
148.15948329680401
 31
0.0
  0
LINE
  5
6BC
  8
0
 62
     0
 10
219.86651932434779
 20
148.27748329680401
 30
0.0
 11
219.99151932434779
 21
148.27748329680401
 31
0.0
  0
LINE
  5
6BD
  8
0
 62
     0
 10
219.86651932434779
 20
148.39548329680409
 30
0.0
 11
219.99151932434779
 21
148.39548329680409
 31
0.0
  0
LINE
  5
6BE
  8
0
 62
     0
 10
219.86651932434779
 20
148.51348329680411
 30
0.0
 11
219.99151932434779
 21
148.51348329680411
 31
0.0
  0
LINE
  5
6BF
  8
0
 62
     0
 10
219.86651932434779
 20
148.63148329680411
 30
0.0
 11
219.99151932434779
 21
148.63148329680411
 31
0.0
  0
LINE
  5
6C0
  8
0
 62
     0
 10
219.86651932434779
 20
148.7494832968041
 30
0.0
 11
219.99151932434779
 21
148.7494832968041
 31
0.0
  0
LINE
  5
6C1
  8
0
 62
     0
 10
219.86651932434779
 20
148.86748329680401
 30
0.0
 11
219.99151932434779
 21
148.86748329680401
 31
0.0
  0
LINE
  5
6C2
  8
0
 62
     0
 10
219.86651932434779
 20
148.98548329680409
 30
0.0
 11
219.99151932434779
 21
148.98548329680409
 31
0.0
  0
LINE
  5
6C3
  8
0
 62
     0
 10
219.86651932434779
 20
149.10348329680409
 30
0.0
 11
219.99151932434779
 21
149.10348329680409
 31
0.0
  0
LINE
  5
6C4
  8
0
 62
     0
 10
219.86651932434779
 20
149.22148329680411
 30
0.0
 11
219.99151932434779
 21
149.22148329680411
 31
0.0
  0
LINE
  5
6C5
  8
0
 62
     0
 10
219.86651932434779
 20
149.3394832968041
 30
0.0
 11
219.99151932434779
 21
149.3394832968041
 31
0.0
  0
LINE
  5
6C6
  8
0
 62
     0
 10
219.86651932434779
 20
149.4574832968041
 30
0.0
 11
219.99151932434779
 21
149.4574832968041
 31
0.0
  0
LINE
  5
6C7
  8
0
 62
     0
 10
219.86651932434779
 20
149.57548329680409
 30
0.0
 11
219.99151932434779
 21
149.57548329680409
 31
0.0
  0
LINE
  5
6C8
  8
0
 62
     0
 10
219.86651932434779
 20
149.69348329680409
 30
0.0
 11
219.99151932434779
 21
149.69348329680409
 31
0.0
  0
LINE
  5
6C9
  8
0
 62
     0
 10
219.86651932434779
 20
149.81148329680411
 30
0.0
 11
219.99151932434779
 21
149.81148329680411
 31
0.0
  0
LINE
  5
6CA
  8
0
 62
     0
 10
219.86651932434779
 20
149.92948329680411
 30
0.0
 11
219.99151932434779
 21
149.92948329680411
 31
0.0
  0
LINE
  5
6CB
  8
0
 62
     0
 10
219.86651932434779
 20
150.0474832968041
 30
0.0
 11
219.99151932434779
 21
150.0474832968041
 31
0.0
  0
LINE
  5
6CC
  8
0
 62
     0
 10
219.86651932434779
 20
150.1654832968041
 30
0.0
 11
219.99151932434779
 21
150.1654832968041
 31
0.0
  0
LINE
  5
6CD
  8
0
 62
     0
 10
219.86651932434779
 20
150.28348329680409
 30
0.0
 11
219.99151932434779
 21
150.28348329680409
 31
0.0
  0
LINE
  5
6CE
  8
0
 62
     0
 10
219.86651932434779
 20
150.40148329680409
 30
0.0
 11
219.99151932434779
 21
150.40148329680409
 31
0.0
  0
LINE
  5
6CF
  8
0
 62
     0
 10
219.86651932434779
 20
150.51948329680411
 30
0.0
 11
219.99151932434779
 21
150.51948329680411
 31
0.0
  0
LINE
  5
6D0
  8
0
 62
     0
 10
219.86651932434779
 20
150.63748329680411
 30
0.0
 11
219.99151932434779
 21
150.63748329680411
 31
0.0
  0
LINE
  5
6D1
  8
0
 62
     0
 10
219.86651932434779
 20
150.7554832968041
 30
0.0
 11
219.99151932434779
 21
150.7554832968041
 31
0.0
  0
LINE
  5
6D2
  8
0
 62
     0
 10
219.86651932434779
 20
150.87348329680401
 30
0.0
 11
219.99151932434779
 21
150.87348329680401
 31
0.0
  0
LINE
  5
6D3
  8
0
 62
     0
 10
219.86651932434779
 20
150.99148329680409
 30
0.0
 11
219.99151932434779
 21
150.99148329680409
 31
0.0
  0
LINE
  5
6D4
  8
0
 62
     0
 10
219.86651932434779
 20
151.10948329680409
 30
0.0
 11
219.99151932434779
 21
151.10948329680409
 31
0.0
  0
LINE
  5
6D5
  8
0
 62
     0
 10
219.86651932434779
 20
151.22748329680411
 30
0.0
 11
219.99151932434779
 21
151.22748329680411
 31
0.0
  0
LINE
  5
6D6
  8
0
 62
     0
 10
219.86651932434779
 20
151.3454832968041
 30
0.0
 11
219.99151932434779
 21
151.3454832968041
 31
0.0
  0
LINE
  5
6D7
  8
0
 62
     0
 10
219.86651932434779
 20
151.4634832968041
 30
0.0
 11
219.99151932434779
 21
151.4634832968041
 31
0.0
  0
LINE
  5
6D8
  8
0
 62
     0
 10
219.86651932434779
 20
151.58148329680409
 30
0.0
 11
219.99151932434779
 21
151.58148329680409
 31
0.0
  0
LINE
  5
6D9
  8
0
 62
     0
 10
219.86651932434779
 20
151.69948329680409
 30
0.0
 11
219.99151932434779
 21
151.69948329680409
 31
0.0
  0
LINE
  5
6DA
  8
0
 62
     0
 10
219.86651932434779
 20
151.81748329680411
 30
0.0
 11
219.99151932434779
 21
151.81748329680411
 31
0.0
  0
LINE
  5
6DB
  8
0
 62
     0
 10
219.86651932434779
 20
151.93548329680411
 30
0.0
 11
219.99151932434779
 21
151.93548329680411
 31
0.0
  0
LINE
  5
6DC
  8
0
 62
     0
 10
219.86651932434779
 20
152.05348329680399
 30
0.0
 11
219.99151932434779
 21
152.05348329680399
 31
0.0
  0
LINE
  5
6DD
  8
0
 62
     0
 10
219.86651932434779
 20
152.17148329680401
 30
0.0
 11
219.99151932434779
 21
152.17148329680401
 31
0.0
  0
LINE
  5
6DE
  8
0
 62
     0
 10
219.86651932434779
 20
152.28948329680409
 30
0.0
 11
219.99151932434779
 21
152.28948329680409
 31
0.0
  0
LINE
  5
6DF
  8
0
 62
     0
 10
219.86651932434779
 20
152.40748329680409
 30
0.0
 11
219.99151932434779
 21
152.40748329680409
 31
0.0
  0
LINE
  5
6E0
  8
0
 62
     0
 10
219.86651932434779
 20
152.52548329680411
 30
0.0
 11
219.99151932434779
 21
152.52548329680411
 31
0.0
  0
LINE
  5
6E1
  8
0
 62
     0
 10
219.86651932434779
 20
152.64348329680411
 30
0.0
 11
219.99151932434779
 21
152.64348329680411
 31
0.0
  0
LINE
  5
6E2
  8
0
 62
     0
 10
219.86651932434779
 20
152.7614832968041
 30
0.0
 11
219.99151932434779
 21
152.7614832968041
 31
0.0
  0
LINE
  5
6E3
  8
0
 62
     0
 10
219.86651932434779
 20
152.87948329680401
 30
0.0
 11
219.99151932434779
 21
152.87948329680401
 31
0.0
  0
LINE
  5
6E4
  8
0
 62
     0
 10
219.86651932434779
 20
152.99748329680409
 30
0.0
 11
219.99151932434779
 21
152.99748329680409
 31
0.0
  0
LINE
  5
6E5
  8
0
 62
     0
 10
219.86651932434779
 20
153.11548329680409
 30
0.0
 11
219.99151932434779
 21
153.11548329680409
 31
0.0
  0
LINE
  5
6E6
  8
0
 62
     0
 10
219.86651932434779
 20
153.23348329680411
 30
0.0
 11
219.99151932434779
 21
153.23348329680411
 31
0.0
  0
LINE
  5
6E7
  8
0
 62
     0
 10
219.86651932434779
 20
153.3514832968041
 30
0.0
 11
219.99151932434779
 21
153.3514832968041
 31
0.0
  0
LINE
  5
6E8
  8
0
 62
     0
 10
219.86651932434779
 20
153.4694832968041
 30
0.0
 11
219.99151932434779
 21
153.4694832968041
 31
0.0
  0
LINE
  5
6E9
  8
0
 62
     0
 10
219.86651932434779
 20
153.58748329680401
 30
0.0
 11
219.99151932434779
 21
153.58748329680401
 31
0.0
  0
LINE
  5
6EA
  8
0
 62
     0
 10
219.86651932434779
 20
153.70548329680409
 30
0.0
 11
219.99151932434779
 21
153.70548329680409
 31
0.0
  0
LINE
  5
6EB
  8
0
 62
     0
 10
219.86651932434779
 20
153.82348329680411
 30
0.0
 11
219.99151932434779
 21
153.82348329680411
 31
0.0
  0
LINE
  5
6EC
  8
0
 62
     0
 10
219.86651932434779
 20
153.94148329680411
 30
0.0
 11
219.99151932434779
 21
153.94148329680411
 31
0.0
  0
LINE
  5
6ED
  8
0
 62
     0
 10
219.86651932434779
 20
154.05948329680399
 30
0.0
 11
219.99151932434779
 21
154.05948329680399
 31
0.0
  0
LINE
  5
6EE
  8
0
 62
     0
 10
219.86651932434779
 20
154.17748329680401
 30
0.0
 11
219.99151932434779
 21
154.17748329680401
 31
0.0
  0
LINE
  5
6EF
  8
0
 62
     0
 10
219.86651932434779
 20
154.29548329680409
 30
0.0
 11
219.99151932434779
 21
154.29548329680409
 31
0.0
  0
LINE
  5
6F0
  8
0
 62
     0
 10
219.86651932434779
 20
154.41348329680409
 30
0.0
 11
219.99151932434779
 21
154.41348329680409
 31
0.0
  0
LINE
  5
6F1
  8
0
 62
     0
 10
219.86651932434779
 20
154.53148329680411
 30
0.0
 11
219.99151932434779
 21
154.53148329680411
 31
0.0
  0
LINE
  5
6F2
  8
0
 62
     0
 10
219.86651932434779
 20
154.64948329680411
 30
0.0
 11
219.99151932434779
 21
154.64948329680411
 31
0.0
  0
LINE
  5
6F3
  8
0
 62
     0
 10
219.86651932434779
 20
154.76748329680399
 30
0.0
 11
219.99151932434779
 21
154.76748329680399
 31
0.0
  0
LINE
  5
6F4
  8
0
 62
     0
 10
219.86651932434779
 20
154.88548329680401
 30
0.0
 11
219.99151932434779
 21
154.88548329680401
 31
0.0
  0
LINE
  5
6F5
  8
0
 62
     0
 10
219.86651932434779
 20
155.00348329680409
 30
0.0
 11
219.99151932434779
 21
155.00348329680409
 31
0.0
  0
LINE
  5
6F6
  8
0
 62
     0
 10
219.86651932434779
 20
155.12148329680409
 30
0.0
 11
219.99151932434779
 21
155.12148329680409
 31
0.0
  0
LINE
  5
6F7
  8
0
 62
     0
 10
219.86651932434779
 20
155.239483296804
 30
0.0
 11
219.99151932434779
 21
155.239483296804
 31
0.0
  0
LINE
  5
6F8
  8
0
 62
     0
 10
219.86651932434779
 20
155.35748329680399
 30
0.0
 11
219.99151932434779
 21
155.35748329680399
 31
0.0
  0
LINE
  5
6F9
  8
0
 62
     0
 10
219.86651932434779
 20
155.4754832968041
 30
0.0
 11
219.99151932434779
 21
155.4754832968041
 31
0.0
  0
LINE
  5
6FA
  8
0
 62
     0
 10
219.86651932434779
 20
155.59348329680401
 30
0.0
 11
219.99151932434779
 21
155.59348329680401
 31
0.0
  0
LINE
  5
6FB
  8
0
 62
     0
 10
219.86651932434779
 20
155.71148329680409
 30
0.0
 11
219.99151932434779
 21
155.71148329680409
 31
0.0
  0
LINE
  5
6FC
  8
0
 62
     0
 10
219.86651932434779
 20
155.82948329680411
 30
0.0
 11
219.99151932434779
 21
155.82948329680411
 31
0.0
  0
LINE
  5
6FD
  8
0
 62
     0
 10
219.86651932434779
 20
155.94748329680411
 30
0.0
 11
219.99151932434779
 21
155.94748329680411
 31
0.0
  0
LINE
  5
6FE
  8
0
 62
     0
 10
219.86651932434779
 20
156.06548329680399
 30
0.0
 11
219.99151932434779
 21
156.06548329680399
 31
0.0
  0
LINE
  5
6FF
  8
0
 62
     0
 10
219.86651932434779
 20
156.18348329680401
 30
0.0
 11
219.99151932434779
 21
156.18348329680401
 31
0.0
  0
LINE
  5
700
  8
0
 62
     0
 10
219.86651932434779
 20
156.30148329680401
 30
0.0
 11
219.99151932434779
 21
156.30148329680401
 31
0.0
  0
LINE
  5
701
  8
0
 62
     0
 10
219.86651932434779
 20
156.41948329680409
 30
0.0
 11
219.99151932434779
 21
156.41948329680409
 31
0.0
  0
LINE
  5
702
  8
0
 62
     0
 10
219.86651932434779
 20
156.53748329680411
 30
0.0
 11
219.99151932434779
 21
156.53748329680411
 31
0.0
  0
LINE
  5
703
  8
0
 62
     0
 10
219.86651932434779
 20
156.65548329680411
 30
0.0
 11
219.99151932434779
 21
156.65548329680411
 31
0.0
  0
LINE
  5
704
  8
0
 62
     0
 10
219.86651932434779
 20
156.77348329680399
 30
0.0
 11
219.99151932434779
 21
156.77348329680399
 31
0.0
  0
LINE
  5
705
  8
0
 62
     0
 10
219.86651932434779
 20
156.89148329680401
 30
0.0
 11
219.99151932434779
 21
156.89148329680401
 31
0.0
  0
LINE
  5
706
  8
0
 62
     0
 10
219.86651932434779
 20
157.00948329680409
 30
0.0
 11
219.99151932434779
 21
157.00948329680409
 31
0.0
  0
LINE
  5
707
  8
0
 62
     0
 10
219.86651932434779
 20
157.12748329680409
 30
0.0
 11
219.99151932434779
 21
157.12748329680409
 31
0.0
  0
LINE
  5
708
  8
0
 62
     0
 10
219.86651932434779
 20
157.245483296804
 30
0.0
 11
219.99151932434779
 21
157.245483296804
 31
0.0
  0
LINE
  5
709
  8
0
 62
     0
 10
219.86651932434779
 20
157.36348329680399
 30
0.0
 11
219.99151932434779
 21
157.36348329680399
 31
0.0
  0
LINE
  5
70A
  8
0
 62
     0
 10
219.86651932434779
 20
157.48148329680399
 30
0.0
 11
219.99151932434779
 21
157.48148329680399
 31
0.0
  0
LINE
  5
70B
  8
0
 62
     0
 10
219.86651932434779
 20
157.59948329680401
 30
0.0
 11
219.99151932434779
 21
157.59948329680401
 31
0.0
  0
LINE
  5
70C
  8
0
 62
     0
 10
219.86651932434779
 20
157.71748329680409
 30
0.0
 11
219.99151932434779
 21
157.71748329680409
 31
0.0
  0
LINE
  5
70D
  8
0
 62
     0
 10
219.86651932434779
 20
157.83548329680411
 30
0.0
 11
219.99151932434779
 21
157.83548329680411
 31
0.0
  0
LINE
  5
70E
  8
0
 62
     0
 10
219.86651932434779
 20
157.953483296804
 30
0.0
 11
219.99151932434779
 21
157.953483296804
 31
0.0
  0
LINE
  5
70F
  8
0
 62
     0
 10
219.86651932434779
 20
158.07148329680399
 30
0.0
 11
219.99151932434779
 21
158.07148329680399
 31
0.0
  0
LINE
  5
710
  8
0
 62
     0
 10
219.86651932434779
 20
158.18948329680401
 30
0.0
 11
219.99151932434779
 21
158.18948329680401
 31
0.0
  0
LINE
  5
711
  8
0
 62
     0
 10
219.86651932434779
 20
158.30748329680409
 30
0.0
 11
219.99151932434779
 21
158.30748329680409
 31
0.0
  0
LINE
  5
712
  8
0
 62
     0
 10
219.86651932434779
 20
158.425483296804
 30
0.0
 11
219.99151932434779
 21
158.425483296804
 31
0.0
  0
LINE
  5
713
  8
0
 62
     0
 10
219.86651932434779
 20
158.543483296804
 30
0.0
 11
219.99151932434779
 21
158.543483296804
 31
0.0
  0
LINE
  5
714
  8
0
 62
     0
 10
219.86651932434779
 20
158.66148329680411
 30
0.0
 11
219.99151932434779
 21
158.66148329680411
 31
0.0
  0
LINE
  5
715
  8
0
 62
     0
 10
219.86651932434779
 20
158.77948329680399
 30
0.0
 11
219.99151932434779
 21
158.77948329680399
 31
0.0
  0
LINE
  5
716
  8
0
 62
     0
 10
219.86651932434779
 20
158.89748329680401
 30
0.0
 11
219.99151932434779
 21
158.89748329680401
 31
0.0
  0
LINE
  5
717
  8
0
 62
     0
 10
219.86651932434779
 20
159.01548329680409
 30
0.0
 11
219.99151932434779
 21
159.01548329680409
 31
0.0
  0
LINE
  5
718
  8
0
 62
     0
 10
219.86651932434779
 20
159.13348329680409
 30
0.0
 11
219.99151932434779
 21
159.13348329680409
 31
0.0
  0
LINE
  5
719
  8
0
 62
     0
 10
219.86651932434779
 20
159.251483296804
 30
0.0
 11
219.99151932434779
 21
159.251483296804
 31
0.0
  0
LINE
  5
71A
  8
0
 62
     0
 10
219.86651932434779
 20
159.36948329680399
 30
0.0
 11
219.99151932434779
 21
159.36948329680399
 31
0.0
  0
LINE
  5
71B
  8
0
 62
     0
 10
219.86651932434779
 20
159.48748329680399
 30
0.0
 11
219.99151932434779
 21
159.48748329680399
 31
0.0
  0
LINE
  5
71C
  8
0
 62
     0
 10
219.86651932434779
 20
159.60548329680401
 30
0.0
 11
219.99151932434779
 21
159.60548329680401
 31
0.0
  0
LINE
  5
71D
  8
0
 62
     0
 10
219.86651932434779
 20
159.72348329680409
 30
0.0
 11
219.99151932434779
 21
159.72348329680409
 31
0.0
  0
LINE
  5
71E
  8
0
 62
     0
 10
219.86651932434779
 20
159.84148329680411
 30
0.0
 11
219.99151932434779
 21
159.84148329680411
 31
0.0
  0
LINE
  5
71F
  8
0
 62
     0
 10
219.86651932434779
 20
159.95948329680411
 30
0.0
 11
219.99151932434779
 21
159.95948329680411
 31
0.0
  0
LINE
  5
720
  8
0
 62
     0
 10
219.86651932434779
 20
160.07748329680399
 30
0.0
 11
219.99151932434779
 21
160.07748329680399
 31
0.0
  0
LINE
  5
721
  8
0
 62
     0
 10
219.86651932434779
 20
160.19548329680401
 30
0.0
 11
219.99151932434779
 21
160.19548329680401
 31
0.0
  0
LINE
  5
722
  8
0
 62
     0
 10
219.86651932434779
 20
160.31348329680401
 30
0.0
 11
219.99151932434779
 21
160.31348329680401
 31
0.0
  0
LINE
  5
723
  8
0
 62
     0
 10
219.86651932434779
 20
160.43148329680409
 30
0.0
 11
219.99151932434779
 21
160.43148329680409
 31
0.0
  0
LINE
  5
724
  8
0
 62
     0
 10
219.86651932434779
 20
160.54948329680411
 30
0.0
 11
219.99151932434779
 21
160.54948329680411
 31
0.0
  0
LINE
  5
725
  8
0
 62
     0
 10
219.86651932434779
 20
160.66748329680411
 30
0.0
 11
219.99151932434779
 21
160.66748329680411
 31
0.0
  0
LINE
  5
726
  8
0
 62
     0
 10
219.86651932434779
 20
160.7854832968041
 30
0.0
 11
219.99151932434779
 21
160.7854832968041
 31
0.0
  0
LINE
  5
727
  8
0
 62
     0
 10
219.86651932434779
 20
160.90348329680401
 30
0.0
 11
219.99151932434779
 21
160.90348329680401
 31
0.0
  0
LINE
  5
728
  8
0
 62
     0
 10
219.86651932434779
 20
161.02148329680409
 30
0.0
 11
219.99151932434779
 21
161.02148329680409
 31
0.0
  0
LINE
  5
729
  8
0
 62
     0
 10
219.86651932434779
 20
161.13948329680409
 30
0.0
 11
219.99151932434779
 21
161.13948329680409
 31
0.0
  0
LINE
  5
72A
  8
0
 62
     0
 10
219.86651932434779
 20
161.25748329680411
 30
0.0
 11
219.99151932434779
 21
161.25748329680411
 31
0.0
  0
LINE
  5
72B
  8
0
 62
     0
 10
219.86651932434779
 20
161.37548329680411
 30
0.0
 11
219.99151932434779
 21
161.37548329680411
 31
0.0
  0
LINE
  5
72C
  8
0
 62
     0
 10
219.86651932434779
 20
161.4934832968041
 30
0.0
 11
219.99151932434779
 21
161.4934832968041
 31
0.0
  0
LINE
  5
72D
  8
0
 62
     0
 10
219.86651932434779
 20
161.61148329680401
 30
0.0
 11
219.99151932434779
 21
161.61148329680401
 31
0.0
  0
LINE
  5
72E
  8
0
 62
     0
 10
219.86651932434779
 20
161.72948329680409
 30
0.0
 11
219.99151932434779
 21
161.72948329680409
 31
0.0
  0
LINE
  5
72F
  8
0
 62
     0
 10
219.86651932434779
 20
161.84748329680411
 30
0.0
 11
219.99151932434779
 21
161.84748329680411
 31
0.0
  0
LINE
  5
730
  8
0
 62
     0
 10
219.86651932434779
 20
161.96548329680411
 30
0.0
 11
219.99151932434779
 21
161.96548329680411
 31
0.0
  0
LINE
  5
731
  8
0
 62
     0
 10
219.86651932434779
 20
162.0834832968041
 30
0.0
 11
219.99151932434779
 21
162.0834832968041
 31
0.0
  0
LINE
  5
732
  8
0
 62
     0
 10
219.86651932434779
 20
162.2014832968041
 30
0.0
 11
219.99151932434779
 21
162.2014832968041
 31
0.0
  0
LINE
  5
733
  8
0
 62
     0
 10
219.86651932434779
 20
162.31948329680409
 30
0.0
 11
219.99151932434779
 21
162.31948329680409
 31
0.0
  0
LINE
  5
734
  8
0
 62
     0
 10
219.86651932434779
 20
162.43748329680409
 30
0.0
 11
219.99151932434779
 21
162.43748329680409
 31
0.0
  0
LINE
  5
735
  8
0
 62
     0
 10
219.86651932434779
 20
162.55548329680411
 30
0.0
 11
219.99151932434779
 21
162.55548329680411
 31
0.0
  0
LINE
  5
736
  8
0
 62
     0
 10
219.86651932434779
 20
162.67348329680411
 30
0.0
 11
219.99151932434779
 21
162.67348329680411
 31
0.0
  0
LINE
  5
737
  8
0
 62
     0
 10
219.86651932434779
 20
162.7914832968041
 30
0.0
 11
219.99151932434779
 21
162.7914832968041
 31
0.0
  0
LINE
  5
738
  8
0
 62
     0
 10
219.86651932434779
 20
162.9094832968041
 30
0.0
 11
219.99151932434779
 21
162.9094832968041
 31
0.0
  0
LINE
  5
739
  8
0
 62
     0
 10
219.86651932434779
 20
163.02748329680409
 30
0.0
 11
219.99151932434779
 21
163.02748329680409
 31
0.0
  0
LINE
  5
73A
  8
0
 62
     0
 10
219.86651932434779
 20
163.14548329680409
 30
0.0
 11
219.99151932434779
 21
163.14548329680409
 31
0.0
  0
LINE
  5
73B
  8
0
 62
     0
 10
219.86651932434779
 20
163.26348329680411
 30
0.0
 11
219.99151932434779
 21
163.26348329680411
 31
0.0
  0
LINE
  5
73C
  8
0
 62
     0
 10
219.86651932434779
 20
163.38148329680411
 30
0.0
 11
219.99151932434779
 21
163.38148329680411
 31
0.0
  0
LINE
  5
73D
  8
0
 62
     0
 10
219.86651932434779
 20
163.4994832968041
 30
0.0
 11
219.99151932434779
 21
163.4994832968041
 31
0.0
  0
LINE
  5
73E
  8
0
 62
     0
 10
219.86651932434779
 20
163.61748329680401
 30
0.0
 11
219.99151932434779
 21
163.61748329680401
 31
0.0
  0
LINE
  5
73F
  8
0
 62
     0
 10
219.86651932434779
 20
163.73548329680409
 30
0.0
 11
219.99151932434779
 21
163.73548329680409
 31
0.0
  0
LINE
  5
740
  8
0
 62
     0
 10
219.86651932434779
 20
163.85348329680409
 30
0.0
 11
219.99151932434779
 21
163.85348329680409
 31
0.0
  0
LINE
  5
741
  8
0
 62
     0
 10
219.86651932434779
 20
163.97148329680411
 30
0.0
 11
219.99151932434779
 21
163.97148329680411
 31
0.0
  0
LINE
  5
742
  8
0
 62
     0
 10
219.86651932434779
 20
164.0894832968041
 30
0.0
 11
219.99151932434779
 21
164.0894832968041
 31
0.0
  0
LINE
  5
743
  8
0
 62
     0
 10
219.86651932434779
 20
164.2074832968041
 30
0.0
 11
219.99151932434779
 21
164.2074832968041
 31
0.0
  0
LINE
  5
744
  8
0
 62
     0
 10
219.86651932434779
 20
164.32548329680401
 30
0.0
 11
219.99151932434779
 21
164.32548329680401
 31
0.0
  0
LINE
  5
745
  8
0
 62
     0
 10
219.86651932434779
 20
164.44348329680409
 30
0.0
 11
219.99151932434779
 21
164.44348329680409
 31
0.0
  0
LINE
  5
746
  8
0
 62
     0
 10
219.86651932434779
 20
164.56148329680411
 30
0.0
 11
219.99151932434779
 21
164.56148329680411
 31
0.0
  0
LINE
  5
747
  8
0
 62
     0
 10
219.86651932434779
 20
164.67948329680411
 30
0.0
 11
219.99151932434779
 21
164.67948329680411
 31
0.0
  0
LINE
  5
748
  8
0
 62
     0
 10
219.86651932434779
 20
164.79748329680399
 30
0.0
 11
219.99151932434779
 21
164.79748329680399
 31
0.0
  0
LINE
  5
749
  8
0
 62
     0
 10
219.86651932434779
 20
164.91548329680401
 30
0.0
 11
219.99151932434779
 21
164.91548329680401
 31
0.0
  0
LINE
  5
74A
  8
0
 62
     0
 10
219.86651932434779
 20
165.03348329680409
 30
0.0
 11
219.99151932434779
 21
165.03348329680409
 31
0.0
  0
LINE
  5
74B
  8
0
 62
     0
 10
219.86651932434779
 20
165.15148329680409
 30
0.0
 11
219.99151932434779
 21
165.15148329680409
 31
0.0
  0
LINE
  5
74C
  8
0
 62
     0
 10
219.86651932434779
 20
165.26948329680411
 30
0.0
 11
219.99151932434779
 21
165.26948329680411
 31
0.0
  0
LINE
  5
74D
  8
0
 62
     0
 10
219.86651932434779
 20
165.38748329680411
 30
0.0
 11
219.99151932434779
 21
165.38748329680411
 31
0.0
  0
LINE
  5
74E
  8
0
 62
     0
 10
219.86651932434779
 20
165.5054832968041
 30
0.0
 11
219.99151932434779
 21
165.5054832968041
 31
0.0
  0
LINE
  5
74F
  8
0
 62
     0
 10
219.86651932434779
 20
165.62348329680401
 30
0.0
 11
219.99151932434779
 21
165.62348329680401
 31
0.0
  0
LINE
  5
750
  8
0
 62
     0
 10
219.86651932434779
 20
165.74148329680409
 30
0.0
 11
219.99151932434779
 21
165.74148329680409
 31
0.0
  0
LINE
  5
751
  8
0
 62
     0
 10
219.86651932434779
 20
165.85948329680409
 30
0.0
 11
219.99151932434779
 21
165.85948329680409
 31
0.0
  0
LINE
  5
752
  8
0
 62
     0
 10
219.86651932434779
 20
165.97748329680411
 30
0.0
 11
219.99151932434779
 21
165.97748329680411
 31
0.0
  0
LINE
  5
753
  8
0
 62
     0
 10
219.86651932434779
 20
166.0954832968041
 30
0.0
 11
219.99151932434779
 21
166.0954832968041
 31
0.0
  0
LINE
  5
754
  8
0
 62
     0
 10
219.86651932434779
 20
166.2134832968041
 30
0.0
 11
219.99151932434779
 21
166.2134832968041
 31
0.0
  0
LINE
  5
755
  8
0
 62
     0
 10
219.86651932434779
 20
166.33148329680401
 30
0.0
 11
219.99151932434779
 21
166.33148329680401
 31
0.0
  0
LINE
  5
756
  8
0
 62
     0
 10
219.86651932434779
 20
166.44948329680409
 30
0.0
 11
219.99151932434779
 21
166.44948329680409
 31
0.0
  0
LINE
  5
757
  8
0
 62
     0
 10
219.86651932434779
 20
166.56748329680411
 30
0.0
 11
219.99151932434779
 21
166.56748329680411
 31
0.0
  0
LINE
  5
758
  8
0
 62
     0
 10
219.86651932434779
 20
166.68548329680411
 30
0.0
 11
219.99151932434779
 21
166.68548329680411
 31
0.0
  0
LINE
  5
759
  8
0
 62
     0
 10
219.86651932434779
 20
166.80348329680399
 30
0.0
 11
219.99151932434779
 21
166.80348329680399
 31
0.0
  0
LINE
  5
75A
  8
0
 62
     0
 10
219.86651932434779
 20
166.92148329680401
 30
0.0
 11
219.99151932434779
 21
166.92148329680401
 31
0.0
  0
LINE
  5
75B
  8
0
 62
     0
 10
219.86651932434779
 20
167.03948329680409
 30
0.0
 11
219.99151932434779
 21
167.03948329680409
 31
0.0
  0
LINE
  5
75C
  8
0
 62
     0
 10
219.86651932434779
 20
167.15748329680409
 30
0.0
 11
219.99151932434779
 21
167.15748329680409
 31
0.0
  0
LINE
  5
75D
  8
0
 62
     0
 10
219.86651932434779
 20
167.27548329680411
 30
0.0
 11
219.99151932434779
 21
167.27548329680411
 31
0.0
  0
LINE
  5
75E
  8
0
 62
     0
 10
219.86651932434779
 20
167.39348329680411
 30
0.0
 11
219.99151932434779
 21
167.39348329680411
 31
0.0
  0
LINE
  5
75F
  8
0
 62
     0
 10
219.86651932434779
 20
167.51148329680399
 30
0.0
 11
219.99151932434779
 21
167.51148329680399
 31
0.0
  0
LINE
  5
760
  8
0
 62
     0
 10
219.86651932434779
 20
167.62948329680401
 30
0.0
 11
219.99151932434779
 21
167.62948329680401
 31
0.0
  0
LINE
  5
761
  8
0
 62
     0
 10
219.86651932434779
 20
167.74748329680409
 30
0.0
 11
219.99151932434779
 21
167.74748329680409
 31
0.0
  0
LINE
  5
762
  8
0
 62
     0
 10
219.86651932434779
 20
167.86548329680409
 30
0.0
 11
219.99151932434779
 21
167.86548329680409
 31
0.0
  0
LINE
  5
763
  8
0
 62
     0
 10
219.86651932434779
 20
167.983483296804
 30
0.0
 11
219.99151932434779
 21
167.983483296804
 31
0.0
  0
LINE
  5
764
  8
0
 62
     0
 10
219.86651932434779
 20
168.10148329680399
 30
0.0
 11
219.99151932434779
 21
168.10148329680399
 31
0.0
  0
LINE
  5
765
  8
0
 62
     0
 10
219.86651932434779
 20
168.21948329680399
 30
0.0
 11
219.99151932434779
 21
168.21948329680399
 31
0.0
  0
LINE
  5
766
  8
0
 62
     0
 10
219.86651932434779
 20
168.33748329680401
 30
0.0
 11
219.99151932434779
 21
168.33748329680401
 31
0.0
  0
LINE
  5
767
  8
0
 62
     0
 10
219.86651932434779
 20
168.45548329680409
 30
0.0
 11
219.99151932434779
 21
168.45548329680409
 31
0.0
  0
LINE
  5
768
  8
0
 62
     0
 10
219.86651932434779
 20
168.57348329680411
 30
0.0
 11
219.99151932434779
 21
168.57348329680411
 31
0.0
  0
LINE
  5
769
  8
0
 62
     0
 10
219.86651932434779
 20
168.69148329680411
 30
0.0
 11
219.99151932434779
 21
168.69148329680411
 31
0.0
  0
LINE
  5
76A
  8
0
 62
     0
 10
219.86651932434779
 20
168.80948329680399
 30
0.0
 11
219.99151932434779
 21
168.80948329680399
 31
0.0
  0
LINE
  5
76B
  8
0
 62
     0
 10
219.86651932434779
 20
168.92748329680401
 30
0.0
 11
219.99151932434779
 21
168.92748329680401
 31
0.0
  0
LINE
  5
76C
  8
0
 62
     0
 10
219.86651932434779
 20
169.04548329680409
 30
0.0
 11
219.99151932434779
 21
169.04548329680409
 31
0.0
  0
LINE
  5
76D
  8
0
 62
     0
 10
219.86651932434779
 20
169.16348329680409
 30
0.0
 11
219.99151932434779
 21
169.16348329680409
 31
0.0
  0
LINE
  5
76E
  8
0
 62
     0
 10
219.86651932434779
 20
169.28148329680411
 30
0.0
 11
219.99151932434779
 21
169.28148329680411
 31
0.0
  0
LINE
  5
76F
  8
0
 62
     0
 10
219.86651932434779
 20
169.39948329680411
 30
0.0
 11
219.99151932434779
 21
169.39948329680411
 31
0.0
  0
LINE
  5
770
  8
0
 62
     0
 10
219.86651932434779
 20
169.51748329680399
 30
0.0
 11
219.99151932434779
 21
169.51748329680399
 31
0.0
  0
LINE
  5
771
  8
0
 62
     0
 10
219.86651932434779
 20
169.63548329680401
 30
0.0
 11
219.99151932434779
 21
169.63548329680401
 31
0.0
  0
LINE
  5
772
  8
0
 62
     0
 10
219.86651932434779
 20
169.75348329680409
 30
0.0
 11
219.99151932434779
 21
169.75348329680409
 31
0.0
  0
LINE
  5
773
  8
0
 62
     0
 10
219.86651932434779
 20
169.87148329680409
 30
0.0
 11
219.99151932434779
 21
169.87148329680409
 31
0.0
  0
LINE
  5
774
  8
0
 62
     0
 10
219.86651932434779
 20
169.989483296804
 30
0.0
 11
219.99151932434779
 21
169.989483296804
 31
0.0
  0
LINE
  5
775
  8
0
 62
     0
 10
219.86651932434779
 20
170.10748329680399
 30
0.0
 11
219.99151932434779
 21
170.10748329680399
 31
0.0
  0
LINE
  5
776
  8
0
 62
     0
 10
219.86651932434779
 20
170.22548329680399
 30
0.0
 11
219.99151932434779
 21
170.22548329680399
 31
0.0
  0
LINE
  5
777
  8
0
 62
     0
 10
219.86651932434779
 20
170.34348329680401
 30
0.0
 11
219.99151932434779
 21
170.34348329680401
 31
0.0
  0
LINE
  5
778
  8
0
 62
     0
 10
219.86651932434779
 20
170.46148329680409
 30
0.0
 11
219.99151932434779
 21
170.46148329680409
 31
0.0
  0
LINE
  5
779
  8
0
 62
     0
 10
219.86651932434779
 20
170.57948329680411
 30
0.0
 11
219.99151932434779
 21
170.57948329680411
 31
0.0
  0
LINE
  5
77A
  8
0
 62
     0
 10
219.86651932434779
 20
170.69748329680399
 30
0.0
 11
219.99151932434779
 21
170.69748329680399
 31
0.0
  0
LINE
  5
77B
  8
0
 62
     0
 10
219.86651932434779
 20
170.81548329680399
 30
0.0
 11
219.99151932434779
 21
170.81548329680399
 31
0.0
  0
LINE
  5
77C
  8
0
 62
     0
 10
219.86651932434779
 20
170.93348329680401
 30
0.0
 11
219.99151932434779
 21
170.93348329680401
 31
0.0
  0
LINE
  5
77D
  8
0
 62
     0
 10
219.86651932434779
 20
171.05148329680409
 30
0.0
 11
219.99151932434779
 21
171.05148329680409
 31
0.0
  0
LINE
  5
77E
  8
0
 62
     0
 10
219.86651932434779
 20
171.169483296804
 30
0.0
 11
219.99151932434779
 21
171.169483296804
 31
0.0
  0
LINE
  5
77F
  8
0
 62
     0
 10
219.86651932434779
 20
171.287483296804
 30
0.0
 11
219.99151932434779
 21
171.287483296804
 31
0.0
  0
LINE
  5
780
  8
0
 62
     0
 10
219.86651932434779
 20
171.40548329680399
 30
0.0
 11
219.99151932434779
 21
171.40548329680399
 31
0.0
  0
LINE
  5
781
  8
0
 62
     0
 10
219.86651932434779
 20
171.52348329680399
 30
0.0
 11
219.99151932434779
 21
171.52348329680399
 31
0.0
  0
LINE
  5
782
  8
0
 62
     0
 10
219.86651932434779
 20
171.64148329680401
 30
0.0
 11
219.99151932434779
 21
171.64148329680401
 31
0.0
  0
LINE
  5
783
  8
0
 62
     0
 10
219.86651932434779
 20
171.75948329680409
 30
0.0
 11
219.99151932434779
 21
171.75948329680409
 31
0.0
  0
LINE
  5
784
  8
0
 62
     0
 10
219.86651932434779
 20
171.87748329680409
 30
0.0
 11
219.99151932434779
 21
171.87748329680409
 31
0.0
  0
LINE
  5
785
  8
0
 62
     0
 10
219.86651932434779
 20
171.995483296804
 30
0.0
 11
219.99151932434779
 21
171.995483296804
 31
0.0
  0
LINE
  5
786
  8
0
 62
     0
 10
219.86651932434779
 20
172.11348329680399
 30
0.0
 11
219.99151932434779
 21
172.11348329680399
 31
0.0
  0
LINE
  5
787
  8
0
 62
     0
 10
219.86651932434779
 20
172.23148329680399
 30
0.0
 11
219.99151932434779
 21
172.23148329680399
 31
0.0
  0
LINE
  5
788
  8
0
 62
     0
 10
219.86651932434779
 20
172.34948329680401
 30
0.0
 11
219.99151932434779
 21
172.34948329680401
 31
0.0
  0
LINE
  5
789
  8
0
 62
     0
 10
219.86651932434779
 20
172.46748329680409
 30
0.0
 11
219.99151932434779
 21
172.46748329680409
 31
0.0
  0
LINE
  5
78A
  8
0
 62
     0
 10
219.86651932434779
 20
172.58548329680411
 30
0.0
 11
219.99151932434779
 21
172.58548329680411
 31
0.0
  0
LINE
  5
78B
  8
0
 62
     0
 10
219.86651932434779
 20
172.70348329680411
 30
0.0
 11
219.99151932434779
 21
172.70348329680411
 31
0.0
  0
LINE
  5
78C
  8
0
 62
     0
 10
219.86651932434779
 20
172.82148329680399
 30
0.0
 11
219.99151932434779
 21
172.82148329680399
 31
0.0
  0
LINE
  5
78D
  8
0
 62
     0
 10
219.86651932434779
 20
172.93948329680401
 30
0.0
 11
219.99151932434779
 21
172.93948329680401
 31
0.0
  0
LINE
  5
78E
  8
0
 62
     0
 10
219.86651932434779
 20
173.05748329680409
 30
0.0
 11
219.99151932434779
 21
173.05748329680409
 31
0.0
  0
LINE
  5
78F
  8
0
 62
     0
 10
219.86651932434779
 20
173.17548329680409
 30
0.0
 11
219.99151932434779
 21
173.17548329680409
 31
0.0
  0
LINE
  5
790
  8
0
 62
     0
 10
219.86651932434779
 20
173.29348329680411
 30
0.0
 11
219.99151932434779
 21
173.29348329680411
 31
0.0
  0
LINE
  5
791
  8
0
 62
     0
 10
219.86651932434779
 20
173.41148329680411
 30
0.0
 11
219.99151932434779
 21
173.41148329680411
 31
0.0
  0
LINE
  5
792
  8
0
 62
     0
 10
219.86651932434779
 20
173.5294832968041
 30
0.0
 11
219.99151932434779
 21
173.5294832968041
 31
0.0
  0
LINE
  5
793
  8
0
 62
     0
 10
219.86651932434779
 20
173.64748329680401
 30
0.0
 11
219.99151932434779
 21
173.64748329680401
 31
0.0
  0
LINE
  5
794
  8
0
 62
     0
 10
219.86651932434779
 20
173.76548329680409
 30
0.0
 11
219.99151932434779
 21
173.76548329680409
 31
0.0
  0
LINE
  5
795
  8
0
 62
     0
 10
219.86651932434779
 20
173.88348329680409
 30
0.0
 11
219.99151932434779
 21
173.88348329680409
 31
0.0
  0
LINE
  5
796
  8
0
 62
     0
 10
219.86651932434779
 20
174.00148329680411
 30
0.0
 11
219.99151932434779
 21
174.00148329680411
 31
0.0
  0
LINE
  5
797
  8
0
 62
     0
 10
219.86651932434779
 20
174.11948329680411
 30
0.0
 11
219.99151932434779
 21
174.11948329680411
 31
0.0
  0
LINE
  5
798
  8
0
 62
     0
 10
219.86651932434779
 20
174.2374832968041
 30
0.0
 11
219.99151932434779
 21
174.2374832968041
 31
0.0
  0
LINE
  5
799
  8
0
 62
     0
 10
219.86651932434779
 20
174.35548329680401
 30
0.0
 11
219.99151932434779
 21
174.35548329680401
 31
0.0
  0
LINE
  5
79A
  8
0
 62
     0
 10
219.86651932434779
 20
174.47348329680409
 30
0.0
 11
219.99151932434779
 21
174.47348329680409
 31
0.0
  0
LINE
  5
79B
  8
0
 62
     0
 10
219.86651932434779
 20
174.59148329680411
 30
0.0
 11
219.99151932434779
 21
174.59148329680411
 31
0.0
  0
LINE
  5
79C
  8
0
 62
     0
 10
219.86651932434779
 20
174.70948329680411
 30
0.0
 11
219.99151932434779
 21
174.70948329680411
 31
0.0
  0
LINE
  5
79D
  8
0
 62
     0
 10
219.86651932434779
 20
174.8274832968041
 30
0.0
 11
219.99151932434779
 21
174.8274832968041
 31
0.0
  0
LINE
  5
79E
  8
0
 62
     0
 10
219.86651932434779
 20
174.9454832968041
 30
0.0
 11
219.99151932434779
 21
174.9454832968041
 31
0.0
  0
LINE
  5
79F
  8
0
 62
     0
 10
219.86651932434779
 20
175.06348329680409
 30
0.0
 11
219.99151932434779
 21
175.06348329680409
 31
0.0
  0
LINE
  5
7A0
  8
0
 62
     0
 10
219.86651932434779
 20
175.18148329680409
 30
0.0
 11
219.99151932434779
 21
175.18148329680409
 31
0.0
  0
LINE
  5
7A1
  8
0
 62
     0
 10
219.86651932434779
 20
175.29948329680411
 30
0.0
 11
219.99151932434779
 21
175.29948329680411
 31
0.0
  0
LINE
  5
7A2
  8
0
 62
     0
 10
219.86651932434779
 20
175.41748329680411
 30
0.0
 11
219.99151932434779
 21
175.41748329680411
 31
0.0
  0
LINE
  5
7A3
  8
0
 62
     0
 10
219.86651932434779
 20
175.5354832968041
 30
0.0
 11
219.99151932434779
 21
175.5354832968041
 31
0.0
  0
LINE
  5
7A4
  8
0
 62
     0
 10
219.86651932434779
 20
175.6534832968041
 30
0.0
 11
219.99151932434779
 21
175.6534832968041
 31
0.0
  0
LINE
  5
7A5
  8
0
 62
     0
 10
219.86651932434779
 20
175.77148329680409
 30
0.0
 11
219.99151932434779
 21
175.77148329680409
 31
0.0
  0
LINE
  5
7A6
  8
0
 62
     0
 10
219.86651932434779
 20
175.88948329680409
 30
0.0
 11
219.99151932434779
 21
175.88948329680409
 31
0.0
  0
LINE
  5
7A7
  8
0
 62
     0
 10
219.86651932434779
 20
176.00748329680411
 30
0.0
 11
219.99151932434779
 21
176.00748329680411
 31
0.0
  0
LINE
  5
7A8
  8
0
 62
     0
 10
219.86651932434779
 20
176.12548329680411
 30
0.0
 11
219.99151932434779
 21
176.12548329680411
 31
0.0
  0
LINE
  5
7A9
  8
0
 62
     0
 10
219.86651932434779
 20
176.2434832968041
 30
0.0
 11
219.99151932434779
 21
176.2434832968041
 31
0.0
  0
LINE
  5
7AA
  8
0
 62
     0
 10
219.86651932434779
 20
176.36148329680401
 30
0.0
 11
219.99151932434779
 21
176.36148329680401
 31
0.0
  0
LINE
  5
7AB
  8
0
 62
     0
 10
219.86651932434779
 20
176.47948329680409
 30
0.0
 11
219.99151932434779
 21
176.47948329680409
 31
0.0
  0
LINE
  5
7AC
  8
0
 62
     0
 10
219.86651932434779
 20
176.59748329680411
 30
0.0
 11
219.99151932434779
 21
176.59748329680411
 31
0.0
  0
LINE
  5
7AD
  8
0
 62
     0
 10
219.86651932434779
 20
176.71548329680411
 30
0.0
 11
219.99151932434779
 21
176.71548329680411
 31
0.0
  0
LINE
  5
7AE
  8
0
 62
     0
 10
219.86651932434779
 20
176.8334832968041
 30
0.0
 11
219.99151932434779
 21
176.8334832968041
 31
0.0
  0
LINE
  5
7AF
  8
0
 62
     0
 10
219.86651932434779
 20
176.9514832968041
 30
0.0
 11
219.99151932434779
 21
176.9514832968041
 31
0.0
  0
LINE
  5
7B0
  8
0
 62
     0
 10
219.86651932434779
 20
177.06948329680409
 30
0.0
 11
219.99151932434779
 21
177.06948329680409
 31
0.0
  0
LINE
  5
7B1
  8
0
 62
     0
 10
219.86651932434779
 20
177.18748329680409
 30
0.0
 11
219.99151932434779
 21
177.18748329680409
 31
0.0
  0
LINE
  5
7B2
  8
0
 62
     0
 10
219.86651932434779
 20
177.30548329680411
 30
0.0
 11
219.99151932434779
 21
177.30548329680411
 31
0.0
  0
LINE
  5
7B3
  8
0
 62
     0
 10
219.86651932434779
 20
177.42348329680411
 30
0.0
 11
219.99151932434779
 21
177.42348329680411
 31
0.0
  0
LINE
  5
7B4
  8
0
 62
     0
 10
219.86651932434779
 20
177.54148329680399
 30
0.0
 11
219.99151932434779
 21
177.54148329680399
 31
0.0
  0
LINE
  5
7B5
  8
0
 62
     0
 10
219.86651932434779
 20
177.65948329680401
 30
0.0
 11
219.99151932434779
 21
177.65948329680401
 31
0.0
  0
LINE
  5
7B6
  8
0
 62
     0
 10
219.86651932434779
 20
177.77748329680409
 30
0.0
 11
219.99151932434779
 21
177.77748329680409
 31
0.0
  0
LINE
  5
7B7
  8
0
 62
     0
 10
219.86651932434779
 20
177.89548329680409
 30
0.0
 11
219.99151932434779
 21
177.89548329680409
 31
0.0
  0
LINE
  5
7B8
  8
0
 62
     0
 10
219.86651932434779
 20
178.01348329680411
 30
0.0
 11
219.99151932434779
 21
178.01348329680411
 31
0.0
  0
LINE
  5
7B9
  8
0
 62
     0
 10
219.86651932434779
 20
178.13148329680411
 30
0.0
 11
219.99151932434779
 21
178.13148329680411
 31
0.0
  0
LINE
  5
7BA
  8
0
 62
     0
 10
219.86651932434779
 20
178.2494832968041
 30
0.0
 11
219.99151932434779
 21
178.2494832968041
 31
0.0
  0
LINE
  5
7BB
  8
0
 62
     0
 10
219.86651932434779
 20
178.36748329680401
 30
0.0
 11
219.99151932434779
 21
178.36748329680401
 31
0.0
  0
LINE
  5
7BC
  8
0
 62
     0
 10
219.86651932434779
 20
178.48548329680409
 30
0.0
 11
219.99151932434779
 21
178.48548329680409
 31
0.0
  0
LINE
  5
7BD
  8
0
 62
     0
 10
219.86651932434779
 20
178.60348329680409
 30
0.0
 11
219.99151932434779
 21
178.60348329680409
 31
0.0
  0
LINE
  5
7BE
  8
0
 62
     0
 10
219.86651932434779
 20
178.72148329680411
 30
0.0
 11
219.99151932434779
 21
178.72148329680411
 31
0.0
  0
LINE
  5
7BF
  8
0
 62
     0
 10
219.86651932434779
 20
178.8394832968041
 30
0.0
 11
219.99151932434779
 21
178.8394832968041
 31
0.0
  0
LINE
  5
7C0
  8
0
 62
     0
 10
219.86651932434779
 20
178.9574832968041
 30
0.0
 11
219.99151932434779
 21
178.9574832968041
 31
0.0
  0
LINE
  5
7C1
  8
0
 62
     0
 10
219.86651932434779
 20
179.07548329680401
 30
0.0
 11
219.99151932434779
 21
179.07548329680401
 31
0.0
  0
LINE
  5
7C2
  8
0
 62
     0
 10
219.86651932434779
 20
179.19348329680409
 30
0.0
 11
219.99151932434779
 21
179.19348329680409
 31
0.0
  0
LINE
  5
7C3
  8
0
 62
     0
 10
219.86651932434779
 20
179.31148329680411
 30
0.0
 11
219.99151932434779
 21
179.31148329680411
 31
0.0
  0
LINE
  5
7C4
  8
0
 62
     0
 10
219.86651932434779
 20
179.42948329680411
 30
0.0
 11
219.99151932434779
 21
179.42948329680411
 31
0.0
  0
LINE
  5
7C5
  8
0
 62
     0
 10
219.86651932434779
 20
179.54748329680399
 30
0.0
 11
219.99151932434779
 21
179.54748329680399
 31
0.0
  0
LINE
  5
7C6
  8
0
 62
     0
 10
219.86651932434779
 20
179.66548329680401
 30
0.0
 11
219.99151932434779
 21
179.66548329680401
 31
0.0
  0
LINE
  5
7C7
  8
0
 62
     0
 10
219.86651932434779
 20
179.78348329680409
 30
0.0
 11
219.99151932434779
 21
179.78348329680409
 31
0.0
  0
LINE
  5
7C8
  8
0
 62
     0
 10
219.86651932434779
 20
179.90148329680409
 30
0.0
 11
219.99151932434779
 21
179.90148329680409
 31
0.0
  0
LINE
  5
7C9
  8
0
 62
     0
 10
219.86651932434779
 20
180.019483296804
 30
0.0
 11
219.99151932434779
 21
180.019483296804
 31
0.0
  0
LINE
  5
7CA
  8
0
 62
     0
 10
219.86651932434779
 20
180.13748329680411
 30
0.0
 11
219.99151932434779
 21
180.13748329680411
 31
0.0
  0
LINE
  5
7CB
  8
0
 62
     0
 10
219.86651932434779
 20
180.25548329680399
 30
0.0
 11
219.99151932434779
 21
180.25548329680399
 31
0.0
  0
LINE
  5
7CC
  8
0
 62
     0
 10
219.86651932434779
 20
180.37348329680401
 30
0.0
 11
219.99151932434779
 21
180.37348329680401
 31
0.0
  0
LINE
  5
7CD
  8
0
 62
     0
 10
219.86651932434779
 20
180.49148329680409
 30
0.0
 11
219.99151932434779
 21
180.49148329680409
 31
0.0
  0
LINE
  5
7CE
  8
0
 62
     0
 10
219.86651932434779
 20
180.60948329680409
 30
0.0
 11
219.99151932434779
 21
180.60948329680409
 31
0.0
  0
LINE
  5
7CF
  8
0
 62
     0
 10
219.86651932434779
 20
180.727483296804
 30
0.0
 11
219.99151932434779
 21
180.727483296804
 31
0.0
  0
LINE
  5
7D0
  8
0
 62
     0
 10
219.86651932434779
 20
180.84548329680399
 30
0.0
 11
219.99151932434779
 21
180.84548329680399
 31
0.0
  0
LINE
  5
7D1
  8
0
 62
     0
 10
219.86651932434779
 20
180.96348329680399
 30
0.0
 11
219.99151932434779
 21
180.96348329680399
 31
0.0
  0
LINE
  5
7D2
  8
0
 62
     0
 10
219.86651932434779
 20
181.08148329680409
 30
0.0
 11
219.99151932434779
 21
181.08148329680409
 31
0.0
  0
LINE
  5
7D3
  8
0
 62
     0
 10
219.86651932434779
 20
181.19948329680409
 30
0.0
 11
219.99151932434779
 21
181.19948329680409
 31
0.0
  0
LINE
  5
7D4
  8
0
 62
     0
 10
219.86651932434779
 20
181.31748329680411
 30
0.0
 11
219.99151932434779
 21
181.31748329680411
 31
0.0
  0
LINE
  5
7D5
  8
0
 62
     0
 10
219.86651932434779
 20
181.43548329680411
 30
0.0
 11
219.99151932434779
 21
181.43548329680411
 31
0.0
  0
LINE
  5
7D6
  8
0
 62
     0
 10
219.86651932434779
 20
181.55348329680399
 30
0.0
 11
219.99151932434779
 21
181.55348329680399
 31
0.0
  0
LINE
  5
7D7
  8
0
 62
     0
 10
219.86651932434779
 20
181.67148329680401
 30
0.0
 11
219.99151932434779
 21
181.67148329680401
 31
0.0
  0
LINE
  5
7D8
  8
0
 62
     0
 10
219.86651932434779
 20
181.78948329680409
 30
0.0
 11
219.99151932434779
 21
181.78948329680409
 31
0.0
  0
LINE
  5
7D9
  8
0
 62
     0
 10
219.86651932434779
 20
181.90748329680409
 30
0.0
 11
219.99151932434779
 21
181.90748329680409
 31
0.0
  0
LINE
  5
7DA
  8
0
 62
     0
 10
219.86651932434779
 20
182.02548329680411
 30
0.0
 11
219.99151932434779
 21
182.02548329680411
 31
0.0
  0
LINE
  5
7DB
  8
0
 62
     0
 10
219.86651932434779
 20
182.14348329680411
 30
0.0
 11
219.99151932434779
 21
182.14348329680411
 31
0.0
  0
LINE
  5
7DC
  8
0
 62
     0
 10
219.86651932434779
 20
182.26148329680399
 30
0.0
 11
219.99151932434779
 21
182.26148329680399
 31
0.0
  0
LINE
  5
7DD
  8
0
 62
     0
 10
219.86651932434779
 20
182.37948329680401
 30
0.0
 11
219.99151932434779
 21
182.37948329680401
 31
0.0
  0
LINE
  5
7DE
  8
0
 62
     0
 10
219.86651932434779
 20
182.49748329680409
 30
0.0
 11
219.99151932434779
 21
182.49748329680409
 31
0.0
  0
LINE
  5
7DF
  8
0
 62
     0
 10
219.86651932434779
 20
182.61548329680409
 30
0.0
 11
219.99151932434779
 21
182.61548329680409
 31
0.0
  0
LINE
  5
7E0
  8
0
 62
     0
 10
219.86651932434779
 20
182.733483296804
 30
0.0
 11
219.99151932434779
 21
182.733483296804
 31
0.0
  0
LINE
  5
7E1
  8
0
 62
     0
 10
219.86651932434779
 20
182.8514832968041
 30
0.0
 11
219.99151932434779
 21
182.8514832968041
 31
0.0
  0
LINE
  5
7E2
  8
0
 62
     0
 10
219.86651932434779
 20
182.96948329680399
 30
0.0
 11
219.99151932434779
 21
182.96948329680399
 31
0.0
  0
LINE
  5
7E3
  8
0
 62
     0
 10
219.86651932434779
 20
183.08748329680401
 30
0.0
 11
219.99151932434779
 21
183.08748329680401
 31
0.0
  0
LINE
  5
7E4
  8
0
 62
     0
 10
219.86651932434779
 20
183.205483296804
 30
0.0
 11
219.99151932434779
 21
183.205483296804
 31
0.0
  0
LINE
  5
7E5
  8
0
 62
     0
 10
219.86651932434779
 20
183.32348329680411
 30
0.0
 11
219.99151932434779
 21
183.32348329680411
 31
0.0
  0
LINE
  5
7E6
  8
0
 62
     0
 10
219.86651932434779
 20
183.44148329680399
 30
0.0
 11
219.99151932434779
 21
183.44148329680399
 31
0.0
  0
LINE
  5
7E7
  8
0
 62
     0
 10
219.86651932434779
 20
183.55948329680399
 30
0.0
 11
219.99151932434779
 21
183.55948329680399
 31
0.0
  0
LINE
  5
7E8
  8
0
 62
     0
 10
219.86651932434779
 20
183.67748329680401
 30
0.0
 11
219.99151932434779
 21
183.67748329680401
 31
0.0
  0
LINE
  5
7E9
  8
0
 62
     0
 10
219.86651932434779
 20
183.79548329680409
 30
0.0
 11
219.99151932434779
 21
183.79548329680409
 31
0.0
  0
LINE
  5
7EA
  8
0
 62
     0
 10
219.86651932434779
 20
183.913483296804
 30
0.0
 11
219.99151932434779
 21
183.913483296804
 31
0.0
  0
LINE
  5
7EB
  8
0
 62
     0
 10
219.86651932434779
 20
184.031483296804
 30
0.0
 11
219.99151932434779
 21
184.031483296804
 31
0.0
  0
LINE
  5
7EC
  8
0
 62
     0
 10
219.86651932434779
 20
184.14948329680399
 30
0.0
 11
219.99151932434779
 21
184.14948329680399
 31
0.0
  0
LINE
  5
7ED
  8
0
 62
     0
 10
219.86651932434779
 20
184.26748329680399
 30
0.0
 11
219.99151932434779
 21
184.26748329680399
 31
0.0
  0
LINE
  5
7EE
  8
0
 62
     0
 10
219.86651932434779
 20
184.38548329680401
 30
0.0
 11
219.99151932434779
 21
184.38548329680401
 31
0.0
  0
LINE
  5
7EF
  8
0
 62
     0
 10
219.86651932434779
 20
184.50348329680409
 30
0.0
 11
219.99151932434779
 21
184.50348329680409
 31
0.0
  0
LINE
  5
7F0
  8
0
 62
     0
 10
219.86651932434779
 20
184.62148329680409
 30
0.0
 11
219.99151932434779
 21
184.62148329680409
 31
0.0
  0
LINE
  5
7F1
  8
0
 62
     0
 10
219.86651932434779
 20
184.739483296804
 30
0.0
 11
219.99151932434779
 21
184.739483296804
 31
0.0
  0
LINE
  5
7F2
  8
0
 62
     0
 10
219.86651932434779
 20
184.85748329680399
 30
0.0
 11
219.99151932434779
 21
184.85748329680399
 31
0.0
  0
LINE
  5
7F3
  8
0
 62
     0
 10
219.86651932434779
 20
184.97548329680399
 30
0.0
 11
219.99151932434779
 21
184.97548329680399
 31
0.0
  0
LINE
  5
7F4
  8
0
 62
     0
 10
219.86651932434779
 20
185.0934832968041
 30
0.0
 11
219.99151932434779
 21
185.0934832968041
 31
0.0
  0
LINE
  5
7F5
  8
0
 62
     0
 10
219.86651932434779
 20
185.21148329680409
 30
0.0
 11
219.99151932434779
 21
185.21148329680409
 31
0.0
  0
LINE
  5
7F6
  8
0
 62
     0
 10
219.86651932434779
 20
185.32948329680411
 30
0.0
 11
219.99151932434779
 21
185.32948329680411
 31
0.0
  0
LINE
  5
7F7
  8
0
 62
     0
 10
219.86651932434779
 20
185.44748329680411
 30
0.0
 11
219.99151932434779
 21
185.44748329680411
 31
0.0
  0
LINE
  5
7F8
  8
0
 62
     0
 10
219.86651932434779
 20
185.56548329680399
 30
0.0
 11
219.99151932434779
 21
185.56548329680399
 31
0.0
  0
LINE
  5
7F9
  8
0
 62
     0
 10
219.86651932434779
 20
185.68348329680401
 30
0.0
 11
219.99151932434779
 21
185.68348329680401
 31
0.0
  0
LINE
  5
7FA
  8
0
 62
     0
 10
219.86651932434779
 20
185.80148329680409
 30
0.0
 11
219.99151932434779
 21
185.80148329680409
 31
0.0
  0
LINE
  5
7FB
  8
0
 62
     0
 10
219.86651932434779
 20
185.91948329680409
 30
0.0
 11
219.99151932434779
 21
185.91948329680409
 31
0.0
  0
LINE
  5
7FC
  8
0
 62
     0
 10
219.86651932434779
 20
186.03748329680411
 30
0.0
 11
219.99151932434779
 21
186.03748329680411
 31
0.0
  0
LINE
  5
7FD
  8
0
 62
     0
 10
219.86651932434779
 20
186.15548329680411
 30
0.0
 11
219.99151932434779
 21
186.15548329680411
 31
0.0
  0
LINE
  5
7FE
  8
0
 62
     0
 10
219.86651932434779
 20
186.2734832968041
 30
0.0
 11
219.99151932434779
 21
186.2734832968041
 31
0.0
  0
LINE
  5
7FF
  8
0
 62
     0
 10
219.86651932434779
 20
186.39148329680401
 30
0.0
 11
219.99151932434779
 21
186.39148329680401
 31
0.0
  0
LINE
  5
800
  8
0
 62
     0
 10
219.86651932434779
 20
186.50948329680409
 30
0.0
 11
219.99151932434779
 21
186.50948329680409
 31
0.0
  0
LINE
  5
801
  8
0
 62
     0
 10
219.86651932434779
 20
186.62748329680409
 30
0.0
 11
219.99151932434779
 21
186.62748329680409
 31
0.0
  0
LINE
  5
802
  8
0
 62
     0
 10
219.86651932434779
 20
186.74548329680411
 30
0.0
 11
219.99151932434779
 21
186.74548329680411
 31
0.0
  0
LINE
  5
803
  8
0
 62
     0
 10
219.86651932434779
 20
186.86348329680411
 30
0.0
 11
219.99151932434779
 21
186.86348329680411
 31
0.0
  0
LINE
  5
804
  8
0
 62
     0
 10
219.86651932434779
 20
186.9814832968041
 30
0.0
 11
219.99151932434779
 21
186.9814832968041
 31
0.0
  0
LINE
  5
805
  8
0
 62
     0
 10
219.86651932434779
 20
187.09948329680401
 30
0.0
 11
219.99151932434779
 21
187.09948329680401
 31
0.0
  0
LINE
  5
806
  8
0
 62
     0
 10
219.86651932434779
 20
187.21748329680409
 30
0.0
 11
219.99151932434779
 21
187.21748329680409
 31
0.0
  0
LINE
  5
807
  8
0
 62
     0
 10
219.86651932434779
 20
187.33548329680411
 30
0.0
 11
219.99151932434779
 21
187.33548329680411
 31
0.0
  0
LINE
  5
808
  8
0
 62
     0
 10
219.86651932434779
 20
187.45348329680411
 30
0.0
 11
219.99151932434779
 21
187.45348329680411
 31
0.0
  0
LINE
  5
809
  8
0
 62
     0
 10
219.86651932434779
 20
187.5714832968041
 30
0.0
 11
219.99151932434779
 21
187.5714832968041
 31
0.0
  0
LINE
  5
80A
  8
0
 62
     0
 10
219.86651932434779
 20
187.6894832968041
 30
0.0
 11
219.99151932434779
 21
187.6894832968041
 31
0.0
  0
LINE
  5
80B
  8
0
 62
     0
 10
219.86651932434779
 20
187.80748329680409
 30
0.0
 11
219.99151932434779
 21
187.80748329680409
 31
0.0
  0
LINE
  5
80C
  8
0
 62
     0
 10
219.86651932434779
 20
187.92548329680409
 30
0.0
 11
219.99151932434779
 21
187.92548329680409
 31
0.0
  0
LINE
  5
80D
  8
0
 62
     0
 10
219.86651932434779
 20
188.04348329680411
 30
0.0
 11
219.99151932434779
 21
188.04348329680411
 31
0.0
  0
LINE
  5
80E
  8
0
 62
     0
 10
219.86651932434779
 20
188.16148329680411
 30
0.0
 11
219.99151932434779
 21
188.16148329680411
 31
0.0
  0
LINE
  5
80F
  8
0
 62
     0
 10
219.86651932434779
 20
188.2794832968041
 30
0.0
 11
219.99151932434779
 21
188.2794832968041
 31
0.0
  0
LINE
  5
810
  8
0
 62
     0
 10
219.86651932434779
 20
188.3974832968041
 30
0.0
 11
219.99151932434779
 21
188.3974832968041
 31
0.0
  0
LINE
  5
811
  8
0
 62
     0
 10
219.86651932434779
 20
188.51548329680409
 30
0.0
 11
219.99151932434779
 21
188.51548329680409
 31
0.0
  0
LINE
  5
812
  8
0
 62
     0
 10
219.86651932434779
 20
188.63348329680409
 30
0.0
 11
219.99151932434779
 21
188.63348329680409
 31
0.0
  0
LINE
  5
813
  8
0
 62
     0
 10
219.86651932434779
 20
188.75148329680411
 30
0.0
 11
219.99151932434779
 21
188.75148329680411
 31
0.0
  0
LINE
  5
814
  8
0
 62
     0
 10
219.86651932434779
 20
188.86948329680411
 30
0.0
 11
219.99151932434779
 21
188.86948329680411
 31
0.0
  0
LINE
  5
815
  8
0
 62
     0
 10
219.86651932434779
 20
188.9874832968041
 30
0.0
 11
219.99151932434779
 21
188.9874832968041
 31
0.0
  0
LINE
  5
816
  8
0
 62
     0
 10
219.86651932434779
 20
189.1054832968041
 30
0.0
 11
219.99151932434779
 21
189.1054832968041
 31
0.0
  0
LINE
  5
817
  8
0
 62
     0
 10
219.86651932434779
 20
189.22348329680409
 30
0.0
 11
219.99151932434779
 21
189.22348329680409
 31
0.0
  0
LINE
  5
818
  8
0
 62
     0
 10
219.86651932434779
 20
189.34148329680411
 30
0.0
 11
219.99151932434779
 21
189.34148329680411
 31
0.0
  0
LINE
  5
819
  8
0
 62
     0
 10
219.86651932434779
 20
189.45948329680411
 30
0.0
 11
219.99151932434779
 21
189.45948329680411
 31
0.0
  0
LINE
  5
81A
  8
0
 62
     0
 10
219.86651932434779
 20
189.57748329680399
 30
0.0
 11
219.99151932434779
 21
189.57748329680399
 31
0.0
  0
LINE
  5
81B
  8
0
 62
     0
 10
219.86651932434779
 20
189.6954832968041
 30
0.0
 11
219.99151932434779
 21
189.6954832968041
 31
0.0
  0
LINE
  5
81C
  8
0
 62
     0
 10
219.86651932434779
 20
189.81348329680401
 30
0.0
 11
219.99151932434779
 21
189.81348329680401
 31
0.0
  0
LINE
  5
81D
  8
0
 62
     0
 10
219.86651932434779
 20
189.93148329680409
 30
0.0
 11
219.99151932434779
 21
189.93148329680409
 31
0.0
  0
LINE
  5
81E
  8
0
 62
     0
 10
219.86651932434779
 20
190.04948329680411
 30
0.0
 11
219.99151932434779
 21
190.04948329680411
 31
0.0
  0
LINE
  5
81F
  8
0
 62
     0
 10
219.86651932434779
 20
190.16748329680411
 30
0.0
 11
219.99151932434779
 21
190.16748329680411
 31
0.0
  0
LINE
  5
820
  8
0
 62
     0
 10
219.86651932434779
 20
190.28548329680399
 30
0.0
 11
219.99151932434779
 21
190.28548329680399
 31
0.0
  0
LINE
  5
821
  8
0
 62
     0
 10
219.86651932434779
 20
190.40348329680401
 30
0.0
 11
219.99151932434779
 21
190.40348329680401
 31
0.0
  0
LINE
  5
822
  8
0
 62
     0
 10
219.86651932434779
 20
190.52148329680409
 30
0.0
 11
219.99151932434779
 21
190.52148329680409
 31
0.0
  0
LINE
  5
823
  8
0
 62
     0
 10
219.86651932434779
 20
190.63948329680409
 30
0.0
 11
219.99151932434779
 21
190.63948329680409
 31
0.0
  0
LINE
  5
824
  8
0
 62
     0
 10
219.86651932434779
 20
190.75748329680411
 30
0.0
 11
219.99151932434779
 21
190.75748329680411
 31
0.0
  0
LINE
  5
825
  8
0
 62
     0
 10
219.86651932434779
 20
190.87548329680411
 30
0.0
 11
219.99151932434779
 21
190.87548329680411
 31
0.0
  0
LINE
  5
826
  8
0
 62
     0
 10
219.86651932434779
 20
190.9934832968041
 30
0.0
 11
219.99151932434779
 21
190.9934832968041
 31
0.0
  0
LINE
  5
827
  8
0
 62
     0
 10
219.86651932434779
 20
191.11148329680401
 30
0.0
 11
219.99151932434779
 21
191.11148329680401
 31
0.0
  0
LINE
  5
828
  8
0
 62
     0
 10
219.86651932434779
 20
191.22948329680409
 30
0.0
 11
219.99151932434779
 21
191.22948329680409
 31
0.0
  0
LINE
  5
829
  8
0
 62
     0
 10
219.86651932434779
 20
191.34748329680411
 30
0.0
 11
219.99151932434779
 21
191.34748329680411
 31
0.0
  0
LINE
  5
82A
  8
0
 62
     0
 10
219.86651932434779
 20
191.46548329680411
 30
0.0
 11
219.99151932434779
 21
191.46548329680411
 31
0.0
  0
LINE
  5
82B
  8
0
 62
     0
 10
219.86651932434779
 20
191.5834832968041
 30
0.0
 11
219.99151932434779
 21
191.5834832968041
 31
0.0
  0
LINE
  5
82C
  8
0
 62
     0
 10
219.86651932434779
 20
191.7014832968041
 30
0.0
 11
219.99151932434779
 21
191.7014832968041
 31
0.0
  0
LINE
  5
82D
  8
0
 62
     0
 10
219.86651932434779
 20
191.81948329680409
 30
0.0
 11
219.99151932434779
 21
191.81948329680409
 31
0.0
  0
LINE
  5
82E
  8
0
 62
     0
 10
219.86651932434779
 20
191.93748329680409
 30
0.0
 11
219.99151932434779
 21
191.93748329680409
 31
0.0
  0
LINE
  5
82F
  8
0
 62
     0
 10
219.86651932434779
 20
192.05548329680411
 30
0.0
 11
219.99151932434779
 21
192.05548329680411
 31
0.0
  0
LINE
  5
830
  8
0
 62
     0
 10
219.86651932434779
 20
192.17348329680411
 30
0.0
 11
219.99151932434779
 21
192.17348329680411
 31
0.0
  0
LINE
  5
831
  8
0
 62
     0
 10
219.86651932434779
 20
192.29148329680399
 30
0.0
 11
219.99151932434779
 21
192.29148329680399
 31
0.0
  0
LINE
  5
832
  8
0
 62
     0
 10
219.86651932434779
 20
192.4094832968041
 30
0.0
 11
219.99151932434779
 21
192.4094832968041
 31
0.0
  0
LINE
  5
833
  8
0
 62
     0
 10
219.86651932434779
 20
192.52748329680409
 30
0.0
 11
219.99151932434779
 21
192.52748329680409
 31
0.0
  0
LINE
  5
834
  8
0
 62
     0
 10
219.86651932434779
 20
192.64548329680409
 30
0.0
 11
219.99151932434779
 21
192.64548329680409
 31
0.0
  0
LINE
  5
835
  8
0
 62
     0
 10
219.86651932434779
 20
192.763483296804
 30
0.0
 11
219.99151932434779
 21
192.763483296804
 31
0.0
  0
LINE
  5
836
  8
0
 62
     0
 10
219.86651932434779
 20
192.88148329680411
 30
0.0
 11
219.99151932434779
 21
192.88148329680411
 31
0.0
  0
LINE
  5
837
  8
0
 62
     0
 10
219.86651932434779
 20
192.99948329680399
 30
0.0
 11
219.99151932434779
 21
192.99948329680399
 31
0.0
  0
LINE
  5
838
  8
0
 62
     0
 10
219.86651932434779
 20
193.1174832968041
 30
0.0
 11
219.99151932434779
 21
193.1174832968041
 31
0.0
  0
LINE
  5
839
  8
0
 62
     0
 10
219.86651932434779
 20
193.23548329680409
 30
0.0
 11
219.99151932434779
 21
193.23548329680409
 31
0.0
  0
LINE
  5
83A
  8
0
 62
     0
 10
219.86651932434779
 20
193.35348329680409
 30
0.0
 11
219.99151932434779
 21
193.35348329680409
 31
0.0
  0
LINE
  5
83B
  8
0
 62
     0
 10
219.86651932434779
 20
193.471483296804
 30
0.0
 11
219.99151932434779
 21
193.471483296804
 31
0.0
  0
LINE
  5
83C
  8
0
 62
     0
 10
219.86651932434779
 20
193.58948329680399
 30
0.0
 11
219.99151932434779
 21
193.58948329680399
 31
0.0
  0
LINE
  5
83D
  8
0
 62
     0
 10
219.86651932434779
 20
193.70748329680401
 30
0.0
 11
219.99151932434779
 21
193.70748329680401
 31
0.0
  0
LINE
  5
83E
  8
0
 62
     0
 10
219.86651932434779
 20
193.82548329680401
 30
0.0
 11
219.99151932434779
 21
193.82548329680401
 31
0.0
  0
LINE
  5
83F
  8
0
 62
     0
 10
219.86651932434779
 20
193.94348329680409
 30
0.0
 11
219.99151932434779
 21
193.94348329680409
 31
0.0
  0
LINE
  5
840
  8
0
 62
     0
 10
219.86651932434779
 20
194.06148329680411
 30
0.0
 11
219.99151932434779
 21
194.06148329680411
 31
0.0
  0
LINE
  5
841
  8
0
 62
     0
 10
219.86651932434779
 20
194.17948329680411
 30
0.0
 11
219.99151932434779
 21
194.17948329680411
 31
0.0
  0
LINE
  5
842
  8
0
 62
     0
 10
219.86651932434779
 20
194.29748329680399
 30
0.0
 11
219.99151932434779
 21
194.29748329680399
 31
0.0
  0
LINE
  5
843
  8
0
 62
     0
 10
219.86651932434779
 20
194.41548329680401
 30
0.0
 11
219.99151932434779
 21
194.41548329680401
 31
0.0
  0
LINE
  5
844
  8
0
 62
     0
 10
219.86651932434779
 20
194.53348329680409
 30
0.0
 11
219.99151932434779
 21
194.53348329680409
 31
0.0
  0
LINE
  5
845
  8
0
 62
     0
 10
219.86651932434779
 20
194.65148329680409
 30
0.0
 11
219.99151932434779
 21
194.65148329680409
 31
0.0
  0
LINE
  5
846
  8
0
 62
     0
 10
219.86651932434779
 20
194.76948329680411
 30
0.0
 11
219.99151932434779
 21
194.76948329680411
 31
0.0
  0
LINE
  5
847
  8
0
 62
     0
 10
219.86651932434779
 20
194.88748329680411
 30
0.0
 11
219.99151932434779
 21
194.88748329680411
 31
0.0
  0
LINE
  5
848
  8
0
 62
     0
 10
219.86651932434779
 20
195.00548329680399
 30
0.0
 11
219.99151932434779
 21
195.00548329680399
 31
0.0
  0
LINE
  5
849
  8
0
 62
     0
 10
219.86651932434779
 20
195.12348329680401
 30
0.0
 11
219.99151932434779
 21
195.12348329680401
 31
0.0
  0
LINE
  5
84A
  8
0
 62
     0
 10
219.86651932434779
 20
195.24148329680409
 30
0.0
 11
219.99151932434779
 21
195.24148329680409
 31
0.0
  0
LINE
  5
84B
  8
0
 62
     0
 10
219.86651932434779
 20
195.35948329680409
 30
0.0
 11
219.99151932434779
 21
195.35948329680409
 31
0.0
  0
LINE
  5
84C
  8
0
 62
     0
 10
219.86651932434779
 20
195.477483296804
 30
0.0
 11
219.99151932434779
 21
195.477483296804
 31
0.0
  0
LINE
  5
84D
  8
0
 62
     0
 10
219.86651932434779
 20
195.5954832968041
 30
0.0
 11
219.99151932434779
 21
195.5954832968041
 31
0.0
  0
LINE
  5
84E
  8
0
 62
     0
 10
219.86651932434779
 20
195.71348329680399
 30
0.0
 11
219.99151932434779
 21
195.71348329680399
 31
0.0
  0
LINE
  5
84F
  8
0
 62
     0
 10
219.86651932434779
 20
195.83148329680409
 30
0.0
 11
219.99151932434779
 21
195.83148329680409
 31
0.0
  0
LINE
  5
850
  8
0
 62
     0
 10
219.86651932434779
 20
195.949483296804
 30
0.0
 11
219.99151932434779
 21
195.949483296804
 31
0.0
  0
LINE
  5
851
  8
0
 62
     0
 10
219.86651932434779
 20
196.06748329680411
 30
0.0
 11
219.99151932434779
 21
196.06748329680411
 31
0.0
  0
LINE
  5
852
  8
0
 62
     0
 10
219.86651932434779
 20
196.18548329680399
 30
0.0
 11
219.99151932434779
 21
196.18548329680399
 31
0.0
  0
LINE
  5
853
  8
0
 62
     0
 10
219.86651932434779
 20
196.30348329680399
 30
0.0
 11
219.99151932434779
 21
196.30348329680399
 31
0.0
  0
LINE
  5
854
  8
0
 62
     0
 10
219.86651932434779
 20
196.42148329680401
 30
0.0
 11
219.99151932434779
 21
196.42148329680401
 31
0.0
  0
LINE
  5
855
  8
0
 62
     0
 10
219.86651932434779
 20
196.53948329680409
 30
0.0
 11
219.99151932434779
 21
196.53948329680409
 31
0.0
  0
LINE
  5
856
  8
0
 62
     0
 10
219.86651932434779
 20
196.65748329680409
 30
0.0
 11
219.99151932434779
 21
196.65748329680409
 31
0.0
  0
LINE
  5
857
  8
0
 62
     0
 10
219.86651932434779
 20
196.775483296804
 30
0.0
 11
219.99151932434779
 21
196.775483296804
 31
0.0
  0
LINE
  5
858
  8
0
 62
     0
 10
219.86651932434779
 20
196.89348329680399
 30
0.0
 11
219.99151932434779
 21
196.89348329680399
 31
0.0
  0
LINE
  5
859
  8
0
 62
     0
 10
219.86651932434779
 20
197.01148329680399
 30
0.0
 11
219.99151932434779
 21
197.01148329680399
 31
0.0
  0
LINE
  5
85A
  8
0
 62
     0
 10
219.86651932434779
 20
197.1294832968041
 30
0.0
 11
219.99151932434779
 21
197.1294832968041
 31
0.0
  0
LINE
  5
85B
  8
0
 62
     0
 10
219.86651932434779
 20
197.24748329680409
 30
0.0
 11
219.99151932434779
 21
197.24748329680409
 31
0.0
  0
LINE
  5
85C
  8
0
 62
     0
 10
219.86651932434779
 20
197.36548329680409
 30
0.0
 11
219.99151932434779
 21
197.36548329680409
 31
0.0
  0
LINE
  5
85D
  8
0
 62
     0
 10
219.86651932434779
 20
197.48348329680411
 30
0.0
 11
219.99151932434779
 21
197.48348329680411
 31
0.0
  0
LINE
  5
85E
  8
0
 62
     0
 10
219.86651932434779
 20
197.60148329680399
 30
0.0
 11
219.99151932434779
 21
197.60148329680399
 31
0.0
  0
LINE
  5
85F
  8
0
 62
     0
 10
219.86651932434779
 20
197.71948329680399
 30
0.0
 11
219.99151932434779
 21
197.71948329680399
 31
0.0
  0
LINE
  5
860
  8
0
 62
     0
 10
219.86651932434779
 20
197.83748329680401
 30
0.0
 11
219.99151932434779
 21
197.83748329680401
 31
0.0
  0
LINE
  5
861
  8
0
 62
     0
 10
219.86651932434779
 20
197.95548329680409
 30
0.0
 11
219.99151932434779
 21
197.95548329680409
 31
0.0
  0
LINE
  5
862
  8
0
 62
     0
 10
219.86651932434779
 20
198.07348329680411
 30
0.0
 11
219.99151932434779
 21
198.07348329680411
 31
0.0
  0
LINE
  5
863
  8
0
 62
     0
 10
219.86651932434779
 20
198.19148329680411
 30
0.0
 11
219.99151932434779
 21
198.19148329680411
 31
0.0
  0
LINE
  5
864
  8
0
 62
     0
 10
219.86651932434779
 20
198.3094832968041
 30
0.0
 11
219.99151932434779
 21
198.3094832968041
 31
0.0
  0
LINE
  5
865
  8
0
 62
     0
 10
219.86651932434779
 20
198.42748329680401
 30
0.0
 11
219.99151932434779
 21
198.42748329680401
 31
0.0
  0
LINE
  5
866
  8
0
 62
     0
 10
219.86651932434779
 20
198.54548329680409
 30
0.0
 11
219.99151932434779
 21
198.54548329680409
 31
0.0
  0
LINE
  5
867
  8
0
 62
     0
 10
219.86651932434779
 20
198.66348329680409
 30
0.0
 11
219.99151932434779
 21
198.66348329680409
 31
0.0
  0
LINE
  5
868
  8
0
 62
     0
 10
219.86651932434779
 20
198.78148329680411
 30
0.0
 11
219.99151932434779
 21
198.78148329680411
 31
0.0
  0
LINE
  5
869
  8
0
 62
     0
 10
219.86651932434779
 20
198.89948329680411
 30
0.0
 11
219.99151932434779
 21
198.89948329680411
 31
0.0
  0
LINE
  5
86A
  8
0
 62
     0
 10
219.86651932434779
 20
199.0174832968041
 30
0.0
 11
219.99151932434779
 21
199.0174832968041
 31
0.0
  0
LINE
  5
86B
  8
0
 62
     0
 10
219.86651932434779
 20
199.13548329680401
 30
0.0
 11
219.99151932434779
 21
199.13548329680401
 31
0.0
  0
LINE
  5
86C
  8
0
 62
     0
 10
219.86651932434779
 20
199.25348329680409
 30
0.0
 11
219.99151932434779
 21
199.25348329680409
 31
0.0
  0
LINE
  5
86D
  8
0
 62
     0
 10
219.86651932434779
 20
199.37148329680409
 30
0.0
 11
219.99151932434779
 21
199.37148329680409
 31
0.0
  0
LINE
  5
86E
  8
0
 62
     0
 10
219.86651932434779
 20
199.48948329680411
 30
0.0
 11
219.99151932434779
 21
199.48948329680411
 31
0.0
  0
LINE
  5
86F
  8
0
 62
     0
 10
219.86651932434779
 20
199.60748329680411
 30
0.0
 11
219.99151932434779
 21
199.60748329680411
 31
0.0
  0
LINE
  5
870
  8
0
 62
     0
 10
219.86651932434779
 20
199.7254832968041
 30
0.0
 11
219.99151932434779
 21
199.7254832968041
 31
0.0
  0
LINE
  5
871
  8
0
 62
     0
 10
219.86651932434779
 20
199.8434832968041
 30
0.0
 11
219.99151932434779
 21
199.8434832968041
 31
0.0
  0
LINE
  5
872
  8
0
 62
     0
 10
219.86651932434779
 20
199.96148329680409
 30
0.0
 11
219.99151932434779
 21
199.96148329680409
 31
0.0
  0
LINE
  5
873
  8
0
 62
     0
 10
219.86651932434779
 20
200.07948329680411
 30
0.0
 11
219.99151932434779
 21
200.07948329680411
 31
0.0
  0
LINE
  5
874
  8
0
 62
     0
 10
219.86651932434779
 20
200.19748329680411
 30
0.0
 11
219.99151932434779
 21
200.19748329680411
 31
0.0
  0
LINE
  5
875
  8
0
 62
     0
 10
219.86651932434779
 20
200.3154832968041
 30
0.0
 11
219.99151932434779
 21
200.3154832968041
 31
0.0
  0
LINE
  5
876
  8
0
 62
     0
 10
219.86651932434779
 20
200.4334832968041
 30
0.0
 11
219.99151932434779
 21
200.4334832968041
 31
0.0
  0
LINE
  5
877
  8
0
 62
     0
 10
219.86651932434779
 20
200.55148329680409
 30
0.0
 11
219.99151932434779
 21
200.55148329680409
 31
0.0
  0
LINE
  5
878
  8
0
 62
     0
 10
219.86651932434779
 20
200.66948329680409
 30
0.0
 11
219.99151932434779
 21
200.66948329680409
 31
0.0
  0
LINE
  5
879
  8
0
 62
     0
 10
219.86651932434779
 20
200.78748329680411
 30
0.0
 11
219.99151932434779
 21
200.78748329680411
 31
0.0
  0
LINE
  5
87A
  8
0
 62
     0
 10
219.86651932434779
 20
200.90548329680411
 30
0.0
 11
219.99151932434779
 21
200.90548329680411
 31
0.0
  0
LINE
  5
87B
  8
0
 62
     0
 10
219.86651932434779
 20
201.0234832968041
 30
0.0
 11
219.99151932434779
 21
201.0234832968041
 31
0.0
  0
LINE
  5
87C
  8
0
 62
     0
 10
219.86651932434779
 20
201.1414832968041
 30
0.0
 11
219.99151932434779
 21
201.1414832968041
 31
0.0
  0
LINE
  5
87D
  8
0
 62
     0
 10
219.86651932434779
 20
201.25948329680409
 30
0.0
 11
219.99151932434779
 21
201.25948329680409
 31
0.0
  0
LINE
  5
87E
  8
0
 62
     0
 10
219.86651932434779
 20
201.37748329680409
 30
0.0
 11
219.99151932434779
 21
201.37748329680409
 31
0.0
  0
LINE
  5
87F
  8
0
 62
     0
 10
219.86651932434779
 20
201.49548329680411
 30
0.0
 11
219.99151932434779
 21
201.49548329680411
 31
0.0
  0
LINE
  5
880
  8
0
 62
     0
 10
219.86651932434779
 20
201.61348329680411
 30
0.0
 11
219.99151932434779
 21
201.61348329680411
 31
0.0
  0
LINE
  5
881
  8
0
 62
     0
 10
219.86651932434779
 20
201.7314832968041
 30
0.0
 11
219.99151932434779
 21
201.7314832968041
 31
0.0
  0
LINE
  5
882
  8
0
 62
     0
 10
219.86651932434779
 20
201.8494832968041
 30
0.0
 11
219.99151932434779
 21
201.8494832968041
 31
0.0
  0
LINE
  5
883
  8
0
 62
     0
 10
219.86651932434779
 20
201.96748329680409
 30
0.0
 11
219.99151932434779
 21
201.96748329680409
 31
0.0
  0
LINE
  5
884
  8
0
 62
     0
 10
219.86651932434779
 20
202.08548329680411
 30
0.0
 11
219.99151932434779
 21
202.08548329680411
 31
0.0
  0
LINE
  5
885
  8
0
 62
     0
 10
219.86651932434779
 20
202.20348329680411
 30
0.0
 11
219.99151932434779
 21
202.20348329680411
 31
0.0
  0
LINE
  5
886
  8
0
 62
     0
 10
219.86651932434779
 20
202.3214832968041
 30
0.0
 11
219.99151932434779
 21
202.3214832968041
 31
0.0
  0
LINE
  5
887
  8
0
 62
     0
 10
219.86651932434779
 20
202.4394832968041
 30
0.0
 11
219.99151932434779
 21
202.4394832968041
 31
0.0
  0
LINE
  5
888
  8
0
 62
     0
 10
219.86651932434779
 20
202.55748329680409
 30
0.0
 11
219.99151932434779
 21
202.55748329680409
 31
0.0
  0
LINE
  5
889
  8
0
 62
     0
 10
219.86651932434779
 20
202.67548329680409
 30
0.0
 11
219.99151932434779
 21
202.67548329680409
 31
0.0
  0
LINE
  5
88A
  8
0
 62
     0
 10
219.86651932434779
 20
202.79348329680411
 30
0.0
 11
219.99151932434779
 21
202.79348329680411
 31
0.0
  0
LINE
  5
88B
  8
0
 62
     0
 10
219.86651932434779
 20
202.91148329680411
 30
0.0
 11
219.99151932434779
 21
202.91148329680411
 31
0.0
  0
LINE
  5
88C
  8
0
 62
     0
 10
219.86651932434779
 20
203.0294832968041
 30
0.0
 11
219.99151932434779
 21
203.0294832968041
 31
0.0
  0
LINE
  5
88D
  8
0
 62
     0
 10
219.86651932434779
 20
203.14748329680401
 30
0.0
 11
219.99151932434779
 21
203.14748329680401
 31
0.0
  0
LINE
  5
88E
  8
0
 62
     0
 10
219.86651932434779
 20
203.26548329680409
 30
0.0
 11
219.99151932434779
 21
203.26548329680409
 31
0.0
  0
LINE
  5
88F
  8
0
 62
     0
 10
219.86651932434779
 20
203.38348329680409
 30
0.0
 11
219.99151932434779
 21
203.38348329680409
 31
0.0
  0
LINE
  5
890
  8
0
 62
     0
 10
219.86651932434779
 20
203.50148329680411
 30
0.0
 11
219.99151932434779
 21
203.50148329680411
 31
0.0
  0
LINE
  5
891
  8
0
 62
     0
 10
219.86651932434779
 20
203.61948329680411
 30
0.0
 11
219.99151932434779
 21
203.61948329680411
 31
0.0
  0
LINE
  5
892
  8
0
 62
     0
 10
219.86651932434779
 20
203.7374832968041
 30
0.0
 11
219.99151932434779
 21
203.7374832968041
 31
0.0
  0
LINE
  5
893
  8
0
 62
     0
 10
219.86651932434779
 20
203.8554832968041
 30
0.0
 11
219.99151932434779
 21
203.8554832968041
 31
0.0
  0
LINE
  5
894
  8
0
 62
     0
 10
219.86651932434779
 20
203.97348329680409
 30
0.0
 11
219.99151932434779
 21
203.97348329680409
 31
0.0
  0
LINE
  5
895
  8
0
 62
     0
 10
219.86651932434779
 20
204.09148329680411
 30
0.0
 11
219.99151932434779
 21
204.09148329680411
 31
0.0
  0
LINE
  5
896
  8
0
 62
     0
 10
219.86651932434779
 20
204.20948329680411
 30
0.0
 11
219.99151932434779
 21
204.20948329680411
 31
0.0
  0
LINE
  5
897
  8
0
 62
     0
 10
219.86651932434779
 20
204.3274832968041
 30
0.0
 11
219.99151932434779
 21
204.3274832968041
 31
0.0
  0
LINE
  5
898
  8
0
 62
     0
 10
219.86651932434779
 20
204.4454832968041
 30
0.0
 11
219.99151932434779
 21
204.4454832968041
 31
0.0
  0
LINE
  5
899
  8
0
 62
     0
 10
219.86651932434779
 20
204.56348329680401
 30
0.0
 11
219.99151932434779
 21
204.56348329680401
 31
0.0
  0
LINE
  5
89A
  8
0
 62
     0
 10
219.86651932434779
 20
204.68148329680409
 30
0.0
 11
219.99151932434779
 21
204.68148329680409
 31
0.0
  0
LINE
  5
89B
  8
0
 62
     0
 10
219.86651932434779
 20
204.79948329680411
 30
0.0
 11
219.99151932434779
 21
204.79948329680411
 31
0.0
  0
LINE
  5
89C
  8
0
 62
     0
 10
219.86651932434779
 20
204.91748329680411
 30
0.0
 11
219.99151932434779
 21
204.91748329680411
 31
0.0
  0
LINE
  5
89D
  8
0
 62
     0
 10
219.86651932434779
 20
205.0354832968041
 30
0.0
 11
219.99151932434779
 21
205.0354832968041
 31
0.0
  0
LINE
  5
89E
  8
0
 62
     0
 10
219.86651932434779
 20
205.1534832968041
 30
0.0
 11
219.99151932434779
 21
205.1534832968041
 31
0.0
  0
LINE
  5
89F
  8
0
 62
     0
 10
219.86651932434779
 20
205.27148329680409
 30
0.0
 11
219.99151932434779
 21
205.27148329680409
 31
0.0
  0
LINE
  5
8A0
  8
0
 62
     0
 10
219.86651932434779
 20
205.38948329680409
 30
0.0
 11
219.99151932434779
 21
205.38948329680409
 31
0.0
  0
LINE
  5
8A1
  8
0
 62
     0
 10
219.86651932434779
 20
205.50748329680411
 30
0.0
 11
219.99151932434779
 21
205.50748329680411
 31
0.0
  0
LINE
  5
8A2
  8
0
 62
     0
 10
219.86651932434779
 20
205.62548329680411
 30
0.0
 11
219.99151932434779
 21
205.62548329680411
 31
0.0
  0
LINE
  5
8A3
  8
0
 62
     0
 10
219.86651932434779
 20
205.7434832968041
 30
0.0
 11
219.99151932434779
 21
205.7434832968041
 31
0.0
  0
LINE
  5
8A4
  8
0
 62
     0
 10
219.86651932434779
 20
205.8614832968041
 30
0.0
 11
219.99151932434779
 21
205.8614832968041
 31
0.0
  0
LINE
  5
8A5
  8
0
 62
     0
 10
219.86651932434779
 20
205.97948329680409
 30
0.0
 11
219.99151932434779
 21
205.97948329680409
 31
0.0
  0
LINE
  5
8A6
  8
0
 62
     0
 10
219.86651932434779
 20
206.09748329680411
 30
0.0
 11
219.99151932434779
 21
206.09748329680411
 31
0.0
  0
LINE
  5
8A7
  8
0
 62
     0
 10
219.86651932434779
 20
206.21548329680411
 30
0.0
 11
219.99151932434779
 21
206.21548329680411
 31
0.0
  0
LINE
  5
8A8
  8
0
 62
     0
 10
219.86651932434779
 20
206.3334832968041
 30
0.0
 11
219.99151932434779
 21
206.3334832968041
 31
0.0
  0
LINE
  5
8A9
  8
0
 62
     0
 10
219.86651932434779
 20
206.4514832968041
 30
0.0
 11
219.99151932434779
 21
206.4514832968041
 31
0.0
  0
LINE
  5
8AA
  8
0
 62
     0
 10
219.86651932434779
 20
206.56948329680409
 30
0.0
 11
219.99151932434779
 21
206.56948329680409
 31
0.0
  0
LINE
  5
8AB
  8
0
 62
     0
 10
219.86651932434779
 20
206.68748329680409
 30
0.0
 11
219.99151932434779
 21
206.68748329680409
 31
0.0
  0
LINE
  5
8AC
  8
0
 62
     0
 10
219.86651932434779
 20
206.80548329680411
 30
0.0
 11
219.99151932434779
 21
206.80548329680411
 31
0.0
  0
LINE
  5
8AD
  8
0
 62
     0
 10
219.86651932434779
 20
206.92348329680411
 30
0.0
 11
219.99151932434779
 21
206.92348329680411
 31
0.0
  0
LINE
  5
8AE
  8
0
 62
     0
 10
219.86651932434779
 20
207.0414832968041
 30
0.0
 11
219.99151932434779
 21
207.0414832968041
 31
0.0
  0
LINE
  5
8AF
  8
0
 62
     0
 10
219.86651932434779
 20
207.1594832968041
 30
0.0
 11
219.99151932434779
 21
207.1594832968041
 31
0.0
  0
LINE
  5
8B0
  8
0
 62
     0
 10
219.86651932434779
 20
207.27748329680409
 30
0.0
 11
219.99151932434779
 21
207.27748329680409
 31
0.0
  0
LINE
  5
8B1
  8
0
 62
     0
 10
219.86651932434779
 20
207.39548329680409
 30
0.0
 11
219.99151932434779
 21
207.39548329680409
 31
0.0
  0
LINE
  5
8B2
  8
0
 62
     0
 10
219.86651932434779
 20
207.51348329680411
 30
0.0
 11
219.99151932434779
 21
207.51348329680411
 31
0.0
  0
LINE
  5
8B3
  8
0
 62
     0
 10
219.86651932434779
 20
207.63148329680411
 30
0.0
 11
219.99151932434779
 21
207.63148329680411
 31
0.0
  0
LINE
  5
8B4
  8
0
 62
     0
 10
219.86651932434779
 20
207.7494832968041
 30
0.0
 11
219.99151932434779
 21
207.7494832968041
 31
0.0
  0
LINE
  5
8B5
  8
0
 62
     0
 10
219.86651932434779
 20
207.8674832968041
 30
0.0
 11
219.99151932434779
 21
207.8674832968041
 31
0.0
  0
LINE
  5
8B6
  8
0
 62
     0
 10
219.86651932434779
 20
207.98548329680409
 30
0.0
 11
219.99151932434779
 21
207.98548329680409
 31
0.0
  0
LINE
  5
8B7
  8
0
 62
     0
 10
219.86651932434779
 20
208.10348329680409
 30
0.0
 11
219.99151932434779
 21
208.10348329680409
 31
0.0
  0
LINE
  5
8B8
  8
0
 62
     0
 10
219.86651932434779
 20
208.22148329680411
 30
0.0
 11
219.99151932434779
 21
208.22148329680411
 31
0.0
  0
LINE
  5
8B9
  8
0
 62
     0
 10
219.86651932434779
 20
208.3394832968041
 30
0.0
 11
219.99151932434779
 21
208.3394832968041
 31
0.0
  0
LINE
  5
8BA
  8
0
 62
     0
 10
219.86651932434779
 20
208.4574832968041
 30
0.0
 11
219.99151932434779
 21
208.4574832968041
 31
0.0
  0
LINE
  5
8BB
  8
0
 62
     0
 10
219.86651932434779
 20
208.57548329680409
 30
0.0
 11
219.99151932434779
 21
208.57548329680409
 31
0.0
  0
LINE
  5
8BC
  8
0
 62
     0
 10
219.86651932434779
 20
208.69348329680409
 30
0.0
 11
219.99151932434779
 21
208.69348329680409
 31
0.0
  0
LINE
  5
8BD
  8
0
 62
     0
 10
219.86651932434779
 20
208.81148329680411
 30
0.0
 11
219.99151932434779
 21
208.81148329680411
 31
0.0
  0
LINE
  5
8BE
  8
0
 62
     0
 10
219.86651932434779
 20
208.92948329680411
 30
0.0
 11
219.99151932434779
 21
208.92948329680411
 31
0.0
  0
LINE
  5
8BF
  8
0
 62
     0
 10
219.86651932434779
 20
209.0474832968041
 30
0.0
 11
219.99151932434779
 21
209.0474832968041
 31
0.0
  0
LINE
  5
8C0
  8
0
 62
     0
 10
219.86651932434779
 20
209.1654832968041
 30
0.0
 11
219.99151932434779
 21
209.1654832968041
 31
0.0
  0
LINE
  5
8C1
  8
0
 62
     0
 10
219.86651932434779
 20
209.28348329680409
 30
0.0
 11
219.99151932434779
 21
209.28348329680409
 31
0.0
  0
LINE
  5
8C2
  8
0
 62
     0
 10
219.86651932434779
 20
209.40148329680409
 30
0.0
 11
219.99151932434779
 21
209.40148329680409
 31
0.0
  0
LINE
  5
8C3
  8
0
 62
     0
 10
219.86651932434779
 20
209.51948329680411
 30
0.0
 11
219.99151932434779
 21
209.51948329680411
 31
0.0
  0
LINE
  5
8C4
  8
0
 62
     0
 10
219.86651932434779
 20
209.63748329680411
 30
0.0
 11
219.99151932434779
 21
209.63748329680411
 31
0.0
  0
LINE
  5
8C5
  8
0
 62
     0
 10
219.86651932434779
 20
209.7554832968041
 30
0.0
 11
219.99151932434779
 21
209.7554832968041
 31
0.0
  0
LINE
  5
8C6
  8
0
 62
     0
 10
219.86651932434779
 20
209.8734832968041
 30
0.0
 11
219.99151932434779
 21
209.8734832968041
 31
0.0
  0
LINE
  5
8C7
  8
0
 62
     0
 10
219.86651932434779
 20
209.99148329680409
 30
0.0
 11
219.99151932434779
 21
209.99148329680409
 31
0.0
  0
LINE
  5
8C8
  8
0
 62
     0
 10
219.86651932434779
 20
210.10948329680409
 30
0.0
 11
219.99151932434779
 21
210.10948329680409
 31
0.0
  0
LINE
  5
8C9
  8
0
 62
     0
 10
219.86651932434779
 20
210.22748329680411
 30
0.0
 11
219.99151932434779
 21
210.22748329680411
 31
0.0
  0
LINE
  5
8CA
  8
0
 62
     0
 10
219.86651932434779
 20
210.3454832968041
 30
0.0
 11
219.99151932434779
 21
210.3454832968041
 31
0.0
  0
LINE
  5
8CB
  8
0
 62
     0
 10
219.86651932434779
 20
210.4634832968041
 30
0.0
 11
219.99151932434779
 21
210.4634832968041
 31
0.0
  0
LINE
  5
8CC
  8
0
 62
     0
 10
219.86651932434779
 20
210.58148329680409
 30
0.0
 11
219.99151932434779
 21
210.58148329680409
 31
0.0
  0
LINE
  5
8CD
  8
0
 62
     0
 10
219.86651932434779
 20
210.69948329680409
 30
0.0
 11
219.99151932434779
 21
210.69948329680409
 31
0.0
  0
LINE
  5
8CE
  8
0
 62
     0
 10
219.86651932434779
 20
210.81748329680411
 30
0.0
 11
219.99151932434779
 21
210.81748329680411
 31
0.0
  0
LINE
  5
8CF
  8
0
 62
     0
 10
219.86651932434779
 20
210.93548329680411
 30
0.0
 11
219.99151932434779
 21
210.93548329680411
 31
0.0
  0
LINE
  5
8D0
  8
0
 62
     0
 10
219.86651932434779
 20
211.0534832968041
 30
0.0
 11
219.99151932434779
 21
211.0534832968041
 31
0.0
  0
LINE
  5
8D1
  8
0
 62
     0
 10
219.86651932434779
 20
211.1714832968041
 30
0.0
 11
219.99151932434779
 21
211.1714832968041
 31
0.0
  0
LINE
  5
8D2
  8
0
 62
     0
 10
219.86651932434779
 20
211.28948329680409
 30
0.0
 11
219.99151932434779
 21
211.28948329680409
 31
0.0
  0
LINE
  5
8D3
  8
0
 62
     0
 10
219.86651932434779
 20
211.40748329680409
 30
0.0
 11
219.99151932434779
 21
211.40748329680409
 31
0.0
  0
LINE
  5
8D4
  8
0
 62
     0
 10
219.86651932434779
 20
211.52548329680411
 30
0.0
 11
219.99151932434779
 21
211.52548329680411
 31
0.0
  0
LINE
  5
8D5
  8
0
 62
     0
 10
219.86651932434779
 20
211.64348329680411
 30
0.0
 11
219.99151932434779
 21
211.64348329680411
 31
0.0
  0
LINE
  5
8D6
  8
0
 62
     0
 10
219.86651932434779
 20
211.7614832968041
 30
0.0
 11
219.99151932434779
 21
211.7614832968041
 31
0.0
  0
LINE
  5
8D7
  8
0
 62
     0
 10
219.86651932434779
 20
211.8794832968041
 30
0.0
 11
219.99151932434779
 21
211.8794832968041
 31
0.0
  0
LINE
  5
8D8
  8
0
 62
     0
 10
219.86651932434779
 20
211.99748329680409
 30
0.0
 11
219.99151932434779
 21
211.99748329680409
 31
0.0
  0
LINE
  5
8D9
  8
0
 62
     0
 10
219.86651932434779
 20
212.11548329680409
 30
0.0
 11
219.99151932434779
 21
212.11548329680409
 31
0.0
  0
LINE
  5
8DA
  8
0
 62
     0
 10
219.86651932434779
 20
212.23348329680411
 30
0.0
 11
219.99151932434779
 21
212.23348329680411
 31
0.0
  0
LINE
  5
8DB
  8
0
 62
     0
 10
219.86651932434779
 20
212.3514832968041
 30
0.0
 11
219.99151932434779
 21
212.3514832968041
 31
0.0
  0
LINE
  5
8DC
  8
0
 62
     0
 10
219.86651932434779
 20
212.4694832968041
 30
0.0
 11
219.99151932434779
 21
212.4694832968041
 31
0.0
  0
LINE
  5
8DD
  8
0
 62
     0
 10
219.86651932434779
 20
212.58748329680409
 30
0.0
 11
219.99151932434779
 21
212.58748329680409
 31
0.0
  0
LINE
  5
8DE
  8
0
 62
     0
 10
219.86651932434779
 20
212.70548329680409
 30
0.0
 11
219.99151932434779
 21
212.70548329680409
 31
0.0
  0
LINE
  5
8DF
  8
0
 62
     0
 10
219.86651932434779
 20
212.82348329680411
 30
0.0
 11
219.99151932434779
 21
212.82348329680411
 31
0.0
  0
LINE
  5
8E0
  8
0
 62
     0
 10
219.86651932434779
 20
212.94148329680411
 30
0.0
 11
219.99151932434779
 21
212.94148329680411
 31
0.0
  0
LINE
  5
8E1
  8
0
 62
     0
 10
219.86651932434779
 20
213.0594832968041
 30
0.0
 11
219.99151932434779
 21
213.0594832968041
 31
0.0
  0
LINE
  5
8E2
  8
0
 62
     0
 10
219.86651932434779
 20
213.1774832968041
 30
0.0
 11
219.99151932434779
 21
213.1774832968041
 31
0.0
  0
LINE
  5
8E3
  8
0
 62
     0
 10
219.86651932434779
 20
213.29548329680409
 30
0.0
 11
219.99151932434779
 21
213.29548329680409
 31
0.0
  0
LINE
  5
8E4
  8
0
 62
     0
 10
219.86651932434779
 20
213.41348329680409
 30
0.0
 11
219.99151932434779
 21
213.41348329680409
 31
0.0
  0
LINE
  5
8E5
  8
0
 62
     0
 10
219.86651932434779
 20
213.53148329680411
 30
0.0
 11
219.99151932434779
 21
213.53148329680411
 31
0.0
  0
LINE
  5
8E6
  8
0
 62
     0
 10
219.86651932434779
 20
213.64948329680411
 30
0.0
 11
219.99151932434779
 21
213.64948329680411
 31
0.0
  0
LINE
  5
8E7
  8
0
 62
     0
 10
219.86651932434779
 20
213.7674832968041
 30
0.0
 11
219.99151932434779
 21
213.7674832968041
 31
0.0
  0
LINE
  5
8E8
  8
0
 62
     0
 10
219.86651932434779
 20
213.8854832968041
 30
0.0
 11
219.99151932434779
 21
213.8854832968041
 31
0.0
  0
LINE
  5
8E9
  8
0
 62
     0
 10
219.86651932434779
 20
214.00348329680409
 30
0.0
 11
219.99151932434779
 21
214.00348329680409
 31
0.0
  0
LINE
  5
8EA
  8
0
 62
     0
 10
219.86651932434779
 20
214.12148329680409
 30
0.0
 11
219.99151932434779
 21
214.12148329680409
 31
0.0
  0
LINE
  5
8EB
  8
0
 62
     0
 10
219.86651932434779
 20
214.23948329680411
 30
0.0
 11
219.99151932434779
 21
214.23948329680411
 31
0.0
  0
LINE
  5
8EC
  8
0
 62
     0
 10
219.86651932434779
 20
214.35748329680411
 30
0.0
 11
219.99151932434779
 21
214.35748329680411
 31
0.0
  0
LINE
  5
8ED
  8
0
 62
     0
 10
219.86651932434779
 20
214.4754832968041
 30
0.0
 11
219.99151932434779
 21
214.4754832968041
 31
0.0
  0
LINE
  5
8EE
  8
0
 62
     0
 10
219.86651932434779
 20
214.5934832968041
 30
0.0
 11
219.99151932434779
 21
214.5934832968041
 31
0.0
  0
LINE
  5
8EF
  8
0
 62
     0
 10
219.86651932434779
 20
214.71148329680409
 30
0.0
 11
219.99151932434779
 21
214.71148329680409
 31
0.0
  0
LINE
  5
8F0
  8
0
 62
     0
 10
219.86651932434779
 20
214.82948329680411
 30
0.0
 11
219.99151932434779
 21
214.82948329680411
 31
0.0
  0
LINE
  5
8F1
  8
0
 62
     0
 10
219.86651932434779
 20
214.94748329680411
 30
0.0
 11
219.99151932434779
 21
214.94748329680411
 31
0.0
  0
LINE
  5
8F2
  8
0
 62
     0
 10
219.86651932434779
 20
215.0654832968041
 30
0.0
 11
219.99151932434779
 21
215.0654832968041
 31
0.0
  0
LINE
  5
8F3
  8
0
 62
     0
 10
219.86651932434779
 20
215.1834832968041
 30
0.0
 11
219.99151932434779
 21
215.1834832968041
 31
0.0
  0
LINE
  5
8F4
  8
0
 62
     0
 10
219.86651932434779
 20
215.30148329680409
 30
0.0
 11
219.99151932434779
 21
215.30148329680409
 31
0.0
  0
LINE
  5
8F5
  8
0
 62
     0
 10
219.86651932434779
 20
215.41948329680409
 30
0.0
 11
219.99151932434779
 21
215.41948329680409
 31
0.0
  0
LINE
  5
8F6
  8
0
 62
     0
 10
219.86651932434779
 20
215.53748329680411
 30
0.0
 11
219.99151932434779
 21
215.53748329680411
 31
0.0
  0
LINE
  5
8F7
  8
0
 62
     0
 10
219.86651932434779
 20
215.65548329680411
 30
0.0
 11
219.99151932434779
 21
215.65548329680411
 31
0.0
  0
LINE
  5
8F8
  8
0
 62
     0
 10
219.86651932434779
 20
215.7734832968041
 30
0.0
 11
219.99151932434779
 21
215.7734832968041
 31
0.0
  0
LINE
  5
8F9
  8
0
 62
     0
 10
219.86651932434779
 20
215.8914832968041
 30
0.0
 11
219.99151932434779
 21
215.8914832968041
 31
0.0
  0
LINE
  5
8FA
  8
0
 62
     0
 10
219.86651932434779
 20
216.00948329680409
 30
0.0
 11
219.99151932434779
 21
216.00948329680409
 31
0.0
  0
LINE
  5
8FB
  8
0
 62
     0
 10
219.86651932434779
 20
216.12748329680409
 30
0.0
 11
219.99151932434779
 21
216.12748329680409
 31
0.0
  0
LINE
  5
8FC
  8
0
 62
     0
 10
219.86651932434779
 20
216.24548329680411
 30
0.0
 11
219.99151932434779
 21
216.24548329680411
 31
0.0
  0
LINE
  5
8FD
  8
0
 62
     0
 10
219.86651932434779
 20
216.36348329680411
 30
0.0
 11
219.99151932434779
 21
216.36348329680411
 31
0.0
  0
LINE
  5
8FE
  8
0
 62
     0
 10
219.86651932434779
 20
216.4814832968041
 30
0.0
 11
219.99151932434779
 21
216.4814832968041
 31
0.0
  0
LINE
  5
8FF
  8
0
 62
     0
 10
219.86651932434779
 20
216.5994832968041
 30
0.0
 11
219.99151932434779
 21
216.5994832968041
 31
0.0
  0
LINE
  5
900
  8
0
 62
     0
 10
219.86651932434779
 20
216.71748329680409
 30
0.0
 11
219.99151932434779
 21
216.71748329680409
 31
0.0
  0
LINE
  5
901
  8
0
 62
     0
 10
219.86651932434779
 20
216.83548329680411
 30
0.0
 11
219.99151932434779
 21
216.83548329680411
 31
0.0
  0
LINE
  5
902
  8
0
 62
     0
 10
219.86651932434779
 20
216.95348329680411
 30
0.0
 11
219.99151932434779
 21
216.95348329680411
 31
0.0
  0
LINE
  5
903
  8
0
 62
     0
 10
219.86651932434779
 20
217.0714832968041
 30
0.0
 11
219.99151932434779
 21
217.0714832968041
 31
0.0
  0
LINE
  5
904
  8
0
 62
     0
 10
219.86651932434779
 20
217.1894832968041
 30
0.0
 11
219.99151932434779
 21
217.1894832968041
 31
0.0
  0
LINE
  5
905
  8
0
 62
     0
 10
219.86651932434779
 20
217.30748329680409
 30
0.0
 11
219.99151932434779
 21
217.30748329680409
 31
0.0
  0
LINE
  5
906
  8
0
 62
     0
 10
219.86651932434779
 20
217.42548329680409
 30
0.0
 11
219.99151932434779
 21
217.42548329680409
 31
0.0
  0
LINE
  5
907
  8
0
 62
     0
 10
219.86651932434779
 20
217.54348329680411
 30
0.0
 11
219.99151932434779
 21
217.54348329680411
 31
0.0
  0
LINE
  5
908
  8
0
 62
     0
 10
219.86651932434779
 20
217.66148329680411
 30
0.0
 11
219.99151932434779
 21
217.66148329680411
 31
0.0
  0
LINE
  5
909
  8
0
 62
     0
 10
219.86651932434779
 20
217.7794832968041
 30
0.0
 11
219.99151932434779
 21
217.7794832968041
 31
0.0
  0
LINE
  5
90A
  8
0
 62
     0
 10
219.86651932434779
 20
217.8974832968041
 30
0.0
 11
219.99151932434779
 21
217.8974832968041
 31
0.0
  0
LINE
  5
90B
  8
0
 62
     0
 10
219.86651932434779
 20
218.01548329680409
 30
0.0
 11
219.99151932434779
 21
218.01548329680409
 31
0.0
  0
LINE
  5
90C
  8
0
 62
     0
 10
219.86651932434779
 20
218.13348329680409
 30
0.0
 11
219.99151932434779
 21
218.13348329680409
 31
0.0
  0
LINE
  5
90D
  8
0
 62
     0
 10
219.86651932434779
 20
218.25148329680411
 30
0.0
 11
219.99151932434779
 21
218.25148329680411
 31
0.0
  0
LINE
  5
90E
  8
0
 62
     0
 10
219.86651932434779
 20
218.36948329680411
 30
0.0
 11
219.99151932434779
 21
218.36948329680411
 31
0.0
  0
LINE
  5
90F
  8
0
 62
     0
 10
219.86651932434779
 20
218.4874832968041
 30
0.0
 11
219.99151932434779
 21
218.4874832968041
 31
0.0
  0
LINE
  5
910
  8
0
 62
     0
 10
219.86651932434779
 20
218.6054832968041
 30
0.0
 11
219.99151932434779
 21
218.6054832968041
 31
0.0
  0
LINE
  5
911
  8
0
 62
     0
 10
219.86651932434779
 20
218.72348329680409
 30
0.0
 11
219.99151932434779
 21
218.72348329680409
 31
0.0
  0
LINE
  5
912
  8
0
 62
     0
 10
219.86651932434779
 20
218.84148329680411
 30
0.0
 11
219.99151932434779
 21
218.84148329680411
 31
0.0
  0
LINE
  5
913
  8
0
 62
     0
 10
219.86651932434779
 20
218.95948329680411
 30
0.0
 11
219.99151932434779
 21
218.95948329680411
 31
0.0
  0
LINE
  5
914
  8
0
 62
     0
 10
219.86651932434779
 20
219.0774832968041
 30
0.0
 11
219.99151932434779
 21
219.0774832968041
 31
0.0
  0
LINE
  5
915
  8
0
 62
     0
 10
219.86651932434779
 20
219.1954832968041
 30
0.0
 11
219.99151932434779
 21
219.1954832968041
 31
0.0
  0
LINE
  5
916
  8
0
 62
     0
 10
219.86651932434779
 20
219.31348329680409
 30
0.0
 11
219.99151932434779
 21
219.31348329680409
 31
0.0
  0
LINE
  5
917
  8
0
 62
     0
 10
219.86651932434779
 20
219.43148329680409
 30
0.0
 11
219.99151932434779
 21
219.43148329680409
 31
0.0
  0
LINE
  5
918
  8
0
 62
     0
 10
219.86651932434779
 20
219.54948329680411
 30
0.0
 11
219.99151932434779
 21
219.54948329680411
 31
0.0
  0
LINE
  5
919
  8
0
 62
     0
 10
219.86651932434779
 20
219.66748329680411
 30
0.0
 11
219.99151932434779
 21
219.66748329680411
 31
0.0
  0
LINE
  5
91A
  8
0
 62
     0
 10
219.86651932434779
 20
219.7854832968041
 30
0.0
 11
219.99151932434779
 21
219.7854832968041
 31
0.0
  0
LINE
  5
91B
  8
0
 62
     0
 10
219.86651932434779
 20
219.9034832968041
 30
0.0
 11
219.99151932434779
 21
219.9034832968041
 31
0.0
  0
LINE
  5
91C
  8
0
 62
     0
 10
219.86651932434779
 20
220.02148329680409
 30
0.0
 11
219.99151932434779
 21
220.02148329680409
 31
0.0
  0
LINE
  5
91D
  8
0
 62
     0
 10
219.86651932434779
 20
220.13948329680409
 30
0.0
 11
219.99151932434779
 21
220.13948329680409
 31
0.0
  0
LINE
  5
91E
  8
0
 62
     0
 10
219.86651932434779
 20
220.25748329680411
 30
0.0
 11
219.99151932434779
 21
220.25748329680411
 31
0.0
  0
LINE
  5
91F
  8
0
 62
     0
 10
219.86651932434779
 20
220.37548329680411
 30
0.0
 11
219.99151932434779
 21
220.37548329680411
 31
0.0
  0
LINE
  5
920
  8
0
 62
     0
 10
219.86651932434779
 20
220.4934832968041
 30
0.0
 11
219.99151932434779
 21
220.4934832968041
 31
0.0
  0
LINE
  5
921
  8
0
 62
     0
 10
219.86651932434779
 20
220.6114832968041
 30
0.0
 11
219.99151932434779
 21
220.6114832968041
 31
0.0
  0
LINE
  5
922
  8
0
 62
     0
 10
219.86651932434779
 20
220.72948329680409
 30
0.0
 11
219.99151932434779
 21
220.72948329680409
 31
0.0
  0
LINE
  5
923
  8
0
 62
     0
 10
219.86651932434779
 20
220.84748329680411
 30
0.0
 11
219.99151932434779
 21
220.84748329680411
 31
0.0
  0
LINE
  5
924
  8
0
 62
     0
 10
219.86651932434779
 20
220.96548329680411
 30
0.0
 11
219.99151932434779
 21
220.96548329680411
 31
0.0
  0
LINE
  5
925
  8
0
 62
     0
 10
219.86651932434779
 20
221.0834832968041
 30
0.0
 11
219.99151932434779
 21
221.0834832968041
 31
0.0
  0
LINE
  5
926
  8
0
 62
     0
 10
219.86651932434779
 20
221.2014832968041
 30
0.0
 11
219.99151932434779
 21
221.2014832968041
 31
0.0
  0
LINE
  5
927
  8
0
 62
     0
 10
219.86651932434779
 20
221.31948329680409
 30
0.0
 11
219.99151932434779
 21
221.31948329680409
 31
0.0
  0
LINE
  5
928
  8
0
 62
     0
 10
219.86651932434779
 20
221.43748329680409
 30
0.0
 11
219.99151932434779
 21
221.43748329680409
 31
0.0
  0
LINE
  5
929
  8
0
 62
     0
 10
219.86651932434779
 20
221.55548329680411
 30
0.0
 11
219.99151932434779
 21
221.55548329680411
 31
0.0
  0
LINE
  5
92A
  8
0
 62
     0
 10
219.86651932434779
 20
221.67348329680411
 30
0.0
 11
219.99151932434779
 21
221.67348329680411
 31
0.0
  0
LINE
  5
92B
  8
0
 62
     0
 10
219.86651932434779
 20
221.7914832968041
 30
0.0
 11
219.99151932434779
 21
221.7914832968041
 31
0.0
  0
LINE
  5
92C
  8
0
 62
     0
 10
219.86651932434779
 20
221.9094832968041
 30
0.0
 11
219.99151932434779
 21
221.9094832968041
 31
0.0
  0
LINE
  5
92D
  8
0
 62
     0
 10
219.86651932434779
 20
222.02748329680409
 30
0.0
 11
219.99151932434779
 21
222.02748329680409
 31
0.0
  0
LINE
  5
92E
  8
0
 62
     0
 10
219.86651932434779
 20
222.14548329680409
 30
0.0
 11
219.99151932434779
 21
222.14548329680409
 31
0.0
  0
LINE
  5
92F
  8
0
 62
     0
 10
219.86651932434779
 20
222.26348329680411
 30
0.0
 11
219.99151932434779
 21
222.26348329680411
 31
0.0
  0
LINE
  5
930
  8
0
 62
     0
 10
219.86651932434779
 20
222.38148329680411
 30
0.0
 11
219.99151932434779
 21
222.38148329680411
 31
0.0
  0
LINE
  5
931
  8
0
 62
     0
 10
219.86651932434779
 20
222.4994832968041
 30
0.0
 11
219.99151932434779
 21
222.4994832968041
 31
0.0
  0
LINE
  5
932
  8
0
 62
     0
 10
219.86651932434779
 20
222.6174832968041
 30
0.0
 11
219.99151932434779
 21
222.6174832968041
 31
0.0
  0
LINE
  5
933
  8
0
 62
     0
 10
219.86651932434779
 20
222.73548329680409
 30
0.0
 11
219.99151932434779
 21
222.73548329680409
 31
0.0
  0
LINE
  5
934
  8
0
 62
     0
 10
219.86651932434779
 20
222.85348329680409
 30
0.0
 11
219.99151932434779
 21
222.85348329680409
 31
0.0
  0
LINE
  5
935
  8
0
 62
     0
 10
219.86651932434779
 20
222.97148329680411
 30
0.0
 11
219.99151932434779
 21
222.97148329680411
 31
0.0
  0
LINE
  5
936
  8
0
 62
     0
 10
219.86651932434779
 20
223.0894832968041
 30
0.0
 11
219.99151932434779
 21
223.0894832968041
 31
0.0
  0
LINE
  5
937
  8
0
 62
     0
 10
219.86651932434779
 20
223.2074832968041
 30
0.0
 11
219.99151932434779
 21
223.2074832968041
 31
0.0
  0
LINE
  5
938
  8
0
 62
     0
 10
219.86651932434779
 20
223.32548329680409
 30
0.0
 11
219.99151932434779
 21
223.32548329680409
 31
0.0
  0
LINE
  5
939
  8
0
 62
     0
 10
219.86651932434779
 20
223.44348329680409
 30
0.0
 11
219.99151932434779
 21
223.44348329680409
 31
0.0
  0
LINE
  5
93A
  8
0
 62
     0
 10
219.86651932434779
 20
223.56148329680411
 30
0.0
 11
219.99151932434779
 21
223.56148329680411
 31
0.0
  0
LINE
  5
93B
  8
0
 62
     0
 10
219.86651932434779
 20
223.67948329680411
 30
0.0
 11
219.99151932434779
 21
223.67948329680411
 31
0.0
  0
LINE
  5
93C
  8
0
 62
     0
 10
219.86651932434779
 20
223.7974832968041
 30
0.0
 11
219.99151932434779
 21
223.7974832968041
 31
0.0
  0
LINE
  5
93D
  8
0
 62
     0
 10
219.86651932434779
 20
223.9154832968041
 30
0.0
 11
219.99151932434779
 21
223.9154832968041
 31
0.0
  0
LINE
  5
93E
  8
0
 62
     0
 10
219.86651932434779
 20
224.03348329680409
 30
0.0
 11
219.99151932434779
 21
224.03348329680409
 31
0.0
  0
LINE
  5
93F
  8
0
 62
     0
 10
219.86651932434779
 20
224.15148329680409
 30
0.0
 11
219.99151932434779
 21
224.15148329680409
 31
0.0
  0
LINE
  5
940
  8
0
 62
     0
 10
219.86651932434779
 20
224.26948329680411
 30
0.0
 11
219.99151932434779
 21
224.26948329680411
 31
0.0
  0
LINE
  5
941
  8
0
 62
     0
 10
219.86651932434779
 20
224.38748329680411
 30
0.0
 11
219.99151932434779
 21
224.38748329680411
 31
0.0
  0
LINE
  5
942
  8
0
 62
     0
 10
219.86651932434779
 20
224.5054832968041
 30
0.0
 11
219.99151932434779
 21
224.5054832968041
 31
0.0
  0
LINE
  5
943
  8
0
 62
     0
 10
219.86651932434779
 20
224.6234832968041
 30
0.0
 11
219.99151932434779
 21
224.6234832968041
 31
0.0
  0
LINE
  5
944
  8
0
 62
     0
 10
219.86651932434779
 20
224.74148329680409
 30
0.0
 11
219.99151932434779
 21
224.74148329680409
 31
0.0
  0
LINE
  5
945
  8
0
 62
     0
 10
219.86651932434779
 20
224.85948329680409
 30
0.0
 11
219.99151932434779
 21
224.85948329680409
 31
0.0
  0
LINE
  5
946
  8
0
 62
     0
 10
219.86651932434779
 20
224.97748329680411
 30
0.0
 11
219.99151932434779
 21
224.97748329680411
 31
0.0
  0
LINE
  5
947
  8
0
 62
     0
 10
219.86651932434779
 20
225.0954832968041
 30
0.0
 11
219.99151932434779
 21
225.0954832968041
 31
0.0
  0
LINE
  5
948
  8
0
 62
     0
 10
219.86651932434779
 20
225.2134832968041
 30
0.0
 11
219.99151932434779
 21
225.2134832968041
 31
0.0
  0
LINE
  5
949
  8
0
 62
     0
 10
219.86651932434779
 20
225.33148329680409
 30
0.0
 11
219.99151932434779
 21
225.33148329680409
 31
0.0
  0
LINE
  5
94A
  8
0
 62
     0
 10
219.86651932434779
 20
225.44948329680409
 30
0.0
 11
219.99151932434779
 21
225.44948329680409
 31
0.0
  0
LINE
  5
94B
  8
0
 62
     0
 10
219.86651932434779
 20
225.56748329680411
 30
0.0
 11
219.99151932434779
 21
225.56748329680411
 31
0.0
  0
LINE
  5
94C
  8
0
 62
     0
 10
219.86651932434779
 20
225.68548329680411
 30
0.0
 11
219.99151932434779
 21
225.68548329680411
 31
0.0
  0
LINE
  5
94D
  8
0
 62
     0
 10
219.86651932434779
 20
225.8034832968041
 30
0.0
 11
219.99151932434779
 21
225.8034832968041
 31
0.0
  0
LINE
  5
94E
  8
0
 62
     0
 10
219.86651932434779
 20
225.9214832968041
 30
0.0
 11
219.99151932434779
 21
225.9214832968041
 31
0.0
  0
LINE
  5
94F
  8
0
 62
     0
 10
219.86651932434779
 20
226.03948329680409
 30
0.0
 11
219.99151932434779
 21
226.03948329680409
 31
0.0
  0
LINE
  5
950
  8
0
 62
     0
 10
219.86651932434779
 20
226.15748329680409
 30
0.0
 11
219.99151932434779
 21
226.15748329680409
 31
0.0
  0
LINE
  5
951
  8
0
 62
     0
 10
219.86651932434779
 20
226.27548329680411
 30
0.0
 11
219.99151932434779
 21
226.27548329680411
 31
0.0
  0
LINE
  5
952
  8
0
 62
     0
 10
219.86651932434779
 20
226.39348329680411
 30
0.0
 11
219.99151932434779
 21
226.39348329680411
 31
0.0
  0
LINE
  5
953
  8
0
 62
     0
 10
219.86651932434779
 20
226.5114832968041
 30
0.0
 11
219.99151932434779
 21
226.5114832968041
 31
0.0
  0
LINE
  5
954
  8
0
 62
     0
 10
219.86651932434779
 20
226.6294832968041
 30
0.0
 11
219.99151932434779
 21
226.6294832968041
 31
0.0
  0
LINE
  5
955
  8
0
 62
     0
 10
219.86651932434779
 20
226.74748329680409
 30
0.0
 11
219.99151932434779
 21
226.74748329680409
 31
0.0
  0
LINE
  5
956
  8
0
 62
     0
 10
219.86651932434779
 20
226.86548329680409
 30
0.0
 11
219.99151932434779
 21
226.86548329680409
 31
0.0
  0
LINE
  5
957
  8
0
 62
     0
 10
219.86651932434779
 20
226.98348329680411
 30
0.0
 11
219.99151932434779
 21
226.98348329680411
 31
0.0
  0
LINE
  5
958
  8
0
 62
     0
 10
219.86651932434779
 20
227.1014832968041
 30
0.0
 11
219.99151932434779
 21
227.1014832968041
 31
0.0
  0
LINE
  5
959
  8
0
 62
     0
 10
219.86651932434779
 20
227.2194832968041
 30
0.0
 11
219.99151932434779
 21
227.2194832968041
 31
0.0
  0
LINE
  5
95A
  8
0
 62
     0
 10
219.86651932434779
 20
227.33748329680409
 30
0.0
 11
219.99151932434779
 21
227.33748329680409
 31
0.0
  0
LINE
  5
95B
  8
0
 62
     0
 10
219.86651932434779
 20
227.45548329680409
 30
0.0
 11
219.99151932434779
 21
227.45548329680409
 31
0.0
  0
LINE
  5
95C
  8
0
 62
     0
 10
219.86651932434779
 20
227.57348329680411
 30
0.0
 11
219.99151932434779
 21
227.57348329680411
 31
0.0
  0
LINE
  5
95D
  8
0
 62
     0
 10
219.86651932434779
 20
227.69148329680411
 30
0.0
 11
219.99151932434779
 21
227.69148329680411
 31
0.0
  0
LINE
  5
95E
  8
0
 62
     0
 10
219.86651932434779
 20
227.8094832968041
 30
0.0
 11
219.99151932434779
 21
227.8094832968041
 31
0.0
  0
LINE
  5
95F
  8
0
 62
     0
 10
219.86651932434779
 20
227.9274832968041
 30
0.0
 11
219.99151932434779
 21
227.9274832968041
 31
0.0
  0
LINE
  5
960
  8
0
 62
     0
 10
219.86651932434779
 20
228.04548329680409
 30
0.0
 11
219.99151932434779
 21
228.04548329680409
 31
0.0
  0
LINE
  5
961
  8
0
 62
     0
 10
219.86651932434779
 20
228.16348329680409
 30
0.0
 11
219.99151932434779
 21
228.16348329680409
 31
0.0
  0
LINE
  5
962
  8
0
 62
     0
 10
219.86651932434779
 20
228.28148329680411
 30
0.0
 11
219.99151932434779
 21
228.28148329680411
 31
0.0
  0
LINE
  5
963
  8
0
 62
     0
 10
219.86651932434779
 20
228.39948329680411
 30
0.0
 11
219.99151932434779
 21
228.39948329680411
 31
0.0
  0
LINE
  5
964
  8
0
 62
     0
 10
219.86651932434779
 20
228.5174832968041
 30
0.0
 11
219.99151932434779
 21
228.5174832968041
 31
0.0
  0
LINE
  5
965
  8
0
 62
     0
 10
219.86651932434779
 20
228.63548329680401
 30
0.0
 11
219.99151932434779
 21
228.63548329680401
 31
0.0
  0
LINE
  5
966
  8
0
 62
     0
 10
219.86651932434779
 20
228.75348329680409
 30
0.0
 11
219.99151932434779
 21
228.75348329680409
 31
0.0
  0
LINE
  5
967
  8
0
 62
     0
 10
219.86651932434779
 20
228.87148329680409
 30
0.0
 11
219.99151932434779
 21
228.87148329680409
 31
0.0
  0
LINE
  5
968
  8
0
 62
     0
 10
219.86651932434779
 20
228.98948329680411
 30
0.0
 11
219.99151932434779
 21
228.98948329680411
 31
0.0
  0
LINE
  5
969
  8
0
 62
     0
 10
219.86651932434779
 20
229.10748329680411
 30
0.0
 11
219.99151932434779
 21
229.10748329680411
 31
0.0
  0
LINE
  5
96A
  8
0
 62
     0
 10
219.86651932434779
 20
229.2254832968041
 30
0.0
 11
219.99151932434779
 21
229.2254832968041
 31
0.0
  0
LINE
  5
96B
  8
0
 62
     0
 10
219.86651932434779
 20
229.3434832968041
 30
0.0
 11
219.99151932434779
 21
229.3434832968041
 31
0.0
  0
LINE
  5
96C
  8
0
 62
     0
 10
219.86651932434779
 20
229.46148329680409
 30
0.0
 11
219.99151932434779
 21
229.46148329680409
 31
0.0
  0
LINE
  5
96D
  8
0
 62
     0
 10
219.86651932434779
 20
229.57948329680411
 30
0.0
 11
219.99151932434779
 21
229.57948329680411
 31
0.0
  0
LINE
  5
96E
  8
0
 62
     0
 10
219.86651932434779
 20
229.69748329680411
 30
0.0
 11
219.99151932434779
 21
229.69748329680411
 31
0.0
  0
LINE
  5
96F
  8
0
 62
     0
 10
219.86651932434779
 20
229.8154832968041
 30
0.0
 11
219.99151932434779
 21
229.8154832968041
 31
0.0
  0
LINE
  5
970
  8
0
 62
     0
 10
219.86651932434779
 20
229.9334832968041
 30
0.0
 11
219.99151932434779
 21
229.9334832968041
 31
0.0
  0
LINE
  5
971
  8
0
 62
     0
 10
219.86651932434779
 20
230.05148329680409
 30
0.0
 11
219.99151932434779
 21
230.05148329680409
 31
0.0
  0
LINE
  5
972
  8
0
 62
     0
 10
219.86651932434779
 20
230.16948329680409
 30
0.0
 11
219.99151932434779
 21
230.16948329680409
 31
0.0
  0
LINE
  5
973
  8
0
 62
     0
 10
219.86651932434779
 20
230.28748329680411
 30
0.0
 11
219.99151932434779
 21
230.28748329680411
 31
0.0
  0
LINE
  5
974
  8
0
 62
     0
 10
219.86651932434779
 20
230.40548329680411
 30
0.0
 11
219.99151932434779
 21
230.40548329680411
 31
0.0
  0
LINE
  5
975
  8
0
 62
     0
 10
219.86651932434779
 20
230.5234832968041
 30
0.0
 11
219.99151932434779
 21
230.5234832968041
 31
0.0
  0
LINE
  5
976
  8
0
 62
     0
 10
219.86651932434779
 20
230.6414832968041
 30
0.0
 11
219.99151932434779
 21
230.6414832968041
 31
0.0
  0
LINE
  5
977
  8
0
 62
     0
 10
219.86651932434779
 20
230.75948329680409
 30
0.0
 11
219.99151932434779
 21
230.75948329680409
 31
0.0
  0
LINE
  5
978
  8
0
 62
     0
 10
219.86651932434779
 20
230.87748329680409
 30
0.0
 11
219.99151932434779
 21
230.87748329680409
 31
0.0
  0
LINE
  5
979
  8
0
 62
     0
 10
219.86651932434779
 20
230.99548329680411
 30
0.0
 11
219.99151932434779
 21
230.99548329680411
 31
0.0
  0
LINE
  5
97A
  8
0
 62
     0
 10
219.86651932434779
 20
231.11348329680411
 30
0.0
 11
219.99151932434779
 21
231.11348329680411
 31
0.0
  0
LINE
  5
97B
  8
0
 62
     0
 10
219.86651932434779
 20
231.2314832968041
 30
0.0
 11
219.99151932434779
 21
231.2314832968041
 31
0.0
  0
LINE
  5
97C
  8
0
 62
     0
 10
219.86651932434779
 20
231.3494832968041
 30
0.0
 11
219.99151932434779
 21
231.3494832968041
 31
0.0
  0
LINE
  5
97D
  8
0
 62
     0
 10
219.86651932434779
 20
231.46748329680409
 30
0.0
 11
219.99151932434779
 21
231.46748329680409
 31
0.0
  0
LINE
  5
97E
  8
0
 62
     0
 10
219.86651932434779
 20
231.58548329680411
 30
0.0
 11
219.99151932434779
 21
231.58548329680411
 31
0.0
  0
LINE
  5
97F
  8
0
 62
     0
 10
219.86651932434779
 20
231.70348329680411
 30
0.0
 11
219.99151932434779
 21
231.70348329680411
 31
0.0
  0
LINE
  5
980
  8
0
 62
     0
 10
219.86651932434779
 20
231.8214832968041
 30
0.0
 11
219.99151932434779
 21
231.8214832968041
 31
0.0
  0
LINE
  5
981
  8
0
 62
     0
 10
219.86651932434779
 20
231.9394832968041
 30
0.0
 11
219.99151932434779
 21
231.9394832968041
 31
0.0
  0
LINE
  5
982
  8
0
 62
     0
 10
219.86651932434779
 20
232.05748329680409
 30
0.0
 11
219.99151932434779
 21
232.05748329680409
 31
0.0
  0
LINE
  5
983
  8
0
 62
     0
 10
219.86651932434779
 20
232.17548329680409
 30
0.0
 11
219.99151932434779
 21
232.17548329680409
 31
0.0
  0
LINE
  5
984
  8
0
 62
     0
 10
219.86651932434779
 20
232.29348329680411
 30
0.0
 11
219.99151932434779
 21
232.29348329680411
 31
0.0
  0
LINE
  5
985
  8
0
 62
     0
 10
219.86651932434779
 20
232.41148329680411
 30
0.0
 11
219.99151932434779
 21
232.41148329680411
 31
0.0
  0
LINE
  5
986
  8
0
 62
     0
 10
219.86651932434779
 20
232.5294832968041
 30
0.0
 11
219.99151932434779
 21
232.5294832968041
 31
0.0
  0
LINE
  5
987
  8
0
 62
     0
 10
219.86651932434779
 20
232.6474832968041
 30
0.0
 11
219.99151932434779
 21
232.6474832968041
 31
0.0
  0
LINE
  5
988
  8
0
 62
     0
 10
219.86651932434779
 20
232.76548329680409
 30
0.0
 11
219.99151932434779
 21
232.76548329680409
 31
0.0
  0
ENDBLK
  5
98A
  8
0
  0
BLOCK
  8
0
  2
*X5
 70
     1
 10
0.0
 20
0.0
 30
0.0
  3
*X5
  1

  0
LINE
  5
9B2
  8
0
 62
     0
 10
150.62183614585089
 20
246.0
 30
0.0
 11
136.86833165059051
 21
246.0
 31
0.0
  0
LINE
  5
9B3
  8
0
 62
     0
 10
150.62183614585089
 20
244.5
 30
0.0
 11
136.86833165059051
 21
244.5
 31
0.0
  0
LINE
  5
9B4
  8
0
 62
     0
 10
150.62183614585089
 20
243.0
 30
0.0
 11
136.86833165059051
 21
243.0
 31
0.0
  0
LINE
  5
9B5
  8
0
 62
     0
 10
150.62183614585089
 20
241.5
 30
0.0
 11
136.86833165059051
 21
241.5
 31
0.0
  0
LINE
  5
9B6
  8
0
 62
     0
 10
150.62183614585089
 20
240.0
 30
0.0
 11
136.86833165059051
 21
240.0
 31
0.0
  0
LINE
  5
9B7
  8
0
 62
     0
 10
150.62183614585081
 20
238.5
 30
0.0
 11
136.86833165059051
 21
238.5
 31
0.0
  0
LINE
  5
9B8
  8
0
 62
     0
 10
150.62183614585081
 20
237.0
 30
0.0
 11
136.86833165059051
 21
237.0
 31
0.0
  0
LINE
  5
9B9
  8
0
 62
     0
 10
150.62183614585081
 20
235.5
 30
0.0
 11
136.86833165059051
 21
235.5
 31
0.0
  0
LINE
  5
9BA
  8
0
 62
     0
 10
150.62183614585081
 20
234.0
 30
0.0
 11
136.86833165059039
 21
234.0
 31
0.0
  0
LINE
  5
9BB
  8
0
 62
     0
 10
150.62183614585081
 20
232.5
 30
0.0
 11
136.86833165059039
 21
232.5
 31
0.0
  0
LINE
  5
9BC
  8
0
 62
     0
 10
150.62183614585081
 20
231.0
 30
0.0
 11
136.86833165059039
 21
231.0
 31
0.0
  0
LINE
  5
9BD
  8
0
 62
     0
 10
150.62183614585081
 20
229.5
 30
0.0
 11
136.86833165059039
 21
229.5
 31
0.0
  0
LINE
  5
9BE
  8
0
 62
     0
 10
150.62183614585081
 20
228.0
 30
0.0
 11
136.86833165059039
 21
228.0
 31
0.0
  0
LINE
  5
9BF
  8
0
 62
     0
 10
150.62183614585081
 20
226.5
 30
0.0
 11
136.86833165059039
 21
226.5
 31
0.0
  0
LINE
  5
9C0
  8
0
 62
     0
 10
150.62183614585081
 20
225.0
 30
0.0
 11
136.86833165059039
 21
225.0
 31
0.0
  0
LINE
  5
9C1
  8
0
 62
     0
 10
150.62183614585081
 20
223.5
 30
0.0
 11
136.86833165059039
 21
223.5
 31
0.0
  0
LINE
  5
9C2
  8
0
 62
     0
 10
150.62183614585081
 20
222.0
 30
0.0
 11
136.86833165059039
 21
222.0
 31
0.0
  0
LINE
  5
9C3
  8
0
 62
     0
 10
150.62183614585081
 20
220.5
 30
0.0
 11
136.86833165059039
 21
220.5
 31
0.0
  0
LINE
  5
9C4
  8
0
 62
     0
 10
150.62183614585069
 20
219.0
 30
0.0
 11
136.86833165059039
 21
219.0
 31
0.0
  0
LINE
  5
9C5
  8
0
 62
     0
 10
150.62183614585069
 20
217.5
 30
0.0
 11
136.86833165059039
 21
217.5
 31
0.0
  0
LINE
  5
9C6
  8
0
 62
     0
 10
150.62183614585069
 20
216.0
 30
0.0
 11
136.86833165059039
 21
216.0
 31
0.0
  0
LINE
  5
9C7
  8
0
 62
     0
 10
150.62183614585069
 20
214.5
 30
0.0
 11
136.86833165059039
 21
214.5
 31
0.0
  0
LINE
  5
9C8
  8
0
 62
     0
 10
150.62183614585069
 20
213.0
 30
0.0
 11
136.86833165059039
 21
213.0
 31
0.0
  0
LINE
  5
9C9
  8
0
 62
     0
 10
150.62183614585069
 20
211.5
 30
0.0
 11
136.86833165059039
 21
211.5
 31
0.0
  0
LINE
  5
9CA
  8
0
 62
     0
 10
150.62183614585069
 20
210.0
 30
0.0
 11
136.86833165059039
 21
210.0
 31
0.0
  0
LINE
  5
9CB
  8
0
 62
     0
 10
150.62183614585069
 20
208.5
 30
0.0
 11
136.86833165059039
 21
208.5
 31
0.0
  0
LINE
  5
9CC
  8
0
 62
     0
 10
150.62183614585069
 20
207.0
 30
0.0
 11
136.86833165059039
 21
207.0
 31
0.0
  0
LINE
  5
9CD
  8
0
 62
     0
 10
150.62183614585069
 20
205.5
 30
0.0
 11
136.86833165059039
 21
205.5
 31
0.0
  0
LINE
  5
9CE
  8
0
 62
     0
 10
150.62183614585069
 20
204.0
 30
0.0
 11
136.86833165059039
 21
204.0
 31
0.0
  0
LINE
  5
9CF
  8
0
 62
     0
 10
150.62183614585069
 20
202.5
 30
0.0
 11
136.86833165059039
 21
202.5
 31
0.0
  0
LINE
  5
9D0
  8
0
 62
     0
 10
150.62183614585069
 20
201.0
 30
0.0
 11
136.86833165059031
 21
201.0
 31
0.0
  0
LINE
  5
9D1
  8
0
 62
     0
 10
150.62183614585061
 20
199.49999999999989
 30
0.0
 11
136.86833165059031
 21
199.49999999999989
 31
0.0
  0
LINE
  5
9D2
  8
0
 62
     0
 10
150.62183614585061
 20
198.0
 30
0.0
 11
136.86833165059031
 21
198.0
 31
0.0
  0
LINE
  5
9D3
  8
0
 62
     0
 10
150.62183614585061
 20
196.5
 30
0.0
 11
136.86833165059031
 21
196.5
 31
0.0
  0
LINE
  5
9D4
  8
0
 62
     0
 10
150.62183614585061
 20
195.0
 30
0.0
 11
136.86833165059031
 21
195.0
 31
0.0
  0
LINE
  5
9D5
  8
0
 62
     0
 10
150.62183614585061
 20
193.5
 30
0.0
 11
136.86833165059031
 21
193.5
 31
0.0
  0
LINE
  5
9D6
  8
0
 62
     0
 10
150.62183614585061
 20
191.99999999999989
 30
0.0
 11
136.86833165059031
 21
191.99999999999989
 31
0.0
  0
LINE
  5
9D7
  8
0
 62
     0
 10
150.62183614585061
 20
190.5
 30
0.0
 11
136.86833165059031
 21
190.5
 31
0.0
  0
LINE
  5
9D8
  8
0
 62
     0
 10
150.62183614585061
 20
188.99999999999989
 30
0.0
 11
136.86833165059031
 21
188.99999999999989
 31
0.0
  0
LINE
  5
9D9
  8
0
 62
     0
 10
150.62183614585061
 20
187.5
 30
0.0
 11
136.86833165059031
 21
187.5
 31
0.0
  0
LINE
  5
9DA
  8
0
 62
     0
 10
150.62183614585049
 20
185.99999999999989
 30
0.0
 11
136.86833165059031
 21
185.99999999999989
 31
0.0
  0
LINE
  5
9DB
  8
0
 62
     0
 10
150.62183614585049
 20
184.49999999999989
 30
0.0
 11
136.86833165059031
 21
184.49999999999989
 31
0.0
  0
LINE
  5
9DC
  8
0
 62
     0
 10
150.62183614585049
 20
183.0
 30
0.0
 11
136.86833165059031
 21
183.0
 31
0.0
  0
LINE
  5
9DD
  8
0
 62
     0
 10
150.62183614585049
 20
181.49999999999989
 30
0.0
 11
136.86833165059031
 21
181.49999999999989
 31
0.0
  0
LINE
  5
9DE
  8
0
 62
     0
 10
150.62183614585049
 20
180.0
 30
0.0
 11
136.86833165059031
 21
180.0
 31
0.0
  0
LINE
  5
9DF
  8
0
 62
     0
 10
150.62183614585049
 20
178.49999999999989
 30
0.0
 11
136.86833165059031
 21
178.49999999999989
 31
0.0
  0
LINE
  5
9E0
  8
0
 62
     0
 10
150.62183614585049
 20
177.0
 30
0.0
 11
136.86833165059031
 21
177.0
 31
0.0
  0
LINE
  5
9E1
  8
0
 62
     0
 10
150.62183614585049
 20
175.49999999999989
 30
0.0
 11
136.86833165059031
 21
175.49999999999989
 31
0.0
  0
LINE
  5
9E2
  8
0
 62
     0
 10
150.62183614585049
 20
174.0
 30
0.0
 11
136.86833165059031
 21
174.0
 31
0.0
  0
LINE
  5
9E3
  8
0
 62
     0
 10
150.62183614585049
 20
172.49999999999989
 30
0.0
 11
136.86833165059031
 21
172.49999999999989
 31
0.0
  0
LINE
  5
9E4
  8
0
 62
     0
 10
150.62183614585041
 20
170.99999999999989
 30
0.0
 11
136.86833165059031
 21
170.99999999999989
 31
0.0
  0
LINE
  5
9E5
  8
0
 62
     0
 10
150.62183614585041
 20
169.5
 30
0.0
 11
136.86833165059031
 21
169.5
 31
0.0
  0
LINE
  5
9E6
  8
0
 62
     0
 10
150.62183614585041
 20
167.99999999999989
 30
0.0
 11
136.86833165059019
 21
167.99999999999989
 31
0.0
  0
LINE
  5
9E7
  8
0
 62
     0
 10
150.62183614585041
 20
166.5
 30
0.0
 11
136.86833165059019
 21
166.5
 31
0.0
  0
LINE
  5
9E8
  8
0
 62
     0
 10
150.62183614585041
 20
164.99999999999989
 30
0.0
 11
136.86833165059019
 21
164.99999999999989
 31
0.0
  0
LINE
  5
9E9
  8
0
 62
     0
 10
150.62183614585041
 20
163.49999999999989
 30
0.0
 11
136.86833165059019
 21
163.49999999999989
 31
0.0
  0
LINE
  5
9EA
  8
0
 62
     0
 10
150.62183614585041
 20
161.99999999999989
 30
0.0
 11
136.86833165059019
 21
161.99999999999989
 31
0.0
  0
LINE
  5
9EB
  8
0
 62
     0
 10
150.62183614585041
 20
160.49999999999989
 30
0.0
 11
136.86833165059019
 21
160.49999999999989
 31
0.0
  0
LINE
  5
9EC
  8
0
 62
     0
 10
150.62183614585041
 20
159.0
 30
0.0
 11
136.86833165059019
 21
159.0
 31
0.0
  0
LINE
  5
9ED
  8
0
 62
     0
 10
150.62183614585041
 20
157.5
 30
0.0
 11
136.86833165059019
 21
157.5
 31
0.0
  0
LINE
  5
9EE
  8
0
 62
     0
 10
150.62183614585041
 20
156.0
 30
0.0
 11
136.86833165059019
 21
156.0
 31
0.0
  0
LINE
  5
9EF
  8
0
 62
     0
 10
150.62183614585041
 20
154.49999999999989
 30
0.0
 11
136.86833165059019
 21
154.49999999999989
 31
0.0
  0
LINE
  5
9F0
  8
0
 62
     0
 10
150.62183614585041
 20
153.0
 30
0.0
 11
136.86833165059019
 21
153.0
 31
0.0
  0
LINE
  5
9F1
  8
0
 62
     0
 10
150.6218361458503
 20
151.49999999999989
 30
0.0
 11
136.86833165059019
 21
151.49999999999989
 31
0.0
  0
LINE
  5
9F2
  8
0
 62
     0
 10
150.6218361458503
 20
150.0
 30
0.0
 11
136.86833165059019
 21
150.0
 31
0.0
  0
LINE
  5
9F3
  8
0
 62
     0
 10
150.6218361458503
 20
148.49999999999989
 30
0.0
 11
136.86833165059019
 21
148.49999999999989
 31
0.0
  0
LINE
  5
9F4
  8
0
 62
     0
 10
150.6218361458503
 20
146.99999999999989
 30
0.0
 11
136.86833165059019
 21
146.99999999999989
 31
0.0
  0
LINE
  5
9F5
  8
0
 62
     0
 10
150.6218361458503
 20
145.5
 30
0.0
 11
136.86833165059019
 21
145.5
 31
0.0
  0
LINE
  5
9F6
  8
0
 62
     0
 10
150.6218361458503
 20
143.99999999999989
 30
0.0
 11
136.86833165059011
 21
143.99999999999989
 31
0.0
  0
LINE
  5
9F7
  8
0
 62
     0
 10
150.6218361458503
 20
142.5
 30
0.0
 11
136.86833165059011
 21
142.5
 31
0.0
  0
LINE
  5
9F8
  8
0
 62
     0
 10
150.6218361458503
 20
140.99999999999989
 30
0.0
 11
136.86833165059011
 21
140.99999999999989
 31
0.0
  0
ENDBLK
  5
9FA
  8
0
  0
BLOCK
  8
0
  2
*X6
 70
     1
 10
0.0
 20
0.0
 30
0.0
  3
*X6
  1

  0
LINE
  5
9FC
  8
0
 62
     0
 10
94.500000000000014
 20
16.08529432199725
 30
0.0
 11
94.500000000000014
 21
94.085294321994283
 31
0.0
  0
LINE
  5
9FD
  8
0
 62
     0
 10
93.0
 20
16.085294321997232
 30
0.0
 11
93.0
 21
94.085294321994283
 31
0.0
  0
LINE
  5
9FE
  8
0
 62
     0
 10
91.5
 20
16.08529432199721
 30
0.0
 11
91.5
 21
94.085294321994283
 31
0.0
  0
LINE
  5
9FF
  8
0
 62
     0
 10
90.0
 20
16.085294321997178
 30
0.0
 11
90.0
 21
94.085294321994283
 31
0.0
  0
LINE
  5
A00
  8
0
 62
     0
 10
88.499999999999986
 20
16.085294321997161
 30
0.0
 11
88.499999999999986
 21
94.085294321994283
 31
0.0
  0
LINE
  5
A01
  8
0
 62
     0
 10
87.0
 20
16.085294321997139
 30
0.0
 11
87.0
 21
94.085294321994283
 31
0.0
  0
LINE
  5
A02
  8
0
 62
     0
 10
85.5
 20
16.085294321997122
 30
0.0
 11
85.5
 21
94.085294321994283
 31
0.0
  0
LINE
  5
A03
  8
0
 62
     0
 10
84.0
 20
16.0852943219971
 30
0.0
 11
84.0
 21
94.085294321994283
 31
0.0
  0
LINE
  5
A04
  8
0
 62
     0
 10
82.5
 20
16.085294321997079
 30
0.0
 11
82.5
 21
94.085294321994283
 31
0.0
  0
LINE
  5
A05
  8
0
 62
     0
 10
81.0
 20
16.085294321997061
 30
0.0
 11
81.0
 21
94.085294321994283
 31
0.0
  0
LINE
  5
A06
  8
0
 62
     0
 10
79.5
 20
16.08529432199704
 30
0.0
 11
79.5
 21
94.085294321994283
 31
0.0
  0
LINE
  5
A07
  8
0
 62
     0
 10
78.0
 20
16.085294321997019
 30
0.0
 11
78.0
 21
94.085294321994283
 31
0.0
  0
LINE
  5
A08
  8
0
 62
     0
 10
76.5
 20
16.085294321997001
 30
0.0
 11
76.5
 21
94.085294321994283
 31
0.0
  0
LINE
  5
A09
  8
0
 62
     0
 10
75.0
 20
16.08529432199698
 30
0.0
 11
75.0
 21
94.085294321994283
 31
0.0
  0
LINE
  5
A0A
  8
0
 62
     0
 10
73.5
 20
16.085294321996962
 30
0.0
 11
73.5
 21
94.085294321994283
 31
0.0
  0
LINE
  5
A0B
  8
0
 62
     0
 10
72.0
 20
16.08529432199693
 30
0.0
 11
72.0
 21
94.085294321994283
 31
0.0
  0
LINE
  5
A0C
  8
0
 62
     0
 10
70.5
 20
16.085294321996908
 30
0.0
 11
70.5
 21
94.085294321994283
 31
0.0
  0
LINE
  5
A0D
  8
0
 62
     0
 10
69.0
 20
16.085294321996891
 30
0.0
 11
69.0
 21
94.085294321994283
 31
0.0
  0
LINE
  5
A0E
  8
0
 62
     0
 10
67.5
 20
16.085294321996869
 30
0.0
 11
67.5
 21
94.085294321994283
 31
0.0
  0
LINE
  5
A0F
  8
0
 62
     0
 10
66.0
 20
16.085294321996852
 30
0.0
 11
66.0
 21
94.085294321994283
 31
0.0
  0
LINE
  5
A10
  8
0
 62
     0
 10
64.5
 20
16.08529432199683
 30
0.0
 11
64.5
 21
94.085294321994283
 31
0.0
  0
LINE
  5
A11
  8
0
 62
     0
 10
63.0
 20
16.085294321996809
 30
0.0
 11
63.0
 21
94.085294321994283
 31
0.0
  0
LINE
  5
A12
  8
0
 62
     0
 10
61.5
 20
16.085294321996791
 30
0.0
 11
61.500000000000007
 21
94.085294321994283
 31
0.0
  0
LINE
  5
A13
  8
0
 62
     0
 10
60.0
 20
16.08529432199677
 30
0.0
 11
60.0
 21
94.085294321994283
 31
0.0
  0
LINE
  5
A14
  8
0
 62
     0
 10
58.5
 20
16.085294321996749
 30
0.0
 11
58.500000000000007
 21
94.085294321994283
 31
0.0
  0
LINE
  5
A15
  8
0
 62
     0
 10
57.0
 20
16.085294321996731
 30
0.0
 11
57.000000000000007
 21
94.085294321994283
 31
0.0
  0
LINE
  5
A16
  8
0
 62
     0
 10
55.5
 20
16.085294321996699
 30
0.0
 11
55.5
 21
94.085294321994283
 31
0.0
  0
LINE
  5
A17
  8
0
 62
     0
 10
54.0
 20
16.085294321996681
 30
0.0
 11
54.000000000000007
 21
94.085294321994283
 31
0.0
  0
LINE
  5
A18
  8
0
 62
     0
 10
52.5
 20
16.08529432199667
 30
0.0
 11
52.5
 21
94.085294321994283
 31
0.0
  0
LINE
  5
A19
  8
0
 62
     0
 10
51.0
 20
16.085294321996638
 30
0.0
 11
51.000000000000007
 21
94.085294321994283
 31
0.0
  0
LINE
  5
A1A
  8
0
 62
     0
 10
49.5
 20
16.085294321996621
 30
0.0
 11
49.500000000000007
 21
94.085294321994283
 31
0.0
  0
LINE
  5
A1B
  8
0
 62
     0
 10
48.0
 20
16.085294321996599
 30
0.0
 11
48.0
 21
94.085294321994283
 31
0.0
  0
LINE
  5
A1C
  8
0
 62
     0
 10
46.5
 20
16.085294321996582
 30
0.0
 11
46.500000000000007
 21
94.085294321994283
 31
0.0
  0
LINE
  5
A1D
  8
0
 62
     0
 10
45.0
 20
16.08529432199656
 30
0.0
 11
45.0
 21
94.085294321994283
 31
0.0
  0
LINE
  5
A1E
  8
0
 62
     0
 10
43.5
 20
16.085294321996539
 30
0.0
 11
43.5
 21
94.085294321994283
 31
0.0
  0
LINE
  5
A1F
  8
0
 62
     0
 10
42.0
 20
16.085294321996521
 30
0.0
 11
42.000000000000007
 21
94.085294321994283
 31
0.0
  0
LINE
  5
A20
  8
0
 62
     0
 10
40.499999999999993
 20
16.0852943219965
 30
0.0
 11
40.5
 21
94.085294321994283
 31
0.0
  0
LINE
  5
A21
  8
0
 62
     0
 10
39.0
 20
16.085294321996479
 30
0.0
 11
39.000000000000007
 21
94.085294321994283
 31
0.0
  0
LINE
  5
A22
  8
0
 62
     0
 10
37.5
 20
16.08529432199645
 30
0.0
 11
37.500000000000007
 21
94.085294321994283
 31
0.0
  0
LINE
  5
A23
  8
0
 62
     0
 10
36.0
 20
16.085294321996429
 30
0.0
 11
36.000000000000007
 21
94.085294321994283
 31
0.0
  0
LINE
  5
A24
  8
0
 62
     0
 10
34.5
 20
16.085294321996411
 30
0.0
 11
34.500000000000007
 21
94.085294321994283
 31
0.0
  0
LINE
  5
A25
  8
0
 62
     0
 10
33.0
 20
16.08529432199639
 30
0.0
 11
33.000000000000007
 21
94.085294321994283
 31
0.0
  0
LINE
  5
A26
  8
0
 62
     0
 10
31.5
 20
16.085294321996368
 30
0.0
 11
31.500000000000011
 21
94.085294321994283
 31
0.0
  0
LINE
  5
A27
  8
0
 62
     0
 10
30.0
 20
16.085294321996351
 30
0.0
 11
30.000000000000011
 21
94.085294321994283
 31
0.0
  0
LINE
  5
A28
  8
0
 62
     0
 10
28.5
 20
16.085294321996329
 30
0.0
 11
28.500000000000011
 21
94.085294321994283
 31
0.0
  0
LINE
  5
A29
  8
0
 62
     0
 10
27.0
 20
16.085294321996312
 30
0.0
 11
27.000000000000011
 21
94.085294321994283
 31
0.0
  0
LINE
  5
A2A
  8
0
 62
     0
 10
25.5
 20
16.08529432199629
 30
0.0
 11
25.500000000000011
 21
94.085294321994283
 31
0.0
  0
LINE
  5
A2B
  8
0
 62
     0
 10
24.0
 20
16.085294321996269
 30
0.0
 11
24.000000000000011
 21
94.085294321994283
 31
0.0
  0
LINE
  5
A2C
  8
0
 62
     0
 10
22.5
 20
16.085294321996251
 30
0.0
 11
22.500000000000011
 21
94.085294321994283
 31
0.0
  0
LINE
  5
A2D
  8
0
 62
     0
 10
21.0
 20
16.085294321996219
 30
0.0
 11
21.000000000000011
 21
94.085294321994283
 31
0.0
  0
LINE
  5
A2E
  8
0
 62
     0
 10
19.5
 20
16.085294321996209
 30
0.0
 11
19.500000000000011
 21
94.085294321994283
 31
0.0
  0
LINE
  5
A2F
  8
0
 62
     0
 10
18.0
 20
16.085294321996191
 30
0.0
 11
18.0
 21
94.085294321994283
 31
0.0
  0
LINE
  5
A30
  8
0
 62
     0
 10
16.5
 20
16.085294321996159
 30
0.0
 11
16.500000000000011
 21
94.085294321994283
 31
0.0
  0
LINE
  5
A31
  8
0
 62
     0
 10
15.0
 20
16.085294321996141
 30
0.0
 11
15.0
 21
94.085294321994283
 31
0.0
  0
LINE
  5
A32
  8
0
 62
     0
 10
13.5
 20
16.08529432199612
 30
0.0
 11
13.5
 21
94.085294321994283
 31
0.0
  0
LINE
  5
A33
  8
0
 62
     0
 10
12.0
 20
16.085294321996098
 30
0.0
 11
12.0
 21
94.085294321994283
 31
0.0
  0
LINE
  5
A34
  8
0
 62
     0
 10
10.5
 20
16.085294321996081
 30
0.0
 11
10.5
 21
94.085294321994283
 31
0.0
  0
LINE
  5
A35
  8
0
 62
     0
 10
9.0000000000000018
 20
16.085294321996059
 30
0.0
 11
9.0000000000000053
 21
94.085294321994283
 31
0.0
  0
LINE
  5
A36
  8
0
 62
     0
 10
7.5
 20
16.085294321996042
 30
0.0
 11
7.5000000000000053
 21
94.085294321994283
 31
0.0
  0
LINE
  5
A37
  8
0
 62
     0
 10
6.0
 20
16.08529432199602
 30
0.0
 11
6.0000000000000053
 21
94.085294321994283
 31
0.0
  0
LINE
  5
A38
  8
0
 62
     0
 10
4.5
 20
16.085294321995999
 30
0.0
 11
4.5000000000000053
 21
94.085294321994283
 31
0.0
  0
LINE
  5
A39
  8
0
 62
     0
 10
3.0
 20
16.085294321995971
 30
0.0
 11
3.0000000000000049
 21
94.085294321994283
 31
0.0
  0
LINE
  5
A3A
  8
0
 62
     0
 10
1.5
 20
16.085294321995949
 30
0.0
 11
1.5000000000000051
 21
94.085294321994283
 31
0.0
  0
LINE
  5
A3B
  8
0
 62
     0
 10
0.0000000000000009
 20
16.085294321995931
 30
0.0
 11
0.0000000000000058
 21
94.085294321994283
 31
0.0
  0
LINE
  5
A3C
  8
0
 62
     0
 10
-1.4999999999999989
 20
16.08529432199591
 30
0.0
 11
-1.499999999999994
 21
94.085294321994283
 31
0.0
  0
LINE
  5
A3D
  8
0
 62
     0
 10
-2.9999999999999991
 20
16.085294321995889
 30
0.0
 11
-2.9999999999999938
 21
94.085294321994283
 31
0.0
  0
LINE
  5
A3E
  8
0
 62
     0
 10
-4.4999999999999991
 20
16.085294321995871
 30
0.0
 11
-4.4999999999999938
 21
94.085294321994283
 31
0.0
  0
LINE
  5
A3F
  8
0
 62
     0
 10
-5.9999999999999991
 20
16.08529432199585
 30
0.0
 11
-5.9999999999999938
 21
94.085294321994283
 31
0.0
  0
LINE
  5
A40
  8
0
 62
     0
 10
-7.4999999999999991
 20
16.085294321995828
 30
0.0
 11
-7.4999999999999938
 21
94.085294321994283
 31
0.0
  0
LINE
  5
A41
  8
0
 62
     0
 10
-8.9999999999999982
 20
16.085294321995811
 30
0.0
 11
-8.9999999999999947
 21
94.085294321994283
 31
0.0
  0
ENDBLK
  5
A43
  8
0
  0
BLOCK
  8
0
  2
*X7
 70
     1
 10
0.0
 20
0.0
 30
0.0
  3
*X7
  1

  0
LINE
  5
A45
  8
0
 62
     0
 10
369.0
 20
16.085294321994301
 30
0.0
 11
369.0
 21
92.585294321994795
 31
0.0
  0
LINE
  5
A46
  8
0
 62
     0
 10
366.0
 20
16.085294321994301
 30
0.0
 11
366.0
 21
92.585294321994795
 31
0.0
  0
LINE
  5
A47
  8
0
 62
     0
 10
363.0
 20
16.085294321994301
 30
0.0
 11
363.0
 21
92.585294321994795
 31
0.0
  0
LINE
  5
A48
  8
0
 62
     0
 10
360.0
 20
16.085294321994301
 30
0.0
 11
360.0
 21
92.585294321994795
 31
0.0
  0
LINE
  5
A49
  8
0
 62
     0
 10
357.0
 20
16.085294321994301
 30
0.0
 11
357.0
 21
92.585294321994795
 31
0.0
  0
LINE
  5
A4A
  8
0
 62
     0
 10
354.0
 20
16.085294321994301
 30
0.0
 11
354.0
 21
92.585294321994795
 31
0.0
  0
LINE
  5
A4B
  8
0
 62
     0
 10
351.0
 20
16.085294321994301
 30
0.0
 11
351.0
 21
92.585294321994795
 31
0.0
  0
LINE
  5
A4C
  8
0
 62
     0
 10
348.0
 20
16.085294321994301
 30
0.0
 11
348.0
 21
92.585294321994795
 31
0.0
  0
LINE
  5
A4D
  8
0
 62
     0
 10
345.0
 20
16.085294321994301
 30
0.0
 11
345.0
 21
92.585294321994795
 31
0.0
  0
LINE
  5
A4E
  8
0
 62
     0
 10
342.0
 20
16.085294321994301
 30
0.0
 11
342.0
 21
92.585294321994795
 31
0.0
  0
LINE
  5
A4F
  8
0
 62
     0
 10
339.0
 20
16.085294321994301
 30
0.0
 11
339.0
 21
92.585294321994795
 31
0.0
  0
LINE
  5
A50
  8
0
 62
     0
 10
336.0
 20
16.085294321994301
 30
0.0
 11
336.0
 21
92.585294321994795
 31
0.0
  0
LINE
  5
A51
  8
0
 62
     0
 10
333.0
 20
16.085294321994301
 30
0.0
 11
333.0
 21
92.585294321994795
 31
0.0
  0
LINE
  5
A52
  8
0
 62
     0
 10
330.0
 20
16.085294321994301
 30
0.0
 11
330.0
 21
92.585294321994795
 31
0.0
  0
LINE
  5
A53
  8
0
 62
     0
 10
327.0
 20
16.085294321994301
 30
0.0
 11
327.0
 21
92.585294321994795
 31
0.0
  0
LINE
  5
A54
  8
0
 62
     0
 10
324.0
 20
16.085294321994301
 30
0.0
 11
324.0
 21
92.585294321994795
 31
0.0
  0
LINE
  5
A55
  8
0
 62
     0
 10
321.0
 20
16.085294321994301
 30
0.0
 11
321.0
 21
92.585294321994795
 31
0.0
  0
LINE
  5
A56
  8
0
 62
     0
 10
318.0
 20
16.085294321994301
 30
0.0
 11
318.0
 21
92.585294321994795
 31
0.0
  0
LINE
  5
A57
  8
0
 62
     0
 10
315.0
 20
16.085294321994301
 30
0.0
 11
315.0
 21
92.585294321994795
 31
0.0
  0
LINE
  5
A58
  8
0
 62
     0
 10
312.0
 20
16.085294321994301
 30
0.0
 11
312.0
 21
92.585294321994795
 31
0.0
  0
LINE
  5
A59
  8
0
 62
     0
 10
309.0
 20
16.085294321994301
 30
0.0
 11
309.0
 21
92.585294321994795
 31
0.0
  0
LINE
  5
A5A
  8
0
 62
     0
 10
306.0
 20
16.085294321994301
 30
0.0
 11
306.0
 21
92.585294321994795
 31
0.0
  0
LINE
  5
A5B
  8
0
 62
     0
 10
303.0
 20
16.085294321994301
 30
0.0
 11
303.0
 21
92.585294321994795
 31
0.0
  0
LINE
  5
A5C
  8
0
 62
     0
 10
300.0
 20
16.085294321994301
 30
0.0
 11
300.0
 21
92.585294321994795
 31
0.0
  0
LINE
  5
A5D
  8
0
 62
     0
 10
297.0
 20
16.085294321994301
 30
0.0
 11
297.0
 21
92.585294321994795
 31
0.0
  0
LINE
  5
A5E
  8
0
 62
     0
 10
294.0
 20
16.085294321994301
 30
0.0
 11
294.0
 21
92.585294321994795
 31
0.0
  0
LINE
  5
A5F
  8
0
 62
     0
 10
291.0
 20
16.085294321994301
 30
0.0
 11
291.0
 21
92.585294321994795
 31
0.0
  0
LINE
  5
A60
  8
0
 62
     0
 10
288.0
 20
16.085294321994301
 30
0.0
 11
288.0
 21
92.585294321994795
 31
0.0
  0
LINE
  5
A61
  8
0
 62
     0
 10
285.0
 20
16.085294321994301
 30
0.0
 11
285.0
 21
92.585294321994795
 31
0.0
  0
LINE
  5
A62
  8
0
 62
     0
 10
282.0
 20
16.085294321994301
 30
0.0
 11
282.0
 21
92.585294321994795
 31
0.0
  0
LINE
  5
A63
  8
0
 62
     0
 10
279.0
 20
16.085294321994301
 30
0.0
 11
279.0
 21
92.585294321994795
 31
0.0
  0
LINE
  5
A64
  8
0
 62
     0
 10
276.0
 20
16.085294321994301
 30
0.0
 11
276.0
 21
92.585294321994795
 31
0.0
  0
LINE
  5
A65
  8
0
 62
     0
 10
273.0
 20
16.085294321994301
 30
0.0
 11
273.0
 21
92.585294321994795
 31
0.0
  0
LINE
  5
A66
  8
0
 62
     0
 10
270.0
 20
16.085294321994301
 30
0.0
 11
270.0
 21
92.585294321994795
 31
0.0
  0
LINE
  5
A67
  8
0
 62
     0
 10
267.0
 20
16.085294321994301
 30
0.0
 11
267.0
 21
92.585294321994795
 31
0.0
  0
LINE
  5
A68
  8
0
 62
     0
 10
264.214088860522
 20
18.0
 30
0.0
 11
370.089088860522
 21
18.0
 31
0.0
  0
LINE
  5
A69
  8
0
 62
     0
 10
264.214088860522
 20
21.0
 30
0.0
 11
370.089088860522
 21
21.0
 31
0.0
  0
LINE
  5
A6A
  8
0
 62
     0
 10
264.214088860522
 20
24.0
 30
0.0
 11
370.089088860522
 21
24.0
 31
0.0
  0
LINE
  5
A6B
  8
0
 62
     0
 10
264.214088860522
 20
27.0
 30
0.0
 11
370.089088860522
 21
27.0
 31
0.0
  0
LINE
  5
A6C
  8
0
 62
     0
 10
264.214088860522
 20
30.0
 30
0.0
 11
370.089088860522
 21
30.0
 31
0.0
  0
LINE
  5
A6D
  8
0
 62
     0
 10
264.214088860522
 20
33.0
 30
0.0
 11
370.089088860522
 21
33.0
 31
0.0
  0
LINE
  5
A6E
  8
0
 62
     0
 10
264.214088860522
 20
36.0
 30
0.0
 11
370.089088860522
 21
36.0
 31
0.0
  0
LINE
  5
A6F
  8
0
 62
     0
 10
264.214088860522
 20
39.0
 30
0.0
 11
370.089088860522
 21
39.0
 31
0.0
  0
LINE
  5
A70
  8
0
 62
     0
 10
264.214088860522
 20
42.0
 30
0.0
 11
370.089088860522
 21
42.0
 31
0.0
  0
LINE
  5
A71
  8
0
 62
     0
 10
264.214088860522
 20
45.0
 30
0.0
 11
370.089088860522
 21
45.0
 31
0.0
  0
LINE
  5
A72
  8
0
 62
     0
 10
264.214088860522
 20
48.0
 30
0.0
 11
370.089088860522
 21
48.0
 31
0.0
  0
LINE
  5
A73
  8
0
 62
     0
 10
264.214088860522
 20
51.0
 30
0.0
 11
370.089088860522
 21
51.0
 31
0.0
  0
LINE
  5
A74
  8
0
 62
     0
 10
264.214088860522
 20
54.0
 30
0.0
 11
370.089088860522
 21
54.0
 31
0.0
  0
LINE
  5
A75
  8
0
 62
     0
 10
264.214088860522
 20
57.0
 30
0.0
 11
370.089088860522
 21
57.0
 31
0.0
  0
LINE
  5
A76
  8
0
 62
     0
 10
264.214088860522
 20
60.0
 30
0.0
 11
370.089088860522
 21
60.0
 31
0.0
  0
LINE
  5
A77
  8
0
 62
     0
 10
264.214088860522
 20
63.0
 30
0.0
 11
370.089088860522
 21
63.0
 31
0.0
  0
LINE
  5
A78
  8
0
 62
     0
 10
264.214088860522
 20
66.0
 30
0.0
 11
370.089088860522
 21
66.0
 31
0.0
  0
LINE
  5
A79
  8
0
 62
     0
 10
264.214088860522
 20
69.0
 30
0.0
 11
370.089088860522
 21
69.0
 31
0.0
  0
LINE
  5
A7A
  8
0
 62
     0
 10
264.214088860522
 20
72.0
 30
0.0
 11
370.089088860522
 21
72.0
 31
0.0
  0
LINE
  5
A7B
  8
0
 62
     0
 10
264.214088860522
 20
75.0
 30
0.0
 11
370.089088860522
 21
75.0
 31
0.0
  0
LINE
  5
A7C
  8
0
 62
     0
 10
264.214088860522
 20
78.0
 30
0.0
 11
370.089088860522
 21
78.0
 31
0.0
  0
LINE
  5
A7D
  8
0
 62
     0
 10
264.214088860522
 20
81.0
 30
0.0
 11
370.089088860522
 21
81.0
 31
0.0
  0
LINE
  5
A7E
  8
0
 62
     0
 10
264.214088860522
 20
84.0
 30
0.0
 11
370.089088860522
 21
84.0
 31
0.0
  0
LINE
  5
A7F
  8
0
 62
     0
 10
264.214088860522
 20
87.0
 30
0.0
 11
370.089088860522
 21
87.0
 31
0.0
  0
LINE
  5
A80
  8
0
 62
     0
 10
264.214088860522
 20
90.0
 30
0.0
 11
370.089088860522
 21
90.0
 31
0.0
  0
ENDBLK
  5
A82
  8
0
  0
ENDSEC
  0
SECTION
  2
ENTITIES
  0
LINE
  5
31F
  8
0
 10
212.99286022162809
 20
93.553295658429903
 30
0.0
 11
212.99322237602189
 21
93.565051602510295
 31
0.0
  0
LINE
  5
320
  8
0
 10
184.86833165058971
 20
101.0852943219968
 30
0.0
 11
184.86833165058971
 21
94.085294321996813
 31
0.0
  0
LINE
  5
321
  8
0
 10
156.11833165058971
 20
94.085294321996756
 30
0.0
 11
156.11833165058971
 21
101.0852943219968
 31
0.0
  0
LINE
  5
322
  8
0
 10
184.86833165058971
 20
94.085294321996813
 30
0.0
 11
156.11833165058971
 21
94.085294321996756
 31
0.0
  0
LINE
  5
323
  8
0
 10
156.11833165058971
 20
101.0852943219968
 30
0.0
 11
184.86833165058971
 21
101.0852943219968
 31
0.0
  0
LINE
  5
324
  8
0
 10
134.36833165059011
 20
94.085294321994283
 30
0.0
 11
221.74333165059019
 21
94.085294321994283
 31
0.0
  0
LINE
  5
325
  8
0
 10
221.74333165059019
 20
1.085294321994295
 30
0.0
 11
219.9933316505907
 21
1.085294321994295
 31
0.0
  0
LINE
  5
326
  8
0
 10
136.1183316505907
 20
1.085294321994295
 30
0.0
 11
134.36833165059011
 21
1.085294321994295
 31
0.0
  0
LINE
  5
327
  8
0
 10
134.36833165059011
 20
1.085294321994295
 30
0.0
 11
134.36833165059011
 21
94.085294321994283
 31
0.0
  0
LINE
  5
328
  8
0
 10
136.1183316505907
 20
1.085294321994295
 30
0.0
 11
136.1183316505907
 21
3.085294321994799
 31
0.0
  0
LINE
  5
329
  8
0
 10
136.1183316505907
 20
3.085294321994799
 30
0.0
 11
219.9933316505907
 21
3.085294321994799
 31
0.0
  0
LINE
  5
32A
  8
0
 10
219.9933316505907
 20
3.085294321994799
 30
0.0
 11
219.9933316505907
 21
1.085294321994295
 31
0.0
  0
LINE
  5
32B
  8
0
 10
221.74333165059019
 20
1.085294321994295
 30
0.0
 11
221.74333165059019
 21
94.085294321994283
 31
0.0
  0
ARC
  5
32C
  8
0
 10
164.80583165058971
 20
64.721657958359302
 30
0.0
 40
8.2500000000000053
 50
179.99999999999949
 51
359.99999999999881
  0
ARC
  5
32D
  8
0
 10
164.80583165058971
 20
64.721657958359302
 30
0.0
 40
8.2499999999999876
 50
359.9999999999996
 51
179.99999999999969
  0
ARC
  5
32E
  8
0
 10
164.80583165058971
 20
64.721657958359302
 30
0.0
 40
7.6874999999999858
 50
0.000000000000687
 51
180.0
  0
ARC
  5
32F
  8
0
 10
164.80583165058971
 20
64.721657958359302
 30
0.0
 40
7.687499999999992
 50
180.0
 51
359.9999999999996
  0
LINE
  5
330
  8
0
 10
169.92833242457749
 20
62.279802109561913
 30
0.0
 11
169.73339194838701
 21
61.830893379403193
 31
0.0
  0
LINE
  5
331
  8
0
 10
169.73339194838701
 20
61.830893379403193
 30
0.0
 11
169.2824990912442
 21
61.673651315911108
 31
0.0
  0
LINE
  5
332
  8
0
 10
169.2824990912442
 20
61.673651315911108
 30
0.0
 11
168.95797032140291
 21
61.73788742702223
 31
0.0
  0
LINE
  5
333
  8
0
 10
168.95797032140291
 20
61.73788742702223
 30
0.0
 11
168.72247924997441
 21
61.930595760355573
 31
0.0
  0
LINE
  5
334
  8
0
 10
168.72247924997441
 20
61.930595760355573
 30
0.0
 11
168.5315070277521
 21
62.688532268292072
 31
0.0
  0
LINE
  5
335
  8
0
 10
168.5315070277521
 20
62.688532268292072
 30
0.0
 11
168.71553480553001
 21
63.452421157180972
 31
0.0
  0
LINE
  5
336
  8
0
 10
168.71553480553001
 20
63.452421157180972
 30
0.0
 11
168.94532151187909
 21
63.64215330003811
 31
0.0
  0
LINE
  5
337
  8
0
 10
168.94532151187909
 20
63.64215330003811
 30
0.0
 11
169.26662607537119
 21
63.70539734765714
 31
0.0
  0
LINE
  5
338
  8
0
 10
169.26662607537119
 20
63.70539734765714
 30
0.0
 11
169.7348800436252
 21
63.562044173053991
 31
0.0
  0
LINE
  5
339
  8
0
 10
169.7348800436252
 20
63.562044173053991
 30
0.0
 11
169.92833242457749
 21
63.136944966704768
 31
0.0
  0
LINE
  5
33A
  8
0
 10
169.92833242457749
 20
63.136944966704768
 30
0.0
 11
171.0711895674346
 21
63.136944966704768
 31
0.0
  0
LINE
  5
33B
  8
0
 10
171.0711895674346
 20
63.136944966704768
 30
0.0
 11
170.9109713134664
 21
63.784638419085731
 31
0.0
  0
LINE
  5
33C
  8
0
 10
170.9109713134664
 20
63.784638419085731
 30
0.0
 11
170.543411789657
 21
64.263433061942862
 31
0.0
  0
LINE
  5
33D
  8
0
 10
170.543411789657
 20
64.263433061942862
 30
0.0
 11
169.98438401187909
 21
64.559191990514293
 31
0.0
  0
LINE
  5
33E
  8
0
 10
169.98438401187909
 20
64.559191990514293
 30
0.0
 11
169.2497609960061
 21
64.657778300038103
 31
0.0
  0
LINE
  5
33F
  8
0
 10
169.2497609960061
 20
64.657778300038103
 30
0.0
 11
168.45176992457749
 21
64.525833855593675
 31
0.0
  0
LINE
  5
340
  8
0
 10
168.45176992457749
 20
64.525833855593675
 30
0.0
 11
167.841526869022
 21
64.130000522260332
 31
0.0
  0
LINE
  5
341
  8
0
 10
167.841526869022
 20
64.130000522260332
 30
0.0
 11
167.4542500833077
 21
63.505992585752402
 31
0.0
  0
LINE
  5
342
  8
0
 10
167.4542500833077
 20
63.505992585752402
 30
0.0
 11
167.325157821403
 21
62.689524331784149
 31
0.0
  0
LINE
  5
343
  8
0
 10
167.325157821403
 20
62.689524331784149
 30
0.0
 11
167.4548701229902
 21
61.871195958768268
 31
0.0
  0
LINE
  5
344
  8
0
 10
167.4548701229902
 20
61.871195958768268
 30
0.0
 11
167.8440070277521
 21
61.247560046069857
 31
0.0
  0
LINE
  5
345
  8
0
 10
167.8440070277521
 20
61.247560046069857
 30
0.0
 11
168.45933440870451
 21
60.852842784165091
 31
0.0
  0
LINE
  5
346
  8
0
 10
168.45933440870451
 20
60.852842784165091
 30
0.0
 11
169.26761813886321
 21
60.721270363530159
 31
0.0
  0
LINE
  5
347
  8
0
 10
169.26761813886321
 20
60.721270363530159
 30
0.0
 11
169.9907084166411
 21
60.823452903212711
 31
0.0
  0
LINE
  5
348
  8
0
 10
169.9907084166411
 20
60.823452903212711
 30
0.0
 11
170.54688401187909
 21
61.130000522260318
 31
0.0
  0
LINE
  5
349
  8
0
 10
170.54688401187909
 20
61.130000522260318
 30
0.0
 11
170.9143195277521
 21
61.621815998450799
 31
0.0
  0
LINE
  5
34A
  8
0
 10
170.9143195277521
 20
61.621815998450799
 30
0.0
 11
171.0711895674346
 21
62.279802109561913
 31
0.0
  0
LINE
  5
34B
  8
0
 10
171.0711895674346
 20
62.279802109561913
 30
0.0
 11
169.92833242457749
 21
62.279802109561913
 31
0.0
  0
LINE
  5
34C
  8
0
 10
162.70660504681001
 20
63.053876298485122
 30
0.0
 11
163.88418441188921
 21
63.053876298485122
 31
0.0
  0
LINE
  5
34D
  8
0
 10
163.88418441188921
 20
63.053876298485122
 30
0.0
 11
164.0310098087146
 21
63.561812806421628
 31
0.0
  0
LINE
  5
34E
  8
0
 10
164.0310098087146
 20
63.561812806421628
 30
0.0
 11
165.23438282458761
 21
63.561812806421628
 31
0.0
  0
LINE
  5
34F
  8
0
 10
165.23438282458761
 20
63.561812806421628
 30
0.0
 11
165.3762479039527
 21
63.053876298485122
 31
0.0
  0
LINE
  5
350
  8
0
 10
165.3762479039527
 20
63.053876298485122
 30
0.0
 11
166.57962091982569
 21
63.053876298485122
 31
0.0
  0
LINE
  5
351
  8
0
 10
166.57962091982569
 20
63.053876298485122
 30
0.0
 11
165.2502558404608
 21
66.863400108008946
 31
0.0
  0
LINE
  5
352
  8
0
 10
165.2502558404608
 20
66.863400108008946
 30
0.0
 11
164.021089173794
 21
66.863400108008946
 31
0.0
  0
LINE
  5
353
  8
0
 10
164.021089173794
 20
66.863400108008946
 30
0.0
 11
162.70660504681001
 21
63.053876298485122
 31
0.0
  0
LINE
  5
354
  8
0
 10
164.2512479039527
 20
64.38720963181845
 30
0.0
 11
164.63716060236541
 21
65.690781060389867
 31
0.0
  0
LINE
  5
355
  8
0
 10
164.63716060236541
 20
65.690781060389867
 30
0.0
 11
165.01414472934951
 21
64.38720963181845
 31
0.0
  0
LINE
  5
356
  8
0
 10
165.01414472934951
 20
64.38720963181845
 30
0.0
 11
164.2512479039527
 21
64.38720963181845
 31
0.0
  0
LINE
  5
357
  8
0
 10
158.94587385654859
 20
64.794264607665383
 30
0.0
 11
160.6452786184532
 21
64.794264607665383
 31
0.0
  0
LINE
  5
358
  8
0
 10
160.6452786184532
 20
64.794264607665383
 30
0.0
 11
161.41313576131051
 21
64.832955083855865
 31
0.0
  0
LINE
  5
359
  8
0
 10
161.41313576131051
 20
64.832955083855865
 30
0.0
 11
161.82583417400889
 21
64.964899528300322
 31
0.0
  0
LINE
  5
35A
  8
0
 10
161.82583417400889
 20
64.964899528300322
 30
0.0
 11
162.2340683009929
 21
65.347836036236828
 31
0.0
  0
LINE
  5
35B
  8
0
 10
162.2340683009929
 20
65.347836036236828
 30
0.0
 11
162.37444528511989
 21
65.935137623538409
 31
0.0
  0
LINE
  5
35C
  8
0
 10
162.37444528511989
 20
65.935137623538409
 30
0.0
 11
162.2305960787707
 21
66.498133655284434
 31
0.0
  0
LINE
  5
35D
  8
0
 10
162.2305960787707
 20
66.498133655284434
 30
0.0
 11
161.78714369781841
 21
66.823034448935232
 31
0.0
  0
LINE
  5
35E
  8
0
 10
161.78714369781841
 20
66.823034448935232
 30
0.0
 11
162.13238179305651
 21
67.140494766395548
 31
0.0
  0
LINE
  5
35F
  8
0
 10
162.13238179305651
 20
67.140494766395548
 30
0.0
 11
162.24746115813591
 21
67.592875718776511
 31
0.0
  0
LINE
  5
360
  8
0
 10
162.24746115813591
 20
67.592875718776511
 30
0.0
 11
162.09369131686589
 21
68.152895560046346
 31
0.0
  0
LINE
  5
361
  8
0
 10
162.09369131686589
 20
68.152895560046346
 30
0.0
 11
161.6512309994057
 21
68.492677306078093
 31
0.0
  0
LINE
  5
362
  8
0
 10
161.6512309994057
 20
68.492677306078093
 30
0.0
 11
161.25589369781841
 21
68.577994766395548
 31
0.0
  0
LINE
  5
363
  8
0
 10
161.25589369781841
 20
68.577994766395548
 30
0.0
 11
160.5222627454375
 21
68.603788417189193
 31
0.0
  0
LINE
  5
364
  8
0
 10
160.5222627454375
 20
68.603788417189193
 30
0.0
 11
158.94587385654859
 21
68.603788417189193
 31
0.0
  0
LINE
  5
365
  8
0
 10
158.94587385654859
 20
68.603788417189193
 30
0.0
 11
158.94587385654859
 21
64.794264607665383
 31
0.0
  0
LINE
  5
366
  8
0
 10
160.15222306289769
 20
65.683153496554297
 30
0.0
 11
160.15222306289769
 21
66.381566194966965
 31
0.0
  0
LINE
  5
367
  8
0
 10
160.15222306289769
 20
66.381566194966965
 30
0.0
 11
160.70083417400889
 21
66.381566194966965
 31
0.0
  0
LINE
  5
368
  8
0
 10
160.70083417400889
 20
66.381566194966965
 30
0.0
 11
161.11006036448501
 21
66.302201115601889
 31
0.0
  0
LINE
  5
369
  8
0
 10
161.11006036448501
 20
66.302201115601889
 30
0.0
 11
161.23158814226269
 21
66.035336036236828
 31
0.0
  0
LINE
  5
36A
  8
0
 10
161.23158814226269
 20
66.035336036236828
 30
0.0
 11
161.1125405232151
 21
65.765494766395548
 31
0.0
  0
LINE
  5
36B
  8
0
 10
161.1125405232151
 20
65.765494766395548
 30
0.0
 11
160.7117468724216
 21
65.683153496554297
 31
0.0
  0
LINE
  5
36C
  8
0
 10
160.7117468724216
 20
65.683153496554297
 30
0.0
 11
160.15222306289769
 21
65.683153496554297
 31
0.0
  0
LINE
  5
36D
  8
0
 10
160.15222306289769
 20
67.079978893379689
 30
0.0
 11
160.15222306289769
 21
67.714899528300322
 31
0.0
  0
LINE
  5
36E
  8
0
 10
160.15222306289769
 20
67.714899528300322
 30
0.0
 11
160.486548459723
 21
67.714899528300322
 31
0.0
  0
LINE
  5
36F
  8
0
 10
160.486548459723
 20
67.714899528300322
 30
0.0
 11
160.9949809994057
 21
67.647439210839991
 31
0.0
  0
LINE
  5
370
  8
0
 10
160.9949809994057
 20
67.647439210839991
 30
0.0
 11
161.1046040152786
 21
67.397439210840005
 31
0.0
  0
LINE
  5
371
  8
0
 10
161.1046040152786
 20
67.397439210840005
 30
0.0
 11
161.00242147559609
 21
67.152399528300322
 31
0.0
  0
LINE
  5
372
  8
0
 10
161.00242147559609
 20
67.152399528300322
 30
0.0
 11
160.65023893591351
 21
67.079978893379689
 31
0.0
  0
LINE
  5
373
  8
0
 10
160.65023893591351
 20
67.079978893379689
 30
0.0
 11
160.15222306289769
 21
67.079978893379689
 31
0.0
  0
ARC
  5
374
  8
0
 10
164.8058316505892
 20
64.72165795835997
 30
0.0
 40
8.9999999999999964
 50
179.9999999999998
 51
359.99999999999881
  0
ARC
  5
375
  8
0
 10
164.8058316505892
 20
64.72165795835997
 30
0.0
 40
9.0000000000000178
 50
359.99999999999937
 51
179.99999999999949
  0
LINE
  5
376
  8
0
 10
221.74333165059031
 20
12.585294321994409
 30
0.0
 11
221.9933316505907
 21
12.585294321994409
 31
0.0
  0
LINE
  5
377
  8
0
 10
221.9933316505907
 20
13.58529432199418
 30
0.0
 11
221.74333165059031
 21
13.58529432199418
 31
0.0
  0
LINE
  5
378
  8
0
 10
221.99333165059019
 20
13.585294321994301
 30
0.0
 11
221.99333165059019
 21
13.56825852542862
 31
0.0
  0
LINE
  5
379
  8
0
 10
221.99333165059019
 20
13.56825723513882
 30
0.0
 11
221.99333165059019
 21
13.51830736515311
 31
0.0
  0
LINE
  5
37A
  8
0
 10
221.99333165059019
 20
13.518307023886511
 30
0.0
 11
221.99333165059019
 21
13.438848156846261
 31
0.0
  0
LINE
  5
37B
  8
0
 10
221.99333165059019
 20
13.43884771258756
 30
0.0
 11
221.99333165059019
 21
13.33529484399962
 31
0.0
  0
LINE
  5
37C
  8
0
 10
221.99333165059019
 20
13.33529432199429
 30
0.0
 11
221.99333165059019
 21
13.214704125006969
 31
0.0
  0
LINE
  5
37D
  8
0
 10
221.99333165059019
 20
13.214703844545561
 30
0.0
 11
221.99333165059019
 21
13.085294321994301
 31
0.0
  0
LINE
  5
37E
  8
0
 10
221.99333165059019
 20
13.08529432199429
 30
0.0
 11
221.99333165059019
 21
12.95588479944303
 31
0.0
  0
LINE
  5
37F
  8
0
 10
221.99333165059019
 20
12.95588451898136
 30
0.0
 11
221.99333165059019
 21
12.65228162010207
 31
0.0
  0
LINE
  5
380
  8
0
 10
221.99333165059019
 20
12.65228127883579
 30
0.0
 11
221.99333165059019
 21
12.585294321994301
 31
0.0
  0
ARC
  5
381
  8
0
 10
195.24333165059019
 20
26.210294321994301
 30
0.0
 40
0.4999999999999715
 50
359.99999999999937
 51
179.9999999999994
  0
ARC
  5
382
  8
0
 10
195.24333165059019
 20
26.210294321994301
 30
0.0
 40
0.5000000000000007
 50
180.0000000000002
 51
359.9999999999992
  0
LINE
  5
383
  8
0
 10
168.36833165059019
 20
101.3352943219943
 30
0.0
 11
168.36833165059019
 21
101.0852943219968
 31
0.0
  0
LINE
  5
384
  8
0
 10
176.36833165059011
 20
101.0852943219968
 30
0.0
 11
176.36833165059011
 21
101.3352943219943
 31
0.0
  0
LINE
  5
385
  8
0
 10
168.36833165058991
 20
101.3352943219943
 30
0.0
 11
168.50462786698921
 21
101.3352943219943
 31
0.0
  0
LINE
  5
386
  8
0
 10
168.50462834543359
 20
101.3352943219943
 30
0.0
 11
169.53990340556311
 21
101.3352943219943
 31
0.0
  0
LINE
  5
387
  8
0
 10
169.5399045258437
 20
101.3352943219943
 30
0.0
 11
171.33305541714009
 21
101.3352943219944
 31
0.0
  0
LINE
  5
388
  8
0
 10
171.33305547017969
 20
101.3352943219944
 30
0.0
 11
172.36833086999701
 21
101.3352943219944
 31
0.0
  0
LINE
  5
389
  8
0
 10
172.36833165058999
 20
101.3352943219944
 30
0.0
 11
173.4036078309999
 21
101.3352943219944
 31
0.0
  0
LINE
  5
38A
  8
0
 10
173.4036092655563
 20
101.3352943219944
 30
0.0
 11
174.36833165058991
 21
101.3352943219944
 31
0.0
  0
LINE
  5
38B
  8
0
 10
174.36833184979429
 20
101.3352943219944
 30
0.0
 11
175.19675825539491
 21
101.3352943219944
 31
0.0
  0
LINE
  5
38C
  8
0
 10
175.19675877533609
 20
101.3352943219944
 30
0.0
 11
175.83243326572759
 21
101.3352943219944
 31
0.0
  0
LINE
  5
38D
  8
0
 10
175.83243498469301
 20
101.3352943219944
 30
0.0
 11
176.36833165058991
 21
101.3352943219944
 31
0.0
  0
ARC
  5
38E
  8
0
 10
212.49333165059019
 20
9.5852943219947218
 30
0.0
 40
4.0000000000000391
 50
359.9999999999992
 51
179.99999999999929
  0
ARC
  5
38F
  8
0
 10
212.49333165059019
 20
9.5852943219947218
 30
0.0
 40
4.0000000000000018
 50
180.0
 51
359.9999999999992
  0
ARC
  5
390
  8
0
 10
188.74333165059011
 20
15.710294321994301
 30
0.0
 40
1.50000000000001
 50
359.99999999999898
 51
179.99999999999909
  0
ARC
  5
391
  8
0
 10
188.74333165059011
 20
15.710294321994301
 30
0.0
 40
1.4999999999999909
 50
180.0000000000006
 51
0.0000000000001527
  0
ARC
  5
392
  8
0
 10
188.74333165059011
 20
5.7102943219942937
 30
0.0
 40
1.0000000000000111
 50
359.99999999999881
 51
179.99999999999889
  0
ARC
  5
393
  8
0
 10
188.74333165059011
 20
5.7102943219942937
 30
0.0
 40
1.0000000000000011
 50
180.0
 51
359.9999999999992
  0
CIRCLE
  5
394
  8
0
 10
190.36833165059011
 20
40.21029432199429
 30
0.0
 40
8.5
  0
ARC
  5
395
  8
0
 10
317.1515888605179
 20
55.210294321994539
 30
0.0
 40
38.500000000000078
 50
179.9999999999994
 51
359.99999999999898
  0
ARC
  5
396
  8
0
 10
317.1515888605179
 20
55.210294321994539
 30
0.0
 40
38.500000000000071
 50
359.99999999999909
 51
179.99999999999949
  0
ARC
  5
397
  8
0
 10
317.1515888605179
 20
55.210294321994539
 30
0.0
 40
38.500000000000071
 50
179.9999999999994
 51
359.99999999999898
  0
ARC
  5
398
  8
0
 10
317.1515888605179
 20
55.210294321994539
 30
0.0
 40
38.500000000000071
 50
359.99999999999909
 51
179.99999999999949
  0
ARC
  5
399
  8
0
 10
317.15158886051802
 20
55.210294321994539
 30
0.0
 40
36.500000000000078
 50
179.99999999999949
 51
359.99999999999898
  0
ARC
  5
39A
  8
0
 10
317.15158886051802
 20
55.210294321994539
 30
0.0
 40
36.500000000000071
 50
0.0000000000000509
 51
179.99999999999949
  0
LINE
  5
39B
  8
0
 10
370.08908886051779
 20
16.085294321994301
 30
0.0
 11
370.08908886051779
 21
92.585294321995036
 31
0.0
  0
LINE
  5
39C
  8
0
 10
370.08908886051779
 20
92.585294321995036
 30
0.0
 11
264.2140888605179
 21
92.585294321995036
 31
0.0
  0
LINE
  5
39D
  8
0
 10
264.2140888605179
 20
92.585294321995036
 30
0.0
 11
264.2140888605179
 21
16.085294321994301
 31
0.0
  0
LINE
  5
39E
  8
0
 10
264.2140888605179
 20
16.085294321994301
 30
0.0
 11
370.08908886051779
 21
16.085294321994301
 31
0.0
  0
LINE
  5
39F
  8
0
 10
370.08908886051779
 20
16.085294321994301
 30
0.0
 11
264.2140888605179
 21
16.085294321994301
 31
0.0
  0
LINE
  5
3A0
  8
0
 10
264.2140888605179
 20
16.085294321994301
 30
0.0
 11
264.2140888605179
 21
92.585294321995036
 31
0.0
  0
LINE
  5
3A1
  8
0
 10
264.2140888605179
 20
92.585294321995036
 30
0.0
 11
370.08908886051779
 21
92.585294321995036
 31
0.0
  0
LINE
  5
3A2
  8
0
 10
370.0890888605179
 20
92.585294321995036
 30
0.0
 11
370.08908886051779
 21
16.085294321994301
 31
0.0
  0
LINE
  5
3A7
  8
0
 10
262.58908886052188
 20
94.085294321996813
 30
0.0
 11
371.71408886052211
 21
94.085294321996813
 31
0.0
  0
LINE
  5
3A8
  8
0
 10
371.71408886052211
 20
94.085294321996813
 30
0.0
 11
371.71408886052211
 21
101.0852943219968
 31
0.0
  0
LINE
  5
3A9
  8
0
 10
371.71408886052211
 20
101.0852943219968
 30
0.0
 11
262.58908886052188
 21
101.0852943219968
 31
0.0
  0
LINE
  5
3AA
  8
0
 10
262.58908886052188
 20
101.0852943219968
 30
0.0
 11
262.58908886052188
 21
94.085294321996813
 31
0.0
  0
LINE
  5
3AB
  8
0
 10
262.58908886052211
 20
94.085294321996756
 30
0.0
 11
262.58908886052211
 21
101.0852943219968
 31
0.0
  0
LINE
  5
3AC
  8
0
 10
262.58908886052211
 20
101.0852943219968
 30
0.0
 11
371.71408886052222
 21
101.0852943219968
 31
0.0
  0
LINE
  5
3AD
  8
0
 10
371.71408886052222
 20
101.0852943219968
 30
0.0
 11
371.71408886052222
 21
94.085294321996756
 31
0.0
  0
LINE
  5
3AE
  8
0
 10
371.71408886052222
 20
94.085294321996756
 30
0.0
 11
262.58908886052211
 21
94.085294321996756
 31
0.0
  0
LINE
  5
3B4
  8
0
 10
262.58908886052149
 20
94.085294321994283
 30
0.0
 11
371.71408886052149
 21
94.085294321994283
 31
0.0
  0
LINE
  5
3B6
  8
0
 10
371.71408886052183
 20
94.085294321994283
 30
0.0
 11
370.08908886052347
 21
94.085294321994283
 31
0.0
  0
LINE
  5
3B8
  8
0
 10
370.08908886052342
 20
94.085294321994283
 30
0.0
 11
264.21408886052342
 21
94.085294321994283
 31
0.0
  0
LINE
  5
3BA
  8
0
 10
264.21408886052347
 20
94.085294321994283
 30
0.0
 11
262.58908886052183
 21
94.085294321994283
 31
0.0
  0
LINE
  5
3BB
  8
0
 10
371.71408886052149
 20
1.085294321994295
 30
0.0
 11
262.58908886052149
 21
1.085294321994295
 31
0.0
  0
LINE
  5
3BD
  8
0
 10
262.5890888605216
 20
1.085294321994295
 30
0.0
 11
371.71408886052149
 21
1.085294321994295
 31
0.0
  0
LINE
  5
3BF
  8
0
 10
262.58908886052183
 20
1.085294321994295
 30
0.0
 11
371.71408886052183
 21
1.085294321994295
 31
0.0
  0
LINE
  5
3C1
  8
0
 10
371.71408886052183
 20
1.085294321994295
 30
0.0
 11
262.58908886052183
 21
1.085294321994295
 31
0.0
  0
LINE
  5
3C3
  8
0
 10
264.21408886052347
 20
94.085294321994283
 30
0.0
 11
264.21408886052239
 21
16.08529432199725
 31
0.0
  0
LINE
  5
3C4
  8
0
 10
264.21408886052239
 20
16.08529432199725
 30
0.0
 11
370.08908886052239
 21
16.0852943219958
 31
0.0
  0
LINE
  5
3C5
  8
0
 10
370.08908886052239
 20
16.0852943219958
 30
0.0
 11
370.08908886052347
 21
94.085294321994283
 31
0.0
  0
LINE
  5
3C6
  8
0
 10
371.71408886052183
 20
94.085294321994283
 30
0.0
 11
371.71408886052183
 21
1.085294321994295
 31
0.0
  0
LINE
  5
3C7
  8
0
 10
262.58908886052183
 20
1.085294321994295
 30
0.0
 11
262.58908886052183
 21
94.085294321994283
 31
0.0
  0
LINE
  5
3C8
  8
0
 10
262.58908886052183
 20
1.085294321994295
 30
0.0
 11
262.58908886052183
 21
3.0852943219947981
 31
0.0
  0
LINE
  5
3CA
  8
0
 10
262.58908886052149
 20
3.0852943219947981
 30
0.0
 11
262.58908886052149
 21
1.085294321994295
 31
0.0
  0
LINE
  5
3CB
  8
0
 10
262.58908886052149
 20
1.085294321994295
 30
0.0
 11
262.58908886052149
 21
94.085294321994283
 31
0.0
  0
LINE
  5
3CC
  8
0
 10
264.21408886052188
 20
92.585294321994795
 30
0.0
 11
370.08908886052188
 21
92.585294321994795
 31
0.0
  0
LINE
  5
3CD
  8
0
 10
370.08908886052188
 20
92.585294321994795
 30
0.0
 11
370.08908886052188
 21
16.085294321994301
 31
0.0
  0
LINE
  5
3CE
  8
0
 10
370.08908886052188
 20
16.085294321994301
 30
0.0
 11
264.21408886052188
 21
16.085294321994301
 31
0.0
  0
LINE
  5
3CF
  8
0
 10
264.21408886052188
 20
16.085294321994301
 30
0.0
 11
264.21408886052188
 21
92.585294321994795
 31
0.0
  0
LINE
  5
3D0
  8
0
 10
371.71408886052149
 20
1.085294321994295
 30
0.0
 11
371.71408886052149
 21
94.085294321994283
 31
0.0
  0
LINE
  5
3D1
  8
0
 10
371.71408886052149
 20
1.085294321994295
 30
0.0
 11
371.71408886052149
 21
3.085294321993286
 31
0.0
  0
LINE
  5
3D3
  8
0
 10
371.71408886052183
 20
3.085294321993286
 30
0.0
 11
371.71408886052183
 21
1.085294321994305
 31
0.0
  0
LINE
  5
3D4
  8
0
 10
371.71408886052222
 20
3.0852943219932838
 30
0.0
 11
262.58908886052222
 21
3.0852943219947928
 31
0.0
  0
LINE
  5
3D5
  8
0
 10
371.71408886052188
 20
3.085294321993286
 30
0.0
 11
262.58908886052188
 21
3.0852943219947928
 31
0.0
  0
LINE
  5
3D7
  8
0
 10
370.08908886052239
 20
16.085294321995779
 30
0.0
 11
370.08908886052342
 21
94.085294321996301
 31
0.0
  0
LINE
  5
3D8
  8
0
 10
264.21408886052342
 20
94.085294321997736
 30
0.0
 11
264.21408886052239
 21
16.08529432199725
 31
0.0
  0
LINE
  5
3DA
  8
0
 10
370.08908886052239
 20
16.0852943219958
 30
0.0
 11
264.21408886052239
 21
16.08529432199725
 31
0.0
  0
LINE
  5
3DB
  8
0
 10
370.089088860522
 20
92.585294321994795
 30
0.0
 11
264.214088860522
 21
92.585294321994795
 31
0.0
1001
ACAD
1000
ASC_BOUNDS
1002
{
1070
    19
1005
48E
1002
}
  0
LINE
  5
3DC
  8
0
 10
264.214088860522
 20
92.585294321994795
 30
0.0
 11
264.214088860522
 21
16.085294321994301
 31
0.0
1001
ACAD
1000
ASC_BOUNDS
1002
{
1070
    19
1005
48E
1002
}
  0
LINE
  5
3DD
  8
0
 10
264.214088860522
 20
16.085294321994301
 30
0.0
 11
370.089088860522
 21
16.085294321994301
 31
0.0
1001
ACAD
1000
ASC_BOUNDS
1002
{
1070
    19
1005
48E
1002
}
  0
LINE
  5
3DE
  8
0
 10
370.089088860522
 20
16.085294321994301
 30
0.0
 11
370.089088860522
 21
92.585294321994795
 31
0.0
1001
ACAD
1000
ASC_BOUNDS
1002
{
1070
    19
1005
48E
1002
}
  0
LINE
  5
3E4
  8
0
 10
97.450050739954435
 20
94.085294321996756
 30
0.0
 11
97.450050739954435
 21
101.0852943219968
 31
0.0
  0
LINE
  5
3E5
  8
0
 10
97.450050739954435
 20
101.0852943219968
 30
0.0
 11
-11.674949260045739
 21
101.0852943219968
 31
0.0
  0
LINE
  5
3E6
  8
0
 10
-11.674949260045739
 20
101.0852943219968
 30
0.0
 11
-11.674949260045739
 21
94.085294321996756
 31
0.0
  0
LINE
  5
3E7
  8
0
 10
-11.674949260045359
 20
94.085294321994283
 30
0.0
 11
-10.04994926004704
 21
94.085294321994283
 31
0.0
  0
LINE
  5
3E8
  8
0
 10
-10.04994926004697
 20
94.085294321994283
 30
0.0
 11
95.825050739953014
 21
94.085294321994283
 31
0.0
1001
ACAD
1000
ASC_BOUNDS
1002
{
1070
    19
1005
484
1002
}
  0
LINE
  5
3E9
  8
0
 10
95.825050739952957
 20
94.085294321994283
 30
0.0
 11
97.450050739954634
 21
94.085294321994283
 31
0.0
  0
LINE
  5
3EA
  8
0
 10
97.450050739954634
 20
1.085294321994295
 30
0.0
 11
-11.674949260045359
 21
1.085294321994295
 31
0.0
  0
LINE
  5
3EB
  8
0
 10
95.825050739952957
 20
94.085294321994283
 30
0.0
 11
95.825050739954037
 21
16.08529432199726
 31
0.0
1001
ACAD
1000
ASC_BOUNDS
1002
{
1070
    19
1005
484
1002
}
  0
LINE
  5
3EC
  8
0
 10
95.825050739954037
 20
16.08529432199726
 30
0.0
 11
-10.04994926004594
 21
16.0852943219958
 31
0.0
1001
ACAD
1000
ASC_BOUNDS
1002
{
1070
    19
1005
484
1002
}
  0
LINE
  5
3ED
  8
0
 10
-10.04994926004594
 20
16.0852943219958
 30
0.0
 11
-10.04994926004704
 21
94.085294321994283
 31
0.0
1001
ACAD
1000
ASC_BOUNDS
1002
{
1070
    19
1005
484
1002
}
  0
LINE
  5
3EE
  8
0
 10
-11.674949260045359
 20
94.085294321994283
 30
0.0
 11
-11.674949260045359
 21
1.085294321994295
 31
0.0
  0
LINE
  5
3EF
  8
0
 10
97.450050739954634
 20
1.085294321994295
 30
0.0
 11
97.450050739954634
 21
94.085294321994283
 31
0.0
  0
POLYLINE
  5
3F3
  8
0
  6
HIDDEN2
 66
     1
 10
0.0
 20
0.0
 30
0.0
  0
VERTEX
  5
98B
  8
0
  6
HIDDEN2
 10
211.11833165059031
 20
230.16113611229261
 30
0.0
  0
VERTEX
  5
98C
  8
0
  6
HIDDEN2
 10
211.32752656433041
 20
230.1728426603465
 30
0.0
  0
VERTEX
  5
98D
  8
0
  6
HIDDEN2
 10
211.53410926440611
 20
230.20781612502299
 30
0.0
  0
VERTEX
  5
98E
  8
0
  6
HIDDEN2
 10
211.73550015582481
 20
230.26561979320749
 30
0.0
  0
VERTEX
  5
98F
  8
0
  6
HIDDEN2
 10
211.92918447362879
 20
230.34553187138621
 30
0.0
  0
VERTEX
  5
990
  8
0
  6
HIDDEN2
 10
212.1127436847261
 20
230.44655449867039
 30
0.0
  0
VERTEX
  5
991
  8
0
  6
HIDDEN2
 10
212.28388568807631
 20
230.56742620706959
 30
0.0
  0
VERTEX
  5
992
  8
0
  6
HIDDEN2
 10
212.44047343612061
 20
230.70663767342359
 30
0.0
  0
VERTEX
  5
993
  8
0
  6
HIDDEN2
 10
212.5805516200621
 20
230.86245056629741
 30
0.0
  0
VERTEX
  5
994
  8
0
  6
HIDDEN2
 10
212.70237108577641
 20
231.03291925249849
 30
0.0
  0
VERTEX
  5
995
  8
0
  6
HIDDEN2
 10
212.80441067547241
 20
231.21591509216901
 30
0.0
  0
VERTEX
  5
996
  8
0
  6
HIDDEN2
 10
212.88539622236581
 20
231.40915301907879
 30
0.0
  0
VERTEX
  5
997
  8
0
  6
HIDDEN2
 10
212.94431646118051
 20
231.61022007421241
 30
0.0
  0
VERTEX
  5
998
  8
0
  6
HIDDEN2
 10
212.9804356558023
 20
231.81660553635029
 30
0.0
  0
VERTEX
  5
999
  8
0
  6
HIDDEN2
 10
213.0016339013232
 20
232.16113611229261
 30
0.0
  0
VERTEX
  5
99A
  8
0
  6
HIDDEN2
 10
213.24333165059031
 20
232.16113611229261
 30
0.0
  0
SEQEND
  5
99B
  8
0
  6
HIDDEN2
  0
POLYLINE
  5
3F4
  8
0
  6
HIDDEN2
 66
     1
 10
0.0
 20
0.0
 30
0.0
  0
VERTEX
  5
99C
  8
0
  6
HIDDEN2
 10
213.24333165058999
 20
155.1611361122925
 30
0.0
  0
VERTEX
  5
99D
  8
0
  6
HIDDEN2
 10
213.0003266509969
 20
155.1611361122925
 30
0.0
  0
VERTEX
  5
99E
  8
0
  6
HIDDEN2
 10
212.98162510253621
 20
155.49533102603249
 30
0.0
  0
VERTEX
  5
99F
  8
0
  6
HIDDEN2
 10
212.9466516378597
 20
155.70191372610819
 30
0.0
  0
VERTEX
  5
9A0
  8
0
  6
HIDDEN2
 10
212.88884796967511
 20
155.903304617527
 30
0.0
  0
VERTEX
  5
9A1
  8
0
  6
HIDDEN2
 10
212.80893589149639
 20
156.09698893533101
 30
0.0
  0
VERTEX
  5
9A2
  8
0
  6
HIDDEN2
 10
212.70791326421229
 20
156.28054814642829
 30
0.0
  0
VERTEX
  5
9A3
  8
0
  6
HIDDEN2
 10
212.5870415558131
 20
156.45169014977839
 30
0.0
  0
VERTEX
  5
9A4
  8
0
  6
HIDDEN2
 10
212.44783008945899
 20
156.60827789782269
 30
0.0
  0
VERTEX
  5
9A5
  8
0
  6
HIDDEN2
 10
212.29201719658519
 20
156.74835608176431
 30
0.0
  0
VERTEX
  5
9A6
  8
0
  6
HIDDEN2
 10
212.1215485103842
 20
156.8701755474786
 30
0.0
  0
VERTEX
  5
9A7
  8
0
  6
HIDDEN2
 10
211.9385526707137
 20
156.9722151371746
 30
0.0
  0
VERTEX
  5
9A8
  8
0
  6
HIDDEN2
 10
211.74531474380379
 20
157.053200684068
 30
0.0
  0
VERTEX
  5
9A9
  8
0
  6
HIDDEN2
 10
211.54424768867031
 20
157.1121209228827
 30
0.0
  0
VERTEX
  5
9AA
  8
0
  6
HIDDEN2
 10
211.33786222653231
 20
157.1482401175044
 30
0.0
  0
VERTEX
  5
9AB
  8
0
  6
HIDDEN2
 10
211.1287354894753
 20
157.1611072481067
 30
0.0
  0
VERTEX
  5
9AC
  8
0
  6
HIDDEN2
 10
211.11833165059011
 20
157.1611361122925
 30
0.0
  0
SEQEND
  5
9AD
  8
0
  6
HIDDEN2
  0
LINE
  5
3F6
  8
0
  6
HIDDEN2
 10
203.74333165059011
 20
157.1611361122925
 30
0.0
 11
211.11833165059011
 21
157.1611361122925
 31
0.0
  0
LINE
  5
3F7
  8
0
  6
HIDDEN2
 10
211.11833165059031
 20
230.16113611229261
 30
0.0
 11
203.74333165059031
 21
230.16113611229261
 31
0.0
  0
LINE
  5
3F8
  8
0
  6
HIDDEN2
 10
213.24333165058999
 20
155.1611361122925
 30
0.0
 11
213.24333165059031
 21
232.16113611229261
 31
0.0
  0
LINE
  5
3F9
  8
0
  6
HIDDEN2
 10
213.24333165059031
 20
232.16113611229261
 30
0.0
 11
213.24333165058999
 21
155.1611361122925
 31
0.0
  0
LINE
  5
404
  8
0
  6
HIDDEN2
 10
203.74333165059051
 20
246.59863611229241
 30
0.0
 11
205.24333165059051
 21
246.59863611229241
 31
0.0
  0
LINE
  5
405
  8
0
  6
HIDDEN2
 10
203.74333165058999
 20
140.72363611229241
 30
0.0
 11
205.24333165058999
 21
140.72363611229241
 31
0.0
  0
LINE
  5
406
  8
0
  6
HIDDEN2
 10
214.366538344698
 20
154.72363611229241
 30
0.0
 11
205.24333165058999
 21
154.72363611229241
 31
0.0
  0
LINE
  5
407
  8
0
  6
HIDDEN2
 10
205.24333165058999
 20
142.72363611229241
 30
0.0
 11
214.366538344698
 21
142.72363611229241
 31
0.0
  0
LINE
  5
408
  8
0
  6
HIDDEN2
 10
214.366538344698
 20
142.72363611229241
 30
0.0
 11
214.366538344698
 21
154.72363611229241
 31
0.0
  0
LINE
  5
409
  8
0
  6
HIDDEN2
 10
214.366538344698
 20
154.72363611229241
 30
0.0
 11
214.36653834469789
 21
142.72363611229241
 31
0.0
  0
LINE
  5
40A
  8
0
  6
HIDDEN2
 10
205.24333165058999
 20
142.72363611229241
 30
0.0
 11
205.24333165058999
 21
154.72363611229241
 31
0.0
  0
LINE
  5
40B
  8
0
  6
HIDDEN2
 10
205.24333165058999
 20
154.72363611229241
 30
0.0
 11
205.24333165058999
 21
142.72363611229241
 31
0.0
  0
LINE
  5
413
  8
0
  6
HIDDEN2
 10
221.74333165059051
 20
246.5986361122923
 30
0.0
 11
221.61833165059051
 21
246.5986361122923
 31
0.0
  0
LINE
  5
414
  8
0
  6
HIDDEN2
 10
221.61833165058999
 20
140.7236361122923
 30
0.0
 11
221.74333165058999
 21
140.7236361122923
 31
0.0
  0
LINE
  5
416
  8
0
 10
184.86833165059011
 20
248.2236361122967
 30
0.0
 11
184.86833165058971
 21
139.0986361122965
 31
0.0
  0
LINE
  5
419
  8
0
 10
156.11833165058971
 20
139.09863611229659
 30
0.0
 11
156.11833165059011
 21
248.22363611229679
 31
0.0
  0
LINE
  5
41B
  8
0
 10
156.11833165059011
 20
248.22363611229679
 30
0.0
 11
184.86833165059011
 21
248.2236361122967
 31
0.0
  0
LINE
  5
41C
  8
0
 10
156.11833165058971
 20
139.09863611229659
 30
0.0
 11
184.86833165058971
 21
139.0986361122965
 31
0.0
  0
LINE
  5
41D
  8
0
 10
134.36833165059011
 20
139.09863611229639
 30
0.0
 11
221.74333165059019
 21
139.09863611229599
 31
0.0
  0
LINE
  5
41F
  8
0
 10
221.74333165059051
 20
248.22363611229611
 30
0.0
 11
134.36833165059051
 21
248.22363611229639
 31
0.0
  0
LINE
  5
420
  8
0
 10
134.36833165059051
 20
248.22363611229639
 30
0.0
 11
134.36833165059051
 21
246.5986361122981
 31
0.0
  0
LINE
  5
421
  8
0
 10
134.36833165059051
 20
246.5986361122981
 30
0.0
 11
150.6218361458512
 21
246.59863611229801
 31
0.0
  0
LINE
  5
422
  8
0
 10
150.62183614585089
 20
246.59863611229801
 30
0.0
 11
150.6218361458503
 21
140.72363611229801
 31
0.0
1001
ACAD
1000
ASC_BOUNDS
1002
{
1070
    19
1005
472
1002
}
  0
LINE
  5
423
  8
0
 10
150.62183614585089
 20
140.72363611229801
 30
0.0
 11
134.36833165059011
 21
140.7236361122981
 31
0.0
  0
LINE
  5
424
  8
0
 10
134.36833165059011
 20
140.7236361122981
 30
0.0
 11
134.36833165059011
 21
139.09863611229639
 31
0.0
  0
LINE
  5
426
  8
0
 10
134.36833165059011
 20
140.7236361122969
 30
0.0
 11
134.36833165059051
 21
246.59863611229699
 31
0.0
  0
LINE
  5
433
  8
0
 10
134.36833165059051
 20
246.59863611229699
 30
0.0
 11
136.86833165059051
 21
246.59863611229699
 31
0.0
  0
LINE
  5
434
  8
0
 10
136.86833165059051
 20
246.59863611229699
 30
0.0
 11
150.6218361458512
 21
246.59863611229801
 31
0.0
1001
ACAD
1000
ASC_BOUNDS
1002
{
1070
    19
1005
472
1002
}
  0
LINE
  5
435
  8
0
 10
150.62183614585089
 20
140.72363611229801
 30
0.0
 11
136.86833165059011
 21
140.7236361122969
 31
0.0
1001
ACAD
1000
ASC_BOUNDS
1002
{
1070
    19
1005
472
1002
}
  0
LINE
  5
436
  8
0
 10
136.86833165059011
 20
140.7236361122969
 30
0.0
 11
134.36833165059011
 21
140.7236361122969
 31
0.0
  0
LINE
  5
437
  8
0
 10
136.86833165059051
 20
246.59863611229699
 30
0.0
 11
136.86833165059011
 21
140.7236361122969
 31
0.0
1001
ACAD
1000
ASC_BOUNDS
1002
{
1070
    19
1005
472
1002
}
  0
LINE
  5
439
  8
0
  6
HIDDEN2
 10
203.74333165058991
 20
140.7236361122965
 30
0.0
 11
203.74333165059039
 21
246.59863611229659
 31
0.0
  0
LINE
  5
43B
  8
0
  6
HIDDEN2
 10
221.74333165058979
 20
140.72363611229639
 30
0.0
 11
203.74333165058979
 21
140.7236361122965
 31
0.0
  0
LINE
  5
43C
  8
0
  6
HIDDEN2
 10
221.74333165059039
 20
246.59863611229639
 30
0.0
 11
203.74333165059039
 21
246.59863611229659
 31
0.0
  0
LINE
  5
443
  8
0
 10
194.74333165059019
 20
139.09863611229619
 30
0.0
 11
194.74333165059019
 21
138.84863611229619
 31
0.0
  0
LINE
  5
444
  8
0
 10
195.74333165059019
 20
138.84863611229619
 30
0.0
 11
195.74333165059019
 21
139.09863611229619
 31
0.0
  0
LINE
  5
445
  8
0
 10
195.74333165059019
 20
139.09863611229619
 30
0.0
 11
194.74333165059019
 21
139.09863611229619
 31
0.0
  0
LINE
  5
446
  8
0
 10
194.74333165059019
 20
139.09863611229619
 30
0.0
 11
195.74333165059019
 21
139.09863611229619
 31
0.0
  0
LINE
  5
447
  8
0
 10
195.74333165059019
 20
138.84863611229619
 30
0.0
 11
194.74333165059019
 21
138.84863611229619
 31
0.0
  0
LINE
  5
448
  8
0
 10
194.74333165059019
 20
138.84863611229619
 30
0.0
 11
195.74333165059019
 21
138.84863611229619
 31
0.0
  0
ARC
  5
449
  8
0
 10
172.36833165058991
 20
193.6611361122921
 30
0.0
 40
3.9999999999999951
 50
90.0
 51
269.9999999999992
  0
ARC
  5
44A
  8
0
 10
172.36833165058991
 20
193.6611361122921
 30
0.0
 40
3.9999999999999978
 50
269.9999999999992
 51
90.0
  0
LINE
  5
44B
  8
0
 10
208.49333165059019
 20
139.09863611229619
 30
0.0
 11
208.49333165059019
 21
138.84863611229619
 31
0.0
  0
LINE
  5
44C
  8
0
 10
216.49333165059019
 20
138.84863611229619
 30
0.0
 11
216.49333165059019
 21
139.09863611229619
 31
0.0
  0
LINE
  5
44D
  8
0
 10
187.24333165059019
 20
139.09863611229619
 30
0.0
 11
187.24333165059019
 21
138.84863611229619
 31
0.0
  0
LINE
  5
44E
  8
0
 10
190.24333165059019
 20
138.84863611229619
 30
0.0
 11
190.24333165059019
 21
139.09863611229619
 31
0.0
  0
LINE
  5
44F
  8
0
 10
187.74333165059019
 20
139.09863611229619
 30
0.0
 11
187.74333165059019
 21
138.84863611229619
 31
0.0
  0
LINE
  5
450
  8
0
 10
189.74333165059019
 20
138.84863611229619
 30
0.0
 11
189.74333165059019
 21
139.09863611229619
 31
0.0
  0
LINE
  5
451
  8
0
 10
216.49333165059019
 20
139.09863611229619
 30
0.0
 11
208.49333165059019
 21
139.09863611229619
 31
0.0
  0
LINE
  5
452
  8
0
 10
208.49333165059019
 20
139.09863611229619
 30
0.0
 11
216.49333165059019
 21
139.09863611229619
 31
0.0
  0
LINE
  5
453
  8
0
 10
190.24333165059019
 20
139.09863611229619
 30
0.0
 11
187.24333165059019
 21
139.09863611229619
 31
0.0
  0
LINE
  5
454
  8
0
 10
187.24333165059019
 20
139.09863611229619
 30
0.0
 11
190.24333165059019
 21
139.09863611229619
 31
0.0
  0
LINE
  5
455
  8
0
 10
189.74333165059019
 20
139.09863611229619
 30
0.0
 11
187.74333165059019
 21
139.09863611229619
 31
0.0
  0
LINE
  5
456
  8
0
 10
187.74333165059019
 20
139.09863611229619
 30
0.0
 11
189.74333165059019
 21
139.09863611229619
 31
0.0
  0
LINE
  5
457
  8
0
 10
216.49333165059019
 20
138.84863611229619
 30
0.0
 11
208.49333165059019
 21
138.84863611229619
 31
0.0
  0
LINE
  5
458
  8
0
 10
208.49333165059019
 20
138.84863611229619
 30
0.0
 11
216.49333165059019
 21
138.84863611229619
 31
0.0
  0
LINE
  5
459
  8
0
 10
190.24333165059019
 20
138.84863611229619
 30
0.0
 11
187.24333165059019
 21
138.84863611229619
 31
0.0
  0
LINE
  5
45A
  8
0
 10
187.24333165059019
 20
138.84863611229619
 30
0.0
 11
190.24333165059019
 21
138.84863611229619
 31
0.0
  0
LINE
  5
45B
  8
0
 10
189.74333165059019
 20
138.84863611229619
 30
0.0
 11
187.74333165059019
 21
138.84863611229619
 31
0.0
  0
LINE
  5
45C
  8
0
 10
187.74333165059019
 20
138.84863611229619
 30
0.0
 11
189.74333165059019
 21
138.84863611229619
 31
0.0
  0
LINE
  5
465
  8
0
 10
221.74333165059051
 20
248.22363611229611
 30
0.0
 11
221.74333165059019
 21
139.09863611229599
 31
0.0
  0
INSERT
  5
472
  8
0
  6
CONTINUOUS
  2
*X5
 10
0.0
 20
0.0
 30
0.0
1001
GRADIENTCOLOR1ACI
1070
     5
1001
GRADIENTCOLOR2ACI
1070
     2
1001
ACAD
1000
HATCH
1002
{
1070
    19
1000
ANSI31
1040
12.0
1040
2.3561944901923439
1000
ASC_BOUNDS
1070
     1
1070
     1
1070
     4
1005
422
1005
435
1005
437
1005
434
1000
ASC_SEEDPOINT
1011
144.15589255563509
1021
0.0
1031
0.0
1021
206.5669914626782
1031
0.0
1000
R14_HATCH_DATA
1000
472
1011
1.0
1021
0.0
1031
0.0
1021
0.0
1031
0.0
1011
0.0
1021
0.0
1031
0.0
1021
1.0
1031
0.0
1011
0.0
1021
0.0
1031
0.0
1021
0.0
1031
1.0
1040
0.0
1010
0.0
1020
0.0
1030
1.0
1000
ANSI31
1070
     0
1070
     1
1071
        1
1071
        7
1070
     0
1070
     1
1071
        4
1040
150.62183614585089
1040
246.59863611229801
1040
136.86833165059051
1040
246.59863611229699
1040
136.86833165059011
1040
140.7236361122969
1040
150.6218361458503
1040
140.72363611229801
1071
        4
1005
434
1005
437
1005
435
1005
422
1070
     1
1070
     1
1040
2.3561944901923439
1040
12.0
1070
     0
1070
     1
1040
3.1415926535897931
1040
0.0
1040
0.0
1040
-0.0000000000000002
1040
-1.5
1070
     0
1040
0.1797267283479722
1071
        1
1040
144.15589255563509
1040
206.5669914626782
1040
0.0
1002
}
  0
INSERT
  5
484
  8
0
  6
CONTINUOUS
  2
*X6
 10
0.0
 20
0.0
 30
0.0
1001
GRADIENTCOLOR1ACI
1070
     5
1001
GRADIENTCOLOR2ACI
1070
     2
1001
ACAD
1000
HATCH
1002
{
1070
    19
1000
ANSI31
1040
12.0
1040
0.7853981633974483
1000
ASC_BOUNDS
1070
     1
1070
     1
1070
     4
1005
3EB
1005
3EC
1005
3ED
1005
3E8
1000
ASC_SEEDPOINT
1011
25.210804060345939
1021
0.0
1031
0.0
1021
71.878000292238312
1031
0.0
1000
R14_HATCH_DATA
1000
484
1011
1.0
1021
0.0
1031
0.0
1021
0.0
1031
0.0
1011
0.0
1021
0.0
1031
0.0
1021
1.0
1031
0.0
1011
0.0
1021
0.0
1031
0.0
1021
0.0
1031
1.0
1040
0.0
1010
0.0
1020
0.0
1030
1.0
1000
ANSI31
1070
     0
1070
     1
1071
        1
1071
        7
1070
     0
1070
     1
1071
        4
1040
95.825050739952957
1040
94.085294321994283
1040
-10.049949260047031
1040
94.085294321994283
1040
-10.04994926004594
1040
16.0852943219958
1040
95.825050739954037
1040
16.08529432199726
1071
        4
1005
3E8
1005
3ED
1005
3EC
1005
3EB
1070
     1
1070
     1
1040
0.7853981633974483
1040
12.0
1070
     0
1070
     1
1040
1.5707963267948959
1040
0.0
1040
0.0
1040
-1.5
1040
0.0000000000000002
1070
     0
1040
0.2874500843642111
1071
        1
1040
25.210804060345939
1040
71.878000292238312
1040
0.0
1002
}
  0
INSERT
  5
48E
  8
0
  6
CONTINUOUS
  2
*X7
 10
0.0
 20
0.0
 30
0.0
1001
GRADIENTCOLOR1ACI
1070
     5
1001
GRADIENTCOLOR2ACI
1070
     2
1001
ACAD
1000
HATCH
1002
{
1070
    19
1000
NET
1040
24.0
1040
0.0
1000
ASC_BOUNDS
1070
     1
1070
     1
1070
     4
1005
3DE
1005
3DD
1005
3DC
1005
3DB
1000
ASC_SEEDPOINT
1011
290.49974162537529
1021
0.0
1031
0.0
1021
77.169652046675424
1031
0.0
1000
R14_HATCH_DATA
1000
48E
1011
1.0
1021
0.0
1031
0.0
1021
0.0
1031
0.0
1011
0.0
1021
0.0
1031
0.0
1021
1.0
1031
0.0
1011
0.0
1021
0.0
1031
0.0
1021
0.0
1031
1.0
1040
0.0
1010
0.0
1020
0.0
1030
1.0
1000
NET
1070
     0
1070
     1
1071
        1
1071
        7
1070
     0
1070
     1
1071
        4
1040
370.089088860522
1040
92.585294321994795
1040
264.214088860522
1040
92.585294321994795
1040
264.214088860522
1040
16.085294321994301
1040
370.089088860522
1040
16.085294321994301
1071
        4
1005
3DB
1005
3DC
1005
3DD
1005
3DE
1070
     1
1070
     1
1040
0.0
1040
24.0
1070
     0
1070
     2
1040
0.0
1040
0.0
1040
0.0
1040
0.0
1040
3.0
1070
     0
1040
1.5707963267948959
1040
0.0
1040
0.0
1040
-3.0
1040
0.0000000000000002
1070
     0
1040
0.1818470996115689
1071
        1
1040
290.49974162537529
1040
77.169652046675424
1040
0.0
1002
}
  0
ENDSEC
  0
EOF
