  0
SECTION
  2
HEADER
  9
$ACADVER
  1
AC1009
  9
$INSBASE
 10
0.0
 20
0.0
 30
0.0
  9
$EXTMIN
 10
-0.0124650905825092
 20
-0.0099717235782464
 30
-0.0000000349181948
  9
$EXTMAX
 10
204.24986058027741
 20
181.39505536256459
 30
0.0000000814935747
  9
$LIMMIN
 10
0.0
 20
0.0
  9
$LIMMAX
 10
12.0
 20
9.0
  9
$ORTHOMODE
 70
     1
  9
$REGENMODE
 70
     1
  9
$FILLMODE
 70
     1
  9
$QTEXTMODE
 70
     0
  9
$MIRRTEXT
 70
     0
  9
$DRAGMODE
 70
     2
  9
$LTSCALE
 40
1.0
  9
$OSMODE
 70
    37
  9
$ATTMODE
 70
     1
  9
$TEXTSIZE
 40
0.2
  9
$TRACEWID
 40
0.05
  9
$TEXTSTYLE
  7
ROMANS
  9
$CLAYER
  8
0
  9
$CELTYPE
  6
BYLAYER
  9
$CECOLOR
 62
   256
  9
$DIMSCALE
 40
1.0
  9
$DIMASZ
 40
0.09375
  9
$DIMEXO
 40
0.0625
  9
$DIMDLI
 40
0.375
  9
$DIMRND
 40
0.0
  9
$DIMDLE
 40
0.0
  9
$DIMEXE
 40
0.03125
  9
$DIMTP
 40
0.0
  9
$DIMTM
 40
0.0
  9
$DIMTXT
 40
0.09375
  9
$DIMCEN
 40
0.09375
  9
$DIMTSZ
 40
0.0
  9
$DIMTOL
 70
     0
  9
$DIMLIM
 70
     0
  9
$DIMTIH
 70
     0
  9
$DIMTOH
 70
     0
  9
$DIMSE1
 70
     0
  9
$DIMSE2
 70
     0
  9
$DIMTAD
 70
     0
  9
$DIMZIN
 70
     0
  9
$DIMBLK
  1

  9
$DIMASO
 70
     1
  9
$DIMSHO
 70
     1
  9
$DIMPOST
  1

  9
$DIMAPOST
  1

  9
$DIMALT
 70
     0
  9
$DIMALTD
 70
     2
  9
$DIMALTF
 40
25.399999999999999
  9
$DIMLFAC
 40
1.0
  9
$DIMTOFL
 70
     0
  9
$DIMTVP
 40
0.0
  9
$DIMTIX
 70
     0
  9
$DIMSOXD
 70
     0
  9
$DIMSAH
 70
     0
  9
$DIMBLK1
  1

  9
$DIMBLK2
  1

  9
$DIMSTYLE
  2
BAC
  9
$DIMCLRD
 70
     0
  9
$DIMCLRE
 70
     6
  9
$DIMCLRT
 70
     0
  9
$DIMTFAC
 40
1.0
  9
$DIMGAP
 40
0.0625
  9
$LUNITS
 70
     5
  9
$LUPREC
 70
     6
  9
$SKETCHINC
 40
0.1
  9
$FILLETRAD
 40
0.5
  9
$AUNITS
 70
     0
  9
$AUPREC
 70
     0
  9
$MENU
  1
.
  9
$ELEVATION
 40
0.0
  9
$PELEVATION
 40
0.0
  9
$THICKNESS
 40
0.0
  9
$LIMCHECK
 70
     0
  9
$BLIPMODE
 70
     0
  9
$CHAMFERA
 40
0.5
  9
$CHAMFERB
 40
0.5
  9
$SKPOLY
 70
     0
  9
$TDCREATE
 40
2456827.6328162728
  9
$TDUPDATE
 40
2456827.6357066091
  9
$TDINDWG
 40
0.0020082523
  9
$TDUSRTIMER
 40
0.0020077083
  9
$USRTIMER
 70
     1
  9
$ANGBASE
 50
0.0
  9
$ANGDIR
 70
     0
  9
$PDMODE
 70
     0
  9
$PDSIZE
 40
0.0
  9
$PLINEWID
 40
0.0
  9
$COORDS
 70
     1
  9
$SPLFRAME
 70
     0
  9
$SPLINETYPE
 70
     6
  9
$SPLINESEGS
 70
     8
  9
$ATTDIA
 70
     0
  9
$ATTREQ
 70
     1
  9
$HANDLING
 70
     1
  9
$HANDSEED
  5
6D7
  9
$SURFTAB1
 70
     6
  9
$SURFTAB2
 70
     6
  9
$SURFTYPE
 70
     6
  9
$SURFU
 70
     6
  9
$SURFV
 70
     6
  9
$UCSNAME
  2

  9
$UCSORG
 10
0.0
 20
0.0
 30
0.0
  9
$UCSXDIR
 10
1.0
 20
0.0
 30
0.0
  9
$UCSYDIR
 10
0.0
 20
1.0
 30
0.0
  9
$PUCSNAME
  2

  9
$PUCSORG
 10
0.0
 20
0.0
 30
0.0
  9
$PUCSXDIR
 10
1.0
 20
0.0
 30
0.0
  9
$PUCSYDIR
 10
0.0
 20
1.0
 30
0.0
  9
$USERI1
 70
     0
  9
$USERI2
 70
     0
  9
$USERI3
 70
     0
  9
$USERI4
 70
     0
  9
$USERI5
 70
     0
  9
$USERR1
 40
0.0
  9
$USERR2
 40
0.0
  9
$USERR3
 40
0.0
  9
$USERR4
 40
0.0
  9
$USERR5
 40
0.0
  9
$WORLDVIEW
 70
     1
  9
$SHADEDGE
 70
     3
  9
$SHADEDIF
 70
    70
  9
$TILEMODE
 70
     1
  9
$MAXACTVP
 70
    48
  9
$PLIMCHECK
 70
     0
  9
$PEXTMIN
 10
1.0000000000000000E+020
 20
1.0000000000000000E+020
 30
1.0000000000000000E+020
  9
$PEXTMAX
 10
-1.0000000000000000E+020
 20
-1.0000000000000000E+020
 30
-1.0000000000000000E+020
  9
$PLIMMIN
 10
0.0
 20
0.0
  9
$PLIMMAX
 10
12.0
 20
9.0
  9
$UNITMODE
 70
     0
  9
$VISRETAIN
 70
     1
  9
$PLINEGEN
 70
     0
  9
$PSLTSCALE
 70
     1
  0
ENDSEC
  0
SECTION
  2
TABLES
  0
TABLE
  2
VPORT
 70
     1
  0
VPORT
  2
*ACTIVE
 70
     0
 10
0.0
 20
0.0
 11
1.0
 21
1.0
 12
102.1186977448474
 22
90.692541819493186
 13
0.0
 23
0.0
 14
0.5
 24
0.5
 15
0.5
 25
0.5
 16
0.0
 26
0.0
 36
1.0
 17
0.0
 27
0.0
 37
0.0
 40
182.6117124104409
 41
1.7702552719200879
 42
50.0
 43
0.0
 44
0.0
 50
0.0
 51
0.0
 71
     0
 72
   100
 73
     1
 74
     1
 75
     0
 76
     0
 77
     0
 78
     0
  0
ENDTAB
  0
TABLE
  2
LTYPE
 70
    11
  0
LTYPE
  2
CONTINUOUS
 70
     0
  3
Solid line
 72
    65
 73
     0
 40
0.0
  0
LTYPE
  2
PHANTOM2
 70
     0
  3
Phantom (.5x) ___ _ _ ___ _ _ ___ _ _ ___ _ _
 72
    65
 73
     6
 40
1.25
 49
0.625
 49
-0.125
 49
0.125
 49
-0.125
 49
0.125
 49
-0.125
  0
ENDTAB
  0
TABLE
  2
LAYER
 70
     1
  0
LAYER
  2
0
 70
     0
 62
     7
  6
CONTINUOUS
  0
ENDTAB
  0
TABLE
  2
STYLE
 70
     5
  0
STYLE
  2
STANDARD
 70
     0
 40
0.0
 41
1.0
 50
0.0
 71
     0
 42
0.2
  3
txt
  4

  0
STYLE
  2
ROMANS
 70
     0
 40
0.0
 41
0.75
 50
0.0
 71
     0
 42
0.2
  3
romans.shx
  4

  0
ENDTAB
  0
TABLE
  2
VIEW
 70
     0
  0
ENDTAB
  0
TABLE
  2
UCS
 70
     0
  0
ENDTAB
  0
TABLE
  2
APPID
 70
    16
  0
APPID
  2
ACAD
 70
     0
  0
APPID
  2
ACADANNOTATIVE
 70
     0
  0
APPID
  2
ACAD_MLEADERVER
 70
     0
  0
APPID
  2
ACAD_DSTYLE_DIMJAG
 70
     0
  0
APPID
  2
ACAD_DSTYLE_DIMTALN
 70
     0
  0
APPID
  2
ACAD_PSEXT
 70
     0
  0
APPID
  2
ACADANNOPO
 70
     0
  0
APPID
  2
MCAD_NO_VIS
 70
     0
  0
APPID
  2
ACAD_TEMP_GRAPHIC
 70
     0
  0
APPID
  2
ACATTRIBSERVICES
 70
     0
  0
APPID
  2
DESIGNERASSEMBLIES
 70
     0
  0
APPID
  2
ACAD_DSTYLE_DIMBREAK
 70
     0
  0
APPID
  2
ACAD_NAV_VCDISPLAY
 70
     0
  0
APPID
  2
GRADIENTCOLOR1ACI
 70
     0
  0
APPID
  2
GRADIENTCOLOR2ACI
 70
     0
  0
APPID
  2
ACAD_EXEMPT_FROM_CAD_STANDARDS
 70
     0
  0
ENDTAB
  0
TABLE
  2
DIMSTYLE
 70
    10
  0
DIMSTYLE
  2
STANDARD
 70
     0
  3

  4

  5

  6

  7

 40
1.0
 41
0.18
 42
0.0625
 43
0.38
 44
0.18
 45
0.0
 46
0.0
 47
0.0
 48
0.0
140
0.18
141
0.09
142
0.0
143
25.399999999999999
144
1.0
145
0.0
146
1.0
147
0.09
 71
     0
 72
     0
 73
     1
 74
     1
 75
     0
 76
     0
 77
     0
 78
     0
170
     0
171
     2
172
     0
173
     0
174
     0
175
     0
176
     0
177
     0
178
     0
  0
DIMSTYLE
  2
BAC
 70
     0
  3

  4

  5

  6

  7

 40
1.0
 41
0.09375
 42
0.0625
 43
0.375
 44
0.03125
 45
0.0
 46
0.0
 47
0.0
 48
0.0
140
0.09375
141
0.09375
142
0.0
143
25.399999999999999
144
1.0
145
0.0
146
1.0
147
0.0625
 71
     0
 72
     0
 73
     0
 74
     0
 75
     0
 76
     0
 77
     0
 78
     0
170
     0
171
     2
172
     0
173
     0
174
     0
175
     0
176
     0
177
     6
178
     0
  0
ENDTAB
  0
ENDSEC
  0
SECTION
  2
BLOCKS
  0
BLOCK
  8
0
  2
$MODEL_SPACE
 70
     0
 10
0.0
 20
0.0
 30
0.0
  3
$MODEL_SPACE
  1

  0
ENDBLK
  5
62E
  8
0
  0
BLOCK
 67
     1
  8
0
  2
$PAPER_SPACE
 70
     0
 10
0.0
 20
0.0
 30
0.0
  3
$PAPER_SPACE
  1

  0
ENDBLK
  5
62A
 67
     1
  8
0
  0
BLOCK
  8
0
  2
*X4
 70
     1
 10
0.0
 20
0.0
 30
0.0
  3
*X4
  1

  0
LINE
  5
561
  8
0
 62
     0
 10
202.5
 20
4.000000203091278
 30
0.0
 11
202.5
 21
42.500000203091822
 31
0.0
  0
LINE
  5
562
  8
0
 62
     0
 10
201.0
 20
4.0000002030912611
 30
0.0
 11
201.0
 21
42.500000203091808
 31
0.0
  0
LINE
  5
563
  8
0
 62
     0
 10
199.5
 20
4.0000002030912443
 30
0.0
 11
199.5
 21
42.500000203091787
 31
0.0
  0
LINE
  5
564
  8
0
 62
     0
 10
198.0
 20
4.0000002030912274
 30
0.0
 11
198.0
 21
42.500000203091773
 31
0.0
  0
LINE
  5
565
  8
0
 62
     0
 10
196.5
 20
4.0000002030912114
 30
0.0
 11
196.5
 21
42.500000203091751
 31
0.0
  0
LINE
  5
566
  8
0
 62
     0
 10
177.0
 20
4.0000002030910009
 30
0.0
 11
177.0
 21
42.500000203091567
 31
0.0
  0
LINE
  5
567
  8
0
 62
     0
 10
175.5
 20
4.0000002030909858
 30
0.0
 11
175.5
 21
42.500000203091531
 31
0.0
  0
LINE
  5
568
  8
0
 62
     0
 10
174.0
 20
4.0000002030909707
 30
0.0
 11
174.0
 21
42.500000203091517
 31
0.0
  0
LINE
  5
569
  8
0
 62
     0
 10
172.5
 20
4.0000002030909556
 30
0.0
 11
172.5
 21
42.500000203091503
 31
0.0
  0
LINE
  5
56A
  8
0
 62
     0
 10
171.0
 20
4.0000002030909423
 30
0.0
 11
171.0
 21
42.500000203091489
 31
0.0
  0
LINE
  5
56B
  8
0
 62
     0
 10
195.23739358752781
 20
4.5
 30
0.0
 11
202.61239358752761
 21
4.5
 31
0.0
  0
LINE
  5
56C
  8
0
 62
     0
 10
169.86239358752721
 20
4.5
 30
0.0
 11
177.23739358752721
 21
4.5
 31
0.0
  0
LINE
  5
56D
  8
0
 62
     0
 10
195.23739358752781
 20
6.0
 30
0.0
 11
202.61239358752749
 21
6.0
 31
0.0
  0
LINE
  5
56E
  8
0
 62
     0
 10
169.86239358752721
 20
6.0
 30
0.0
 11
177.23739358752721
 21
6.0
 31
0.0
  0
LINE
  5
56F
  8
0
 62
     0
 10
195.23739358752781
 20
7.5
 30
0.0
 11
202.61239358752749
 21
7.5
 31
0.0
  0
LINE
  5
570
  8
0
 62
     0
 10
169.86239358752721
 20
7.5
 30
0.0
 11
177.23739358752721
 21
7.5
 31
0.0
  0
LINE
  5
571
  8
0
 62
     0
 10
195.23739358752781
 20
9.0
 30
0.0
 11
202.61239358752749
 21
9.0
 31
0.0
  0
LINE
  5
572
  8
0
 62
     0
 10
169.86239358752721
 20
9.0
 30
0.0
 11
177.23739358752721
 21
9.0
 31
0.0
  0
LINE
  5
573
  8
0
 62
     0
 10
195.23739358752781
 20
10.5
 30
0.0
 11
202.61239358752749
 21
10.5
 31
0.0
  0
LINE
  5
574
  8
0
 62
     0
 10
169.86239358752721
 20
10.5
 30
0.0
 11
177.23739358752721
 21
10.5
 31
0.0
  0
LINE
  5
575
  8
0
 62
     0
 10
195.23739358752781
 20
12.0
 30
0.0
 11
202.61239358752749
 21
12.0
 31
0.0
  0
LINE
  5
576
  8
0
 62
     0
 10
169.86239358752721
 20
12.0
 30
0.0
 11
177.23739358752721
 21
12.0
 31
0.0
  0
LINE
  5
577
  8
0
 62
     0
 10
195.23739358752781
 20
13.5
 30
0.0
 11
202.61239358752741
 21
13.5
 31
0.0
  0
LINE
  5
578
  8
0
 62
     0
 10
169.86239358752721
 20
13.5
 30
0.0
 11
177.23739358752721
 21
13.5
 31
0.0
  0
LINE
  5
579
  8
0
 62
     0
 10
195.23739358752781
 20
15.0
 30
0.0
 11
202.61239358752741
 21
15.0
 31
0.0
  0
LINE
  5
57A
  8
0
 62
     0
 10
169.86239358752721
 20
15.0
 30
0.0
 11
177.23739358752721
 21
15.0
 31
0.0
  0
LINE
  5
57B
  8
0
 62
     0
 10
195.23739358752781
 20
16.5
 30
0.0
 11
202.61239358752741
 21
16.5
 31
0.0
  0
LINE
  5
57C
  8
0
 62
     0
 10
169.86239358752721
 20
16.5
 30
0.0
 11
177.23739358752721
 21
16.5
 31
0.0
  0
LINE
  5
57D
  8
0
 62
     0
 10
195.23739358752781
 20
18.0
 30
0.0
 11
202.61239358752741
 21
18.0
 31
0.0
  0
LINE
  5
57E
  8
0
 62
     0
 10
169.86239358752721
 20
18.0
 30
0.0
 11
177.23739358752721
 21
18.0
 31
0.0
  0
LINE
  5
57F
  8
0
 62
     0
 10
195.23739358752781
 20
19.5
 30
0.0
 11
202.61239358752741
 21
19.5
 31
0.0
  0
LINE
  5
580
  8
0
 62
     0
 10
169.86239358752721
 20
19.5
 30
0.0
 11
177.23739358752721
 21
19.5
 31
0.0
  0
LINE
  5
581
  8
0
 62
     0
 10
195.23739358752781
 20
21.0
 30
0.0
 11
202.61239358752721
 21
21.0
 31
0.0
  0
LINE
  5
582
  8
0
 62
     0
 10
169.86239358752721
 20
21.0
 30
0.0
 11
177.23739358752721
 21
21.0
 31
0.0
  0
LINE
  5
583
  8
0
 62
     0
 10
195.23739358752781
 20
22.5
 30
0.0
 11
202.61239358752721
 21
22.5
 31
0.0
  0
LINE
  5
584
  8
0
 62
     0
 10
169.86239358752721
 20
22.5
 30
0.0
 11
177.23739358752721
 21
22.5
 31
0.0
  0
LINE
  5
585
  8
0
 62
     0
 10
195.23739358752781
 20
24.0
 30
0.0
 11
202.61239358752721
 21
24.0
 31
0.0
  0
LINE
  5
586
  8
0
 62
     0
 10
169.86239358752721
 20
24.0
 30
0.0
 11
177.23739358752721
 21
24.0
 31
0.0
  0
LINE
  5
587
  8
0
 62
     0
 10
195.23739358752781
 20
25.5
 30
0.0
 11
202.61239358752721
 21
25.5
 31
0.0
  0
LINE
  5
588
  8
0
 62
     0
 10
169.86239358752721
 20
25.5
 30
0.0
 11
177.23739358752721
 21
25.5
 31
0.0
  0
LINE
  5
589
  8
0
 62
     0
 10
195.23739358752781
 20
27.0
 30
0.0
 11
202.61239358752721
 21
27.0
 31
0.0
  0
LINE
  5
58A
  8
0
 62
     0
 10
169.86239358752721
 20
27.0
 30
0.0
 11
177.23739358752721
 21
27.0
 31
0.0
  0
LINE
  5
58B
  8
0
 62
     0
 10
195.23739358752781
 20
28.5
 30
0.0
 11
202.61239358752721
 21
28.5
 31
0.0
  0
LINE
  5
58C
  8
0
 62
     0
 10
169.86239358752721
 20
28.5
 30
0.0
 11
177.23739358752721
 21
28.5
 31
0.0
  0
LINE
  5
58D
  8
0
 62
     0
 10
195.23739358752781
 20
30.0
 30
0.0
 11
202.61239358752721
 21
30.0
 31
0.0
  0
LINE
  5
58E
  8
0
 62
     0
 10
169.86239358752721
 20
30.0
 30
0.0
 11
177.23739358752721
 21
30.0
 31
0.0
  0
LINE
  5
58F
  8
0
 62
     0
 10
195.23739358752781
 20
31.5
 30
0.0
 11
202.61239358752721
 21
31.5
 31
0.0
  0
LINE
  5
590
  8
0
 62
     0
 10
169.86239358752709
 20
31.5
 30
0.0
 11
177.23739358752721
 21
31.5
 31
0.0
  0
LINE
  5
591
  8
0
 62
     0
 10
195.23739358752781
 20
33.0
 30
0.0
 11
202.61239358752721
 21
33.0
 31
0.0
  0
LINE
  5
592
  8
0
 62
     0
 10
169.86239358752709
 20
33.0
 30
0.0
 11
177.23739358752721
 21
33.0
 31
0.0
  0
LINE
  5
593
  8
0
 62
     0
 10
195.23739358752781
 20
34.5
 30
0.0
 11
202.61239358752721
 21
34.5
 31
0.0
  0
LINE
  5
594
  8
0
 62
     0
 10
169.86239358752709
 20
34.5
 30
0.0
 11
177.23739358752721
 21
34.5
 31
0.0
  0
LINE
  5
595
  8
0
 62
     0
 10
195.23739358752781
 20
36.0
 30
0.0
 11
202.61239358752721
 21
36.0
 31
0.0
  0
LINE
  5
596
  8
0
 62
     0
 10
169.86239358752709
 20
36.0
 30
0.0
 11
177.23739358752721
 21
36.0
 31
0.0
  0
LINE
  5
597
  8
0
 62
     0
 10
195.23739358752781
 20
37.5
 30
0.0
 11
202.61239358752721
 21
37.5
 31
0.0
  0
LINE
  5
598
  8
0
 62
     0
 10
169.86239358752709
 20
37.5
 30
0.0
 11
177.23739358752721
 21
37.5
 31
0.0
  0
LINE
  5
599
  8
0
 62
     0
 10
195.23739358752781
 20
39.0
 30
0.0
 11
202.61239358752709
 21
39.0
 31
0.0
  0
LINE
  5
59A
  8
0
 62
     0
 10
169.86239358752709
 20
39.0
 30
0.0
 11
177.23739358752721
 21
39.0
 31
0.0
  0
LINE
  5
59B
  8
0
 62
     0
 10
195.23739358752781
 20
40.499999999999993
 30
0.0
 11
202.61239358752709
 21
40.499999999999993
 31
0.0
  0
LINE
  5
59C
  8
0
 62
     0
 10
169.86239358752709
 20
40.499999999999993
 30
0.0
 11
177.23739358752721
 21
40.499999999999993
 31
0.0
  0
LINE
  5
59D
  8
0
 62
     0
 10
195.23739358752781
 20
42.0
 30
0.0
 11
202.61239358752709
 21
42.0
 31
0.0
  0
LINE
  5
59E
  8
0
 62
     0
 10
169.86239358752709
 20
42.0
 30
0.0
 11
177.23739358752721
 21
42.0
 31
0.0
  0
ENDBLK
  5
5A0
  8
0
  0
BLOCK
  8
0
  2
*X7
 70
     1
 10
0.0
 20
0.0
 30
0.0
  3
*X7
  1

  0
LINE
  5
67D
  8
0
 62
     0
 10
118.5
 20
147.0091984321038
 30
0.0
 11
118.5
 21
179.7591984321038
 31
0.0
  0
LINE
  5
67E
  8
0
 62
     0
 10
117.0
 20
147.0091984321038
 30
0.0
 11
117.0
 21
179.7591984321038
 31
0.0
  0
LINE
  5
67F
  8
0
 62
     0
 10
115.5
 20
147.0091984321038
 30
0.0
 11
115.5
 21
179.7591984321038
 31
0.0
  0
LINE
  5
680
  8
0
 62
     0
 10
114.0
 20
147.0091984321038
 30
0.0
 11
114.0
 21
179.7591984321038
 31
0.0
  0
LINE
  5
681
  8
0
 62
     0
 10
112.5
 20
147.0091984321038
 30
0.0
 11
112.5
 21
179.7591984321038
 31
0.0
  0
LINE
  5
682
  8
0
 62
     0
 10
111.0
 20
147.0091984321038
 30
0.0
 11
111.0
 21
179.7591984321038
 31
0.0
  0
LINE
  5
683
  8
0
 62
     0
 10
109.5
 20
147.0091984321038
 30
0.0
 11
109.5
 21
179.7591984321038
 31
0.0
  0
LINE
  5
684
  8
0
 62
     0
 10
108.0
 20
147.0091984321038
 30
0.0
 11
108.0
 21
179.7591984321038
 31
0.0
  0
LINE
  5
685
  8
0
 62
     0
 10
106.5
 20
147.0091984321038
 30
0.0
 11
106.5
 21
179.7591984321038
 31
0.0
  0
LINE
  5
686
  8
0
 62
     0
 10
105.0
 20
147.0091984321038
 30
0.0
 11
105.0
 21
179.7591984321038
 31
0.0
  0
LINE
  5
687
  8
0
 62
     0
 10
103.5
 20
147.0091984321038
 30
0.0
 11
103.5
 21
179.7591984321038
 31
0.0
  0
LINE
  5
688
  8
0
 62
     0
 10
102.0
 20
147.0091984321038
 30
0.0
 11
102.0
 21
179.7591984321038
 31
0.0
  0
LINE
  5
689
  8
0
 62
     0
 10
100.5
 20
147.0091984321038
 30
0.0
 11
100.5
 21
179.7591984321038
 31
0.0
  0
LINE
  5
68A
  8
0
 62
     0
 10
99.000000000000014
 20
147.0091984321038
 30
0.0
 11
99.000000000000014
 21
179.7591984321038
 31
0.0
  0
LINE
  5
68B
  8
0
 62
     0
 10
97.500000000000014
 20
147.0091984321038
 30
0.0
 11
97.500000000000014
 21
179.7591984321038
 31
0.0
  0
LINE
  5
68C
  8
0
 62
     0
 10
96.000000000000014
 20
147.0091984321038
 30
0.0
 11
96.000000000000014
 21
179.7591984321038
 31
0.0
  0
LINE
  5
68D
  8
0
 62
     0
 10
94.500000000000014
 20
147.0091984321038
 30
0.0
 11
94.500000000000014
 21
179.7591984321038
 31
0.0
  0
LINE
  5
68E
  8
0
 62
     0
 10
93.000000000000014
 20
147.0091984321038
 30
0.0
 11
93.000000000000014
 21
179.7591984321038
 31
0.0
  0
LINE
  5
68F
  8
0
 62
     0
 10
91.500000000000014
 20
147.0091984321038
 30
0.0
 11
91.500000000000014
 21
179.7591984321038
 31
0.0
  0
LINE
  5
690
  8
0
 62
     0
 10
90.000000000000014
 20
147.0091984321038
 30
0.0
 11
90.000000000000014
 21
179.7591984321038
 31
0.0
  0
LINE
  5
691
  8
0
 62
     0
 10
88.500000000000014
 20
147.0091984321038
 30
0.0
 11
88.500000000000014
 21
179.7591984321038
 31
0.0
  0
LINE
  5
692
  8
0
 62
     0
 10
87.000000000000014
 20
147.00919843210389
 30
0.0
 11
87.000000000000014
 21
179.75919843210389
 31
0.0
  0
LINE
  5
693
  8
0
 62
     0
 10
85.500000000000014
 20
147.00919843210389
 30
0.0
 11
85.500000000000014
 21
179.75919843210389
 31
0.0
  0
LINE
  5
694
  8
0
 62
     0
 10
84.000000000000014
 20
147.00919843210389
 30
0.0
 11
84.000000000000014
 21
179.75919843210389
 31
0.0
  0
LINE
  5
695
  8
0
 62
     0
 10
82.500000000000014
 20
147.00919843210389
 30
0.0
 11
82.500000000000014
 21
179.75919843210389
 31
0.0
  0
ENDBLK
  5
697
  8
0
  0
ENDSEC
  0
SECTION
  2
ENTITIES
  0
LINE
  5
36A
  8
0
 10
80.129917979094671
 20
108.1250002030914
 30
0.0
 11
120.8799179790919
 21
108.1250002030914
 31
0.0
  0
LINE
  5
36B
  8
0
 10
120.8799179790919
 20
44.125000203091538
 30
0.0
 11
80.129917979094671
 21
44.125000203091538
 31
0.0
  0
LINE
  5
36C
  8
0
 10
80.129917979094671
 20
44.125000203091538
 30
0.0
 11
80.129917979094671
 21
108.1250002030914
 31
0.0
  0
LINE
  5
36D
  8
0
 10
120.8799179790919
 20
44.125000203091538
 30
0.0
 11
120.8799179790919
 21
108.1250002030914
 31
0.0
  0
LINE
  5
36E
  8
0
 10
80.129917979095325
 20
44.12500020309151
 30
0.0
 11
127.6299179790953
 21
44.12500020309151
 31
0.0
  0
LINE
  5
36F
  8
0
 10
127.6299179790953
 20
0.0000002030915298
 30
0.0
 11
80.129917979095325
 21
0.0000002030915298
 31
0.0
  0
LINE
  5
370
  8
0
 10
80.129917979095325
 20
44.12500020309151
 30
0.0
 11
80.129917979095325
 21
0.0000002030915298
 31
0.0
  0
LINE
  5
371
  8
0
 10
127.6299179790953
 20
0.0000002030915298
 30
0.0
 11
127.6299179790953
 21
44.12500020309151
 31
0.0
  0
ARC
  5
372
  8
0
 10
100.5049179790951
 20
97.875000203091929
 30
0.0
 40
1.5
 50
359.9999999999992
 51
180.0
  0
ARC
  5
373
  8
0
 10
100.5049179790951
 20
97.875000203091929
 30
0.0
 40
1.500000000000006
 50
180.00000000000031
 51
359.99999999999881
  0
ARC
  5
374
  8
0
 10
110.1299179790949
 20
39.000000203091531
 30
0.0
 40
0.5000000000000036
 50
359.99999999999841
 51
179.99999999999881
  0
ARC
  5
375
  8
0
 10
110.1299179790949
 20
39.000000203091531
 30
0.0
 40
0.4999999999999849
 50
180.00000000000119
 51
359.9999999999992
  0
ARC
  5
376
  8
0
 10
97.379917979094856
 20
26.12500020309152
 30
0.0
 40
1.0
 50
0.0
 51
179.9999999999998
  0
ARC
  5
377
  8
0
 10
97.379917979094856
 20
26.12500020309152
 30
0.0
 40
1.0000000000000151
 50
180.0000000000002
 51
359.99999999999937
  0
ARC
  5
378
  8
0
 10
82.379917979094927
 20
8.3750002030915294
 30
0.0
 40
0.9999999999999925
 50
359.9999999999996
 51
179.9999999999996
  0
ARC
  5
379
  8
0
 10
82.379917979094927
 20
8.3750002030915294
 30
0.0
 40
1.0000000000000071
 50
180.0000000000002
 51
359.9999999999992
  0
ARC
  5
37A
  8
0
 10
84.254917979095126
 20
12.875000203091959
 30
0.0
 40
1.5
 50
359.99999999999937
 51
179.9999999999996
  0
ARC
  5
37B
  8
0
 10
84.254917979095126
 20
12.875000203091959
 30
0.0
 40
1.5000000000000011
 50
180.0000000000004
 51
359.99999999999937
  0
LINE
  5
37C
  8
0
 10
168.23739358753281
 20
108.1250002030914
 30
0.0
 11
204.23739358752749
 21
108.1250002030914
 31
0.0
  0
LINE
  5
37D
  8
0
 10
168.23739358753281
 20
44.125000203091538
 30
0.0
 11
168.23739358753281
 21
108.1250002030914
 31
0.0
  0
LINE
  5
37E
  8
0
 10
204.23739358752749
 20
44.125000203091538
 30
0.0
 11
204.23739358752749
 21
108.1250002030914
 31
0.0
  0
LINE
  5
37F
  8
0
 10
178.23739358752741
 20
5.0000002030919273
 30
0.0
 11
194.23739358752709
 21
5.000000203092096
 31
0.0
  0
LINE
  5
380
  8
0
 10
178.23739358752721
 20
39.801091239510768
 30
0.0
 11
194.23739358752729
 21
39.801091239510932
 31
0.0
  0
LINE
  5
381
  8
0
 10
194.23739358752769
 20
4.0000002030915844
 30
0.0
 11
194.23739358752769
 21
42.500000203092107
 31
0.0
  0
LINE
  5
382
  8
0
 10
195.23739358752781
 20
42.500000203092107
 30
0.0
 11
195.23739358752781
 21
4.0000002030915844
 31
0.0
  0
LINE
  5
383
  8
0
 10
194.23739358752769
 20
4.0000002030915844
 30
0.0
 11
195.23739358752781
 21
4.0000002030915844
 31
0.0
  0
LINE
  5
384
  8
0
 10
195.23739358752781
 20
42.500000203092107
 30
0.0
 11
194.23739358752769
 21
42.500000203092107
 31
0.0
  0
LINE
  5
385
  8
0
 10
177.23739358752721
 20
4.0000002030916093
 30
0.0
 11
177.23739358752721
 21
42.500000203092149
 31
0.0
  0
LINE
  5
386
  8
0
 10
178.23739358752721
 20
42.500000203092149
 30
0.0
 11
178.23739358752721
 21
4.0000002030916093
 31
0.0
  0
LINE
  5
387
  8
0
 10
177.23739358752721
 20
4.0000002030916093
 30
0.0
 11
178.23739358752721
 21
4.0000002030916093
 31
0.0
  0
LINE
  5
388
  8
0
 10
178.23739358752721
 20
42.500000203092149
 30
0.0
 11
177.23739358752721
 21
42.500000203092149
 31
0.0
  0
LINE
  5
389
  8
0
 10
169.86239358752721
 20
42.500000203092149
 30
0.0
 11
169.86239358752721
 21
4.000000203091524
 31
0.0
  0
LINE
  5
38A
  8
0
 10
169.86239358752721
 20
4.000000203091524
 30
0.0
 11
177.23739358752721
 21
4.000000203091524
 31
0.0
  0
LINE
  5
38B
  8
0
 10
177.23739358752721
 20
4.000000203091524
 30
0.0
 11
177.23739358752721
 21
42.500000203093308
 31
0.0
1001
ACAD
1000
ASC_BOUNDS
1002
{
1070
    19
1005
505
1002
}
  0
LINE
  5
38C
  8
0
 10
177.23739358752721
 20
42.500000203093308
 30
0.0
 11
169.86239358752721
 21
42.500000203092149
 31
0.0
  0
LINE
  5
38D
  8
0
 10
202.61239358752761
 20
42.500000203092142
 30
0.0
 11
195.23739358752781
 21
42.500000203092107
 31
0.0
  0
LINE
  5
38E
  8
0
 10
195.23739358752781
 20
42.500000203092107
 30
0.0
 11
195.23739358752781
 21
4.000000203091524
 31
0.0
1001
ACAD
1000
ASC_BOUNDS
1002
{
1070
    19
1005
505
1002
}
  0
LINE
  5
38F
  8
0
 10
195.23739358752781
 20
4.000000203091524
 30
0.0
 11
202.61239358752721
 21
4.0000002030915311
 31
0.0
  0
LINE
  5
390
  8
0
 10
202.61239358752721
 20
4.0000002030915311
 30
0.0
 11
202.61239358752761
 21
42.500000203092142
 31
0.0
  0
LINE
  5
391
  8
0
 10
168.23739358752781
 20
44.12500020309151
 30
0.0
 11
204.23739358752781
 21
44.12500020309151
 31
0.0
  0
LINE
  5
392
  8
0
 10
204.23739358752781
 20
0.0000002030915298
 30
0.0
 11
168.23739358752781
 21
0.0000002030915298
 31
0.0
  0
LINE
  5
393
  8
0
 10
168.23739358752781
 20
0.0000002030915298
 30
0.0
 11
168.23739358752781
 21
44.12500020309151
 31
0.0
  0
LINE
  5
394
  8
0
 10
169.86239358752721
 20
4.0000002030909343
 30
0.0
 11
169.86239358752709
 21
42.500000203091481
 31
0.0
1001
ACAD
1000
ASC_BOUNDS
1002
{
1070
    19
1005
505
1002
}
  0
LINE
  5
395
  8
0
 10
169.86239358752709
 20
42.500000203091481
 30
0.0
 11
202.61239358752709
 21
42.500000203091822
 31
0.0
1001
ACAD
1000
ASC_BOUNDS
1002
{
1070
    19
1005
505
1005
505
1002
}
  0
LINE
  5
396
  8
0
 10
202.61239358752709
 20
42.500000203091822
 30
0.0
 11
202.61239358752761
 21
4.0000002030912754
 31
0.0
1001
ACAD
1000
ASC_BOUNDS
1002
{
1070
    19
1005
505
1002
}
  0
LINE
  5
397
  8
0
 10
202.61239358752761
 20
4.0000002030912754
 30
0.0
 11
169.86239358752721
 21
4.0000002030909281
 31
0.0
1001
ACAD
1000
ASC_BOUNDS
1002
{
1070
    19
1005
505
1005
505
1002
}
  0
LINE
  5
398
  8
0
 10
204.23739358752781
 20
0.0000002030915298
 30
0.0
 11
204.23739358752781
 21
44.12500020309151
 31
0.0
  0
ARC
  5
399
  8
0
 10
186.23739358752709
 20
78.125000203092668
 30
0.0
 40
8.2500000000000302
 50
179.9999999999996
 51
359.99999999999881
  0
ARC
  5
39A
  8
0
 10
186.23739358752709
 20
78.125000203092668
 30
0.0
 40
8.2500000000000089
 50
359.99999999999949
 51
179.9999999999996
  0
ARC
  5
39B
  8
0
 10
186.23739358752709
 20
78.125000203092668
 30
0.0
 40
7.6874999999999956
 50
0.000000000000687
 51
180.00000000000011
  0
ARC
  5
39C
  8
0
 10
186.23739358752709
 20
78.125000203092668
 30
0.0
 40
7.687499999999992
 50
180.00000000000011
 51
359.9999999999996
  0
LINE
  5
39D
  8
0
 10
191.3598943615147
 20
75.683144354295266
 30
0.0
 11
191.16495388532439
 21
75.234235624136559
 31
0.0
  0
LINE
  5
39E
  8
0
 10
191.16495388532439
 20
75.234235624136559
 30
0.0
 11
190.7140610281815
 21
75.076993560644453
 31
0.0
  0
LINE
  5
39F
  8
0
 10
190.7140610281815
 20
75.076993560644453
 30
0.0
 11
190.3895322583403
 21
75.14122967175561
 31
0.0
  0
LINE
  5
3A0
  8
0
 10
190.3895322583403
 20
75.14122967175561
 30
0.0
 11
190.1540411869118
 21
75.333938005088925
 31
0.0
  0
LINE
  5
3A1
  8
0
 10
190.1540411869118
 20
75.333938005088925
 30
0.0
 11
189.9630689646894
 21
76.091874513025431
 31
0.0
  0
LINE
  5
3A2
  8
0
 10
189.9630689646894
 20
76.091874513025431
 30
0.0
 11
190.14709674246731
 21
76.855763401914317
 31
0.0
  0
LINE
  5
3A3
  8
0
 10
190.14709674246731
 20
76.855763401914317
 30
0.0
 11
190.37688344881639
 21
77.045495544771455
 31
0.0
  0
LINE
  5
3A4
  8
0
 10
190.37688344881639
 20
77.045495544771455
 30
0.0
 11
190.69818801230841
 21
77.108739592390506
 31
0.0
  0
LINE
  5
3A5
  8
0
 10
190.69818801230841
 20
77.108739592390506
 30
0.0
 11
191.16644198056269
 21
76.965386417787357
 31
0.0
  0
LINE
  5
3A6
  8
0
 10
191.16644198056269
 20
76.965386417787357
 30
0.0
 11
191.3598943615147
 21
76.540287211438141
 31
0.0
  0
LINE
  5
3A7
  8
0
 10
191.3598943615147
 20
76.540287211438141
 30
0.0
 11
192.5027515043721
 21
76.540287211438141
 31
0.0
  0
LINE
  5
3A8
  8
0
 10
192.5027515043721
 20
76.540287211438141
 30
0.0
 11
192.3425332504037
 21
77.187980663819076
 31
0.0
  0
LINE
  5
3A9
  8
0
 10
192.3425332504037
 20
77.187980663819076
 30
0.0
 11
191.9749737265941
 21
77.666775306676215
 31
0.0
  0
LINE
  5
3AA
  8
0
 10
191.9749737265941
 20
77.666775306676215
 30
0.0
 11
191.41594594881639
 21
77.962534235247659
 31
0.0
  0
LINE
  5
3AB
  8
0
 10
191.41594594881639
 20
77.962534235247659
 30
0.0
 11
190.6813229329434
 21
78.061120544771455
 31
0.0
  0
LINE
  5
3AC
  8
0
 10
190.6813229329434
 20
78.061120544771455
 30
0.0
 11
189.8833318615147
 21
77.929176100327027
 31
0.0
  0
LINE
  5
3AD
  8
0
 10
189.8833318615147
 20
77.929176100327027
 30
0.0
 11
189.2730888059593
 21
77.533342766993684
 31
0.0
  0
LINE
  5
3AE
  8
0
 10
189.2730888059593
 20
77.533342766993684
 30
0.0
 11
188.88581202024511
 21
76.909334830485733
 31
0.0
  0
LINE
  5
3AF
  8
0
 10
188.88581202024511
 20
76.909334830485733
 30
0.0
 11
188.7567197583403
 21
76.092866576517494
 31
0.0
  0
LINE
  5
3B0
  8
0
 10
188.7567197583403
 20
76.092866576517494
 30
0.0
 11
188.88643205992761
 21
75.274538203501606
 31
0.0
  0
LINE
  5
3B1
  8
0
 10
188.88643205992761
 20
75.274538203501606
 30
0.0
 11
189.2755689646894
 21
74.650902290803216
 31
0.0
  0
LINE
  5
3B2
  8
0
 10
189.2755689646894
 20
74.650902290803216
 30
0.0
 11
189.89089634564161
 21
74.256185028898457
 31
0.0
  0
LINE
  5
3B3
  8
0
 10
189.89089634564161
 20
74.256185028898457
 30
0.0
 11
190.6991800758008
 21
74.124612608263533
 31
0.0
  0
LINE
  5
3B4
  8
0
 10
190.6991800758008
 20
74.124612608263533
 30
0.0
 11
191.42227035357831
 21
74.226795147946035
 31
0.0
  0
LINE
  5
3B5
  8
0
 10
191.42227035357831
 20
74.226795147946035
 30
0.0
 11
191.97844594881639
 21
74.533342766993684
 31
0.0
  0
LINE
  5
3B6
  8
0
 10
191.97844594881639
 20
74.533342766993684
 30
0.0
 11
192.3458814646894
 21
75.025158243184137
 31
0.0
  0
LINE
  5
3B7
  8
0
 10
192.3458814646894
 20
75.025158243184137
 30
0.0
 11
192.5027515043721
 21
75.683144354295266
 31
0.0
  0
LINE
  5
3B8
  8
0
 10
192.5027515043721
 20
75.683144354295266
 30
0.0
 11
191.3598943615147
 21
75.683144354295266
 31
0.0
  0
LINE
  5
3B9
  8
0
 10
184.13816698374711
 20
76.457218543218474
 30
0.0
 11
185.31574634882651
 21
76.457218543218474
 31
0.0
  0
LINE
  5
3BA
  8
0
 10
185.31574634882651
 20
76.457218543218474
 30
0.0
 11
185.46257174565201
 21
76.965155051154966
 31
0.0
  0
LINE
  5
3BB
  8
0
 10
185.46257174565201
 20
76.965155051154966
 30
0.0
 11
186.665944761525
 21
76.965155051154966
 31
0.0
  0
LINE
  5
3BC
  8
0
 10
186.665944761525
 20
76.965155051154966
 30
0.0
 11
186.80780984089
 21
76.457218543218474
 31
0.0
  0
LINE
  5
3BD
  8
0
 10
186.80780984089
 20
76.457218543218474
 30
0.0
 11
188.01118285676301
 21
76.457218543218474
 31
0.0
  0
LINE
  5
3BE
  8
0
 10
188.01118285676301
 20
76.457218543218474
 30
0.0
 11
186.68181777739801
 21
80.266742352742284
 31
0.0
  0
LINE
  5
3BF
  8
0
 10
186.68181777739801
 20
80.266742352742284
 30
0.0
 11
185.45265111073121
 21
80.266742352742284
 31
0.0
  0
LINE
  5
3C0
  8
0
 10
185.45265111073121
 20
80.266742352742284
 30
0.0
 11
184.13816698374711
 21
76.457218543218474
 31
0.0
  0
LINE
  5
3C1
  8
0
 10
185.68280984089
 20
77.790551876551802
 30
0.0
 11
186.0687225393028
 21
79.094123305123233
 31
0.0
  0
LINE
  5
3C2
  8
0
 10
186.0687225393028
 20
79.094123305123233
 30
0.0
 11
186.4457066662869
 21
77.790551876551802
 31
0.0
  0
LINE
  5
3C3
  8
0
 10
186.4457066662869
 20
77.790551876551802
 30
0.0
 11
185.68280984089
 21
77.790551876551802
 31
0.0
  0
LINE
  5
3C4
  8
0
 10
180.3774357934858
 20
78.197606852398764
 30
0.0
 11
182.0768405553905
 21
78.197606852398764
 31
0.0
  0
LINE
  5
3C5
  8
0
 10
182.0768405553905
 20
78.197606852398764
 30
0.0
 11
182.84469769824759
 21
78.236297328589217
 31
0.0
  0
LINE
  5
3C6
  8
0
 10
182.84469769824759
 20
78.236297328589217
 30
0.0
 11
183.2573961109461
 21
78.368241773033674
 31
0.0
  0
LINE
  5
3C7
  8
0
 10
183.2573961109461
 20
78.368241773033674
 30
0.0
 11
183.66563023793029
 21
78.751178280970166
 31
0.0
  0
LINE
  5
3C8
  8
0
 10
183.66563023793029
 20
78.751178280970166
 30
0.0
 11
183.8060072220571
 21
79.338479868271733
 31
0.0
  0
LINE
  5
3C9
  8
0
 10
183.8060072220571
 20
79.338479868271733
 30
0.0
 11
183.66215801570789
 21
79.901475900017786
 31
0.0
  0
LINE
  5
3CA
  8
0
 10
183.66215801570789
 20
79.901475900017786
 30
0.0
 11
183.21870563475571
 21
80.226376693668584
 31
0.0
  0
LINE
  5
3CB
  8
0
 10
183.21870563475571
 20
80.226376693668584
 30
0.0
 11
183.5639437299937
 21
80.5438370111289
 31
0.0
  0
LINE
  5
3CC
  8
0
 10
183.5639437299937
 20
80.5438370111289
 30
0.0
 11
183.67902309507321
 21
80.996217963509864
 31
0.0
  0
LINE
  5
3CD
  8
0
 10
183.67902309507321
 20
80.996217963509864
 30
0.0
 11
183.5252532538031
 21
81.556237804779698
 31
0.0
  0
LINE
  5
3CE
  8
0
 10
183.5252532538031
 20
81.556237804779698
 30
0.0
 11
183.08279293634291
 21
81.896019550811417
 31
0.0
  0
LINE
  5
3CF
  8
0
 10
183.08279293634291
 20
81.896019550811417
 30
0.0
 11
182.68745563475559
 21
81.9813370111289
 31
0.0
  0
LINE
  5
3D0
  8
0
 10
182.68745563475559
 20
81.9813370111289
 30
0.0
 11
181.95382468237469
 21
82.007130661922545
 31
0.0
  0
LINE
  5
3D1
  8
0
 10
181.95382468237469
 20
82.007130661922545
 30
0.0
 11
180.3774357934858
 21
82.007130661922574
 31
0.0
  0
LINE
  5
3D2
  8
0
 10
180.3774357934858
 20
82.007130661922574
 30
0.0
 11
180.3774357934858
 21
78.197606852398764
 31
0.0
  0
LINE
  5
3D3
  8
0
 10
181.5837849998349
 20
79.086495741287649
 30
0.0
 11
181.5837849998349
 21
79.784908439700331
 31
0.0
  0
LINE
  5
3D4
  8
0
 10
181.5837849998349
 20
79.784908439700331
 30
0.0
 11
182.1323961109461
 21
79.784908439700331
 31
0.0
  0
LINE
  5
3D5
  8
0
 10
182.1323961109461
 20
79.784908439700331
 30
0.0
 11
182.54162230142239
 21
79.705543360335255
 31
0.0
  0
LINE
  5
3D6
  8
0
 10
182.54162230142239
 20
79.705543360335255
 30
0.0
 11
182.66315007920019
 21
79.43867828097018
 31
0.0
  0
LINE
  5
3D7
  8
0
 10
182.66315007920019
 20
79.43867828097018
 30
0.0
 11
182.54410246015249
 21
79.1688370111289
 31
0.0
  0
LINE
  5
3D8
  8
0
 10
182.54410246015249
 20
79.1688370111289
 30
0.0
 11
182.14330880935881
 21
79.086495741287649
 31
0.0
  0
LINE
  5
3D9
  8
0
 10
182.14330880935881
 20
79.086495741287649
 30
0.0
 11
181.5837849998349
 21
79.086495741287649
 31
0.0
  0
LINE
  5
3DA
  8
0
 10
181.5837849998349
 20
80.483321138113027
 30
0.0
 11
181.5837849998349
 21
81.118241773033674
 31
0.0
  0
LINE
  5
3DB
  8
0
 10
181.5837849998349
 20
81.118241773033674
 30
0.0
 11
181.9181103966605
 21
81.118241773033674
 31
0.0
  0
LINE
  5
3DC
  8
0
 10
181.9181103966605
 20
81.118241773033674
 30
0.0
 11
182.42654293634291
 21
81.050781455573329
 31
0.0
  0
LINE
  5
3DD
  8
0
 10
182.42654293634291
 20
81.050781455573329
 30
0.0
 11
182.53616595221609
 21
80.800781455573343
 31
0.0
  0
LINE
  5
3DE
  8
0
 10
182.53616595221609
 20
80.800781455573343
 30
0.0
 11
182.43398341253351
 21
80.555741773033674
 31
0.0
  0
LINE
  5
3DF
  8
0
 10
182.43398341253351
 20
80.555741773033674
 30
0.0
 11
182.08180087285081
 21
80.483321138113027
 31
0.0
  0
LINE
  5
3E0
  8
0
 10
182.08180087285081
 20
80.483321138113027
 30
0.0
 11
181.5837849998349
 21
80.483321138113027
 31
0.0
  0
ARC
  5
3E1
  8
0
 10
186.23739358752661
 20
78.125000203093322
 30
0.0
 40
9.0000000000000195
 50
179.99999999999969
 51
359.99999999999881
  0
ARC
  5
3E2
  8
0
 10
186.23739358752661
 20
78.125000203093322
 30
0.0
 40
9.0000000000000089
 50
359.99999999999949
 51
179.99999999999969
  0
LINE
  5
3E3
  8
0
 10
167.98739358752729
 20
96.375000203092043
 30
0.0
 11
168.23739358752721
 21
96.375000203092043
 31
0.0
  0
LINE
  5
3E4
  8
0
 10
168.23739358752721
 20
99.375000203092014
 30
0.0
 11
167.98739358752729
 21
99.375000203092014
 31
0.0
  0
LINE
  5
3E5
  8
0
 10
167.98739358752729
 20
97.875000203091901
 30
0.0
 11
167.98739358752729
 21
98.263228770745684
 31
0.0
  0
LINE
  5
3E6
  8
0
 10
167.98739358752729
 20
98.263229612130047
 30
0.0
 11
167.98739358752729
 21
98.935660374871745
 31
0.0
  0
LINE
  5
3E7
  8
0
 10
167.98739358752729
 20
98.935661707646688
 30
0.0
 11
167.98739358752741
 21
99.323888942525542
 31
0.0
  0
LINE
  5
3E8
  8
0
 10
167.98739358752741
 20
99.323892813393954
 30
0.0
 11
167.98739358752741
 21
99.375000203091943
 31
0.0
  0
LINE
  5
3E9
  8
0
 10
167.98739358752741
 20
96.375000203091929
 30
0.0
 11
167.98739358752741
 21
96.426107592788156
 31
0.0
  0
LINE
  5
3EA
  8
0
 10
167.98739358752741
 20
96.42611146365833
 30
0.0
 11
167.98739358752729
 21
96.814338698536133
 31
0.0
  0
LINE
  5
3EB
  8
0
 10
167.98739358752729
 20
96.814340031312085
 30
0.0
 11
167.98739358752729
 21
97.486770794053044
 31
0.0
  0
LINE
  5
3EC
  8
0
 10
167.98739358752729
 20
97.486771635438103
 30
0.0
 11
167.98739358752729
 21
97.875000203091901
 31
0.0
  0
LINE
  5
3ED
  8
0
 10
167.9873935875269
 20
38.500000203091638
 30
0.0
 11
168.23739358752709
 21
38.500000203091638
 31
0.0
  0
LINE
  5
3EE
  8
0
 10
168.23739358752709
 20
39.500000203091588
 30
0.0
 11
167.9873935875269
 21
39.500000203091588
 31
0.0
  0
LINE
  5
3EF
  8
0
 10
167.98739358752729
 20
25.125000203091531
 30
0.0
 11
168.23739358752721
 21
25.125000203091531
 31
0.0
  0
LINE
  5
3F0
  8
0
 10
168.23739358752721
 20
27.125000203091592
 30
0.0
 11
167.98739358752729
 21
27.125000203091592
 31
0.0
  0
LINE
  5
3F1
  8
0
 10
167.98739358752709
 20
7.3750002030914708
 30
0.0
 11
168.23739358752709
 21
7.3750002030914708
 31
0.0
  0
LINE
  5
3F2
  8
0
 10
168.23739358752709
 20
9.3750002030915276
 30
0.0
 11
167.98739358752709
 21
9.3750002030915276
 31
0.0
  0
LINE
  5
3F3
  8
0
 10
167.98739358752729
 20
39.00000020309151
 30
0.0
 11
167.98739358752729
 21
39.129409725642802
 31
0.0
  0
LINE
  5
3F4
  8
0
 10
167.98739358752729
 20
39.129410006104287
 30
0.0
 11
167.98739358752729
 21
39.249999306578601
 31
0.0
  0
LINE
  5
3F5
  8
0
 10
167.98739358752729
 20
39.250000203091517
 30
0.0
 11
167.98739358752729
 21
39.353553593684786
 31
0.0
  0
LINE
  5
3F6
  8
0
 10
167.98739358752729
 20
39.353554037943432
 30
0.0
 11
167.98739358752729
 21
39.433012904983741
 31
0.0
  0
LINE
  5
3F7
  8
0
 10
167.98739358752729
 20
39.43301324625029
 30
0.0
 11
167.98739358752729
 21
39.48296311623605
 31
0.0
  0
LINE
  5
3F8
  8
0
 10
167.98739358752729
 20
39.482964406525639
 30
0.0
 11
167.98739358752729
 21
39.500000203091531
 31
0.0
  0
LINE
  5
3F9
  8
0
 10
167.98739358752729
 20
38.500000203091531
 30
0.0
 11
167.98739358752729
 21
38.517035999657409
 31
0.0
  0
LINE
  5
3FA
  8
0
 10
167.98739358752729
 20
38.517037289946991
 30
0.0
 11
167.98739358752729
 21
38.566987159932758
 31
0.0
  0
LINE
  5
3FB
  8
0
 10
167.98739358752729
 20
38.566987501199321
 30
0.0
 11
167.98739358752729
 21
38.646446368239602
 31
0.0
  0
LINE
  5
3FC
  8
0
 10
167.98739358752729
 20
38.646446812498247
 30
0.0
 11
167.98739358752729
 21
38.750000203091531
 31
0.0
  0
LINE
  5
3FD
  8
0
 10
167.98739358752729
 20
38.750001099604468
 30
0.0
 11
167.98739358752729
 21
38.870590400078761
 31
0.0
  0
LINE
  5
3FE
  8
0
 10
167.98739358752729
 20
38.870590680540268
 30
0.0
 11
167.98739358752729
 21
39.00000020309151
 31
0.0
  0
LINE
  5
3FF
  8
0
 10
167.98739358752741
 20
26.12500020309152
 30
0.0
 11
167.98739358752741
 21
26.832106813630279
 31
0.0
  0
LINE
  5
400
  8
0
 10
167.98739358752741
 20
26.83210698427807
 30
0.0
 11
167.98739358752741
 21
26.991025250402348
 31
0.0
  0
LINE
  5
401
  8
0
 10
167.98739358752741
 20
26.991025606875962
 30
0.0
 11
167.98739358752741
 21
27.09092602938059
 31
0.0
  0
LINE
  5
402
  8
0
 10
167.98739358752741
 20
27.09092671356235
 30
0.0
 11
167.98739358752741
 21
27.12500020309152
 31
0.0
  0
LINE
  5
403
  8
0
 10
167.98739358752741
 20
25.12500020309152
 30
0.0
 11
167.98739358752741
 21
25.159074376802469
 31
0.0
  0
LINE
  5
404
  8
0
 10
167.98739358752741
 20
25.159074790281959
 30
0.0
 11
167.98739358752741
 21
25.258974799307079
 31
0.0
  0
LINE
  5
405
  8
0
 10
167.98739358752741
 20
25.258975941314759
 30
0.0
 11
167.98739358752741
 21
25.417893421904981
 31
0.0
  0
LINE
  5
406
  8
0
 10
167.98739358752741
 20
25.417894444984871
 30
0.0
 11
167.98739358752741
 21
25.625000203091531
 31
0.0
  0
LINE
  5
407
  8
0
 10
167.98739358752741
 20
25.625001099604191
 30
0.0
 11
167.98739358752741
 21
26.124999238435439
 31
0.0
  0
LINE
  5
408
  8
0
 10
167.98739358752741
 20
8.3750004442555142
 30
0.0
 11
167.98739358752741
 21
8.6338192481940457
 31
0.0
  0
LINE
  5
409
  8
0
 10
167.98739358752741
 20
8.6338193091522673
 30
0.0
 11
167.98739358752741
 21
8.8749999789634071
 31
0.0
  0
LINE
  5
40A
  8
0
 10
167.98739358752741
 20
8.8750002030915258
 30
0.0
 11
167.98739358752781
 21
9.0821069842780702
 31
0.0
  0
LINE
  5
40B
  8
0
 10
167.98739358752781
 20
9.0821073173405047
 30
0.0
 11
167.98739358752781
 21
9.2410256068759598
 31
0.0
  0
LINE
  5
40C
  8
0
 10
167.98739358752781
 20
9.2410256646093512
 30
0.0
 11
167.98739358752781
 21
9.3409260293805954
 31
0.0
  0
LINE
  5
40D
  8
0
 10
167.98739358752781
 20
9.3409262394548982
 30
0.0
 11
167.98739358752781
 21
9.3750002030915276
 31
0.0
  0
LINE
  5
40E
  8
0
 10
167.98739358752781
 20
7.3750002030915258
 30
0.0
 11
167.98739358752781
 21
7.4090736926204119
 31
0.0
  0
LINE
  5
40F
  8
0
 10
167.98739358752781
 20
7.4090743768024598
 30
0.0
 11
167.98739358752781
 21
7.5089744291738754
 31
0.0
  0
LINE
  5
410
  8
0
 10
167.98739358752781
 20
7.5089747993070892
 30
0.0
 11
167.98739358752781
 21
7.6678934219049779
 31
0.0
  0
LINE
  5
411
  8
0
 10
167.98739358752781
 20
7.6678935925527716
 30
0.0
 11
167.98739358752741
 21
8.3750002030915258
 31
0.0
  0
LINE
  5
412
  8
0
 10
167.98739358752729
 20
11.37500020309192
 30
0.0
 11
168.23739358752721
 21
11.37500020309192
 31
0.0
  0
LINE
  5
413
  8
0
 10
168.23739358752721
 20
14.3750002030921
 30
0.0
 11
167.98739358752729
 21
14.3750002030921
 31
0.0
  0
LINE
  5
414
  8
0
 10
167.98739358752781
 20
12.87500020309195
 30
0.0
 11
167.98739358752781
 21
13.26322877074573
 31
0.0
  0
LINE
  5
415
  8
0
 10
167.98739358752781
 20
13.26322911216516
 30
0.0
 11
167.98739358752781
 21
13.62499975483516
 31
0.0
  0
LINE
  5
416
  8
0
 10
167.98739358752781
 20
13.62500020309195
 30
0.0
 11
167.98739358752781
 21
13.93566037487177
 31
0.0
  0
LINE
  5
417
  8
0
 10
167.98739358752781
 20
13.935661152192431
 30
0.0
 11
167.98739358752781
 21
14.17403830876861
 31
0.0
  0
LINE
  5
418
  8
0
 10
167.98739358752781
 20
14.174038707768011
 30
0.0
 11
167.98739358752781
 21
14.32388894252554
 31
0.0
  0
LINE
  5
419
  8
0
 10
167.98739358752781
 20
14.32388902058163
 30
0.0
 11
167.98739358752781
 21
14.375000203091959
 31
0.0
  0
LINE
  5
41A
  8
0
 10
167.98739358752781
 20
11.37500020309195
 30
0.0
 11
167.98739358752781
 21
11.426110911491479
 31
0.0
  0
LINE
  5
41B
  8
0
 10
167.98739358752781
 20
11.42611146365835
 30
0.0
 11
167.98739358752781
 21
11.575962097415299
 31
0.0
  0
LINE
  5
41C
  8
0
 10
167.98739358752781
 20
11.57596223935899
 30
0.0
 11
167.98739358752781
 21
11.8143398094454
 31
0.0
  0
LINE
  5
41D
  8
0
 10
167.98739358752781
 20
11.814340031312121
 30
0.0
 11
167.98739358752781
 21
12.124999681086139
 31
0.0
  0
LINE
  5
41E
  8
0
 10
167.98739358752781
 20
12.125000203091959
 30
0.0
 11
167.98739358752781
 21
12.8749997207634
 31
0.0
  0
CIRCLE
  5
41F
  8
0
 10
18.000000150129608
 20
34.687500203091531
 30
0.0
 40
8.5000000000000053
  0
LINE
  5
420
  8
0
 10
0.0000001501291536
 20
108.1250002030914
 30
0.0
 11
36.000000150123931
 21
108.1250002030914
 31
0.0
  0
LINE
  5
421
  8
0
 10
36.000000150123931
 20
44.125000203091538
 30
0.0
 11
0.0000001501291536
 21
44.125000203091538
 31
0.0
  0
LINE
  5
422
  8
0
 10
0.0000001501291536
 20
108.1250002030914
 30
0.0
 11
0.0000001501291536
 21
44.125000203091538
 31
0.0
  0
LINE
  5
423
  8
0
 10
36.000000150123931
 20
44.125000203091538
 30
0.0
 11
36.000000150123931
 21
108.1250002030914
 31
0.0
  0
LINE
  5
424
  8
0
 10
0.0000001501291536
 20
44.12500020309151
 30
0.0
 11
36.000000150129146
 21
44.12500020309151
 31
0.0
  0
LINE
  5
425
  8
0
 10
36.000000150129146
 20
0.0000002030915298
 30
0.0
 11
0.0000001501291536
 21
0.0000002030915298
 31
0.0
  0
LINE
  5
426
  8
0
 10
36.000000150129146
 20
44.12500020309151
 30
0.0
 11
36.000000150129146
 21
0.0000002030915298
 31
0.0
  0
LINE
  5
427
  8
0
 10
0.0000001501291536
 20
0.0000002030915298
 30
0.0
 11
0.0000001501291536
 21
44.12500020309151
 31
0.0
  0
ARC
  5
428
  8
0
 10
18.000000150130059
 20
78.125000203093322
 30
0.0
 40
8.2500000000000053
 50
179.9999999999996
 51
359.99999999999881
  0
ARC
  5
429
  8
0
 10
18.000000150130059
 20
78.125000203093322
 30
0.0
 40
8.2500000000000053
 50
359.99999999999949
 51
179.9999999999996
  0
ARC
  5
42A
  8
0
 10
18.000000150130059
 20
78.125000203093322
 30
0.0
 40
7.6875000000000027
 50
0.0000000000005789
 51
180.0
  0
ARC
  5
42B
  8
0
 10
18.000000150130059
 20
78.125000203093322
 30
0.0
 40
7.687499999999992
 50
180.00000000000011
 51
359.9999999999996
  0
LINE
  5
42C
  8
0
 10
23.12250092411773
 20
75.683144354295933
 30
0.0
 11
22.927560447927359
 21
75.234235624137213
 31
0.0
  0
LINE
  5
42D
  8
0
 10
22.927560447927359
 20
75.234235624137213
 30
0.0
 11
22.476667590784469
 21
75.076993560645136
 31
0.0
  0
LINE
  5
42E
  8
0
 10
22.476667590784469
 20
75.076993560645136
 30
0.0
 11
22.152138820943261
 21
75.141229671756264
 31
0.0
  0
LINE
  5
42F
  8
0
 10
22.152138820943261
 20
75.141229671756264
 30
0.0
 11
21.916647749514599
 21
75.333938005089578
 31
0.0
  0
LINE
  5
430
  8
0
 10
21.916647749514599
 20
75.333938005089578
 30
0.0
 11
21.72567552729242
 21
76.091874513026113
 31
0.0
  0
LINE
  5
431
  8
0
 10
21.72567552729242
 20
76.091874513026113
 30
0.0
 11
21.909703305070249
 21
76.85576340191497
 31
0.0
  0
LINE
  5
432
  8
0
 10
21.909703305070249
 20
76.85576340191497
 30
0.0
 11
22.139490011419412
 21
77.045495544772137
 31
0.0
  0
LINE
  5
433
  8
0
 10
22.139490011419412
 20
77.045495544772137
 30
0.0
 11
22.460794574911461
 21
77.108739592391174
 31
0.0
  0
LINE
  5
434
  8
0
 10
22.460794574911461
 20
77.108739592391174
 30
0.0
 11
22.92904854316544
 21
76.965386417787997
 31
0.0
  0
LINE
  5
435
  8
0
 10
22.92904854316544
 20
76.965386417787997
 30
0.0
 11
23.12250092411773
 21
76.540287211438795
 31
0.0
  0
LINE
  5
436
  8
0
 10
23.12250092411773
 20
76.540287211438795
 30
0.0
 11
24.265358066975072
 21
76.540287211438795
 31
0.0
  0
LINE
  5
437
  8
0
 10
24.265358066975072
 20
76.540287211438795
 30
0.0
 11
24.105139813006652
 21
77.187980663819744
 31
0.0
  0
LINE
  5
438
  8
0
 10
24.105139813006652
 20
77.187980663819744
 30
0.0
 11
23.73758028919724
 21
77.666775306676897
 31
0.0
  0
LINE
  5
439
  8
0
 10
23.73758028919724
 20
77.666775306676897
 30
0.0
 11
23.178552511419412
 21
77.962534235248313
 31
0.0
  0
LINE
  5
43A
  8
0
 10
23.178552511419412
 20
77.962534235248313
 30
0.0
 11
22.443929495546399
 21
78.061120544772137
 31
0.0
  0
LINE
  5
43B
  8
0
 10
22.443929495546399
 20
78.061120544772137
 30
0.0
 11
21.64593842411773
 21
77.92917610032768
 31
0.0
  0
LINE
  5
43C
  8
0
 10
21.64593842411773
 20
77.92917610032768
 30
0.0
 11
21.035695368562301
 21
77.533342766994323
 31
0.0
  0
LINE
  5
43D
  8
0
 10
21.035695368562301
 20
77.533342766994323
 30
0.0
 11
20.64841858284808
 21
76.909334830486401
 31
0.0
  0
LINE
  5
43E
  8
0
 10
20.64841858284808
 20
76.909334830486401
 30
0.0
 11
20.519326320943261
 21
76.092866576518176
 31
0.0
  0
LINE
  5
43F
  8
0
 10
20.519326320943261
 20
76.092866576518176
 30
0.0
 11
20.649038622530501
 21
75.274538203502289
 31
0.0
  0
LINE
  5
440
  8
0
 10
20.649038622530501
 20
75.274538203502289
 30
0.0
 11
21.038175527292431
 21
74.650902290803884
 31
0.0
  0
LINE
  5
441
  8
0
 10
21.038175527292431
 20
74.650902290803884
 30
0.0
 11
21.653502908244722
 21
74.256185028899097
 31
0.0
  0
LINE
  5
442
  8
0
 10
21.653502908244722
 20
74.256185028899097
 30
0.0
 11
22.46178663840351
 21
74.124612608264187
 31
0.0
  0
LINE
  5
443
  8
0
 10
22.46178663840351
 20
74.124612608264187
 30
0.0
 11
23.184876916181341
 21
74.226795147946717
 31
0.0
  0
LINE
  5
444
  8
0
 10
23.184876916181341
 20
74.226795147946717
 30
0.0
 11
23.741052511419412
 21
74.533342766994352
 31
0.0
  0
LINE
  5
445
  8
0
 10
23.741052511419412
 20
74.533342766994352
 30
0.0
 11
24.108488027292431
 21
75.025158243184819
 31
0.0
  0
LINE
  5
446
  8
0
 10
24.108488027292431
 20
75.025158243184819
 30
0.0
 11
24.265358066975072
 21
75.683144354295933
 31
0.0
  0
LINE
  5
447
  8
0
 10
24.265358066975072
 20
75.683144354295933
 30
0.0
 11
23.12250092411773
 21
75.683144354295933
 31
0.0
  0
LINE
  5
448
  8
0
 10
15.900773546350131
 20
76.457218543219142
 30
0.0
 11
17.07835291142942
 21
76.457218543219142
 31
0.0
  0
LINE
  5
449
  8
0
 10
17.07835291142942
 20
76.457218543219142
 30
0.0
 11
17.22517830825495
 21
76.965155051155648
 31
0.0
  0
LINE
  5
44A
  8
0
 10
17.22517830825495
 20
76.965155051155648
 30
0.0
 11
18.428551324127959
 21
76.965155051155648
 31
0.0
  0
LINE
  5
44B
  8
0
 10
18.428551324127959
 20
76.965155051155648
 30
0.0
 11
18.570416403493031
 21
76.457218543219142
 31
0.0
  0
LINE
  5
44C
  8
0
 10
18.570416403493031
 20
76.457218543219142
 30
0.0
 11
19.77378941936604
 21
76.457218543219142
 31
0.0
  0
LINE
  5
44D
  8
0
 10
19.77378941936604
 20
76.457218543219142
 30
0.0
 11
18.444424340000982
 21
80.266742352742952
 31
0.0
  0
LINE
  5
44E
  8
0
 10
18.444424340000982
 20
80.266742352742952
 30
0.0
 11
17.215257673334222
 21
80.266742352742952
 31
0.0
  0
LINE
  5
44F
  8
0
 10
17.215257673334222
 20
80.266742352742952
 30
0.0
 11
15.900773546350131
 21
76.457218543219142
 31
0.0
  0
LINE
  5
450
  8
0
 10
17.445416403493031
 20
77.79055187655247
 30
0.0
 11
17.831329101905791
 21
79.094123305123901
 31
0.0
  0
LINE
  5
451
  8
0
 10
17.831329101905791
 20
79.094123305123901
 30
0.0
 11
18.208313228889889
 21
77.79055187655247
 31
0.0
  0
LINE
  5
452
  8
0
 10
18.208313228889889
 20
77.79055187655247
 30
0.0
 11
17.445416403493031
 21
77.79055187655247
 31
0.0
  0
LINE
  5
453
  8
0
 10
12.14004235608877
 20
78.197606852399403
 30
0.0
 11
13.839447117993579
 21
78.197606852399403
 31
0.0
  0
LINE
  5
454
  8
0
 10
13.839447117993579
 20
78.197606852399403
 30
0.0
 11
14.6073042608507
 21
78.236297328589885
 31
0.0
  0
LINE
  5
455
  8
0
 10
14.6073042608507
 20
78.236297328589885
 30
0.0
 11
15.02000267354901
 21
78.368241773034327
 31
0.0
  0
LINE
  5
456
  8
0
 10
15.02000267354901
 20
78.368241773034327
 30
0.0
 11
15.42823680053311
 21
78.751178280970848
 31
0.0
  0
LINE
  5
457
  8
0
 10
15.42823680053311
 20
78.751178280970848
 30
0.0
 11
15.568613784660331
 21
79.338479868272429
 31
0.0
  0
LINE
  5
458
  8
0
 10
15.568613784660331
 20
79.338479868272429
 30
0.0
 11
15.42476457831094
 21
79.901475900018454
 31
0.0
  0
LINE
  5
459
  8
0
 10
15.42476457831094
 20
79.901475900018454
 30
0.0
 11
14.981312197358649
 21
80.226376693669266
 31
0.0
  0
LINE
  5
45A
  8
0
 10
14.981312197358649
 20
80.226376693669266
 30
0.0
 11
15.326550292596719
 21
80.543837011129568
 31
0.0
  0
LINE
  5
45B
  8
0
 10
15.326550292596719
 20
80.543837011129568
 30
0.0
 11
15.441629657676
 21
80.996217963510531
 31
0.0
  0
LINE
  5
45C
  8
0
 10
15.441629657676
 20
80.996217963510531
 30
0.0
 11
15.287859816406121
 21
81.556237804780366
 31
0.0
  0
LINE
  5
45D
  8
0
 10
15.287859816406121
 20
81.556237804780366
 30
0.0
 11
14.845399498945881
 21
81.896019550812099
 31
0.0
  0
LINE
  5
45E
  8
0
 10
14.845399498945881
 20
81.896019550812099
 30
0.0
 11
14.450062197358649
 21
81.981337011129554
 31
0.0
  0
LINE
  5
45F
  8
0
 10
14.450062197358649
 20
81.981337011129554
 30
0.0
 11
13.716431244977461
 21
82.007130661923213
 31
0.0
  0
LINE
  5
460
  8
0
 10
13.716431244977461
 20
82.007130661923213
 30
0.0
 11
12.14004235608877
 21
82.007130661923213
 31
0.0
  0
LINE
  5
461
  8
0
 10
12.14004235608877
 20
82.007130661923213
 30
0.0
 11
12.14004235608877
 21
78.197606852399403
 31
0.0
  0
LINE
  5
462
  8
0
 10
13.34639156243793
 20
79.086495741288303
 30
0.0
 11
13.34639156243793
 21
79.784908439701013
 31
0.0
  0
LINE
  5
463
  8
0
 10
13.34639156243793
 20
79.784908439701013
 30
0.0
 11
13.89500267354901
 21
79.784908439701013
 31
0.0
  0
LINE
  5
464
  8
0
 10
13.89500267354901
 20
79.784908439701013
 30
0.0
 11
14.30422886402539
 21
79.705543360335923
 31
0.0
  0
LINE
  5
465
  8
0
 10
14.30422886402539
 20
79.705543360335923
 30
0.0
 11
14.425756641802989
 21
79.438678280970819
 31
0.0
  0
LINE
  5
466
  8
0
 10
14.425756641802989
 20
79.438678280970819
 30
0.0
 11
14.30670902275528
 21
79.168837011129568
 31
0.0
  0
LINE
  5
467
  8
0
 10
14.30670902275528
 20
79.168837011129568
 30
0.0
 11
13.905915371961781
 21
79.086495741288303
 31
0.0
  0
LINE
  5
468
  8
0
 10
13.905915371961781
 20
79.086495741288303
 30
0.0
 11
13.34639156243793
 21
79.086495741288303
 31
0.0
  0
LINE
  5
469
  8
0
 10
13.34639156243793
 20
80.483321138113695
 30
0.0
 11
13.34639156243793
 21
81.118241773034342
 31
0.0
  0
LINE
  5
46A
  8
0
 10
13.34639156243793
 20
81.118241773034342
 30
0.0
 11
13.680716959263229
 21
81.118241773034342
 31
0.0
  0
LINE
  5
46B
  8
0
 10
13.680716959263229
 20
81.118241773034342
 30
0.0
 11
14.189149498945881
 21
81.050781455573997
 31
0.0
  0
LINE
  5
46C
  8
0
 10
14.189149498945881
 20
81.050781455573997
 30
0.0
 11
14.298772514818889
 21
80.800781455573997
 31
0.0
  0
LINE
  5
46D
  8
0
 10
14.298772514818889
 20
80.800781455573997
 30
0.0
 11
14.19658997513625
 21
80.555741773034342
 31
0.0
  0
LINE
  5
46E
  8
0
 10
14.19658997513625
 20
80.555741773034342
 30
0.0
 11
13.84440743545383
 21
80.483321138113695
 31
0.0
  0
LINE
  5
46F
  8
0
 10
13.84440743545383
 20
80.483321138113695
 30
0.0
 11
13.34639156243793
 21
80.483321138113695
 31
0.0
  0
ARC
  5
470
  8
0
 10
18.000000150129608
 20
78.125000203094004
 30
0.0
 40
9.0000000000000195
 50
179.99999999999969
 51
359.99999999999881
  0
ARC
  5
471
  8
0
 10
18.000000150129608
 20
78.125000203094004
 30
0.0
 40
9.0000000000000124
 50
359.99999999999949
 51
179.99999999999969
  0
LINE
  5
472
  8
0
 10
36.000000150129608
 20
96.375000203092043
 30
0.0
 11
36.250000150129608
 21
96.375000203092043
 31
0.0
  0
LINE
  5
473
  8
0
 10
36.250000150129608
 20
99.375000203092014
 30
0.0
 11
36.000000150129608
 21
99.375000203092014
 31
0.0
  0
LINE
  5
474
  8
0
 10
36.250000150129381
 20
99.375000203091943
 30
0.0
 11
36.250000150129381
 21
99.323892813393954
 31
0.0
  0
LINE
  5
475
  8
0
 10
36.250000150129381
 20
99.323888942525542
 30
0.0
 11
36.250000150129381
 21
99.174038308768573
 31
0.0
  0
LINE
  5
476
  8
0
 10
36.250000150129381
 20
99.174036595756675
 30
0.0
 11
36.250000150129381
 21
98.935661707646716
 31
0.0
  0
LINE
  5
477
  8
0
 10
36.250000150129381
 20
98.935660374871773
 30
0.0
 11
36.250000150129381
 21
98.263229612130075
 31
0.0
  0
LINE
  5
478
  8
0
 10
36.250000150129381
 20
98.263228770745741
 30
0.0
 11
36.250000150129381
 21
97.875000203091929
 31
0.0
  0
LINE
  5
479
  8
0
 10
36.250000150129381
 20
97.875000203091901
 30
0.0
 11
36.250000150129381
 21
97.486771635438103
 31
0.0
  0
LINE
  5
47A
  8
0
 10
36.250000150129381
 20
97.486770794053044
 30
0.0
 11
36.250000150129381
 21
96.814340031312085
 31
0.0
  0
LINE
  5
47B
  8
0
 10
36.250000150129381
 20
96.814338698536133
 30
0.0
 11
36.250000150129381
 21
96.5759638104266
 31
0.0
  0
LINE
  5
47C
  8
0
 10
36.250000150129381
 20
96.575962097415257
 30
0.0
 11
36.250000150129381
 21
96.42611146365833
 31
0.0
  0
LINE
  5
47D
  8
0
 10
36.250000150129381
 20
96.426107592788156
 30
0.0
 11
36.250000150129381
 21
96.375000203091929
 31
0.0
  0
LINE
  5
47E
  8
0
 10
36.000000150129608
 20
38.500000203091638
 30
0.0
 11
36.250000150129608
 21
38.500000203091638
 31
0.0
  0
LINE
  5
47F
  8
0
 10
36.250000150129608
 20
39.500000203091588
 30
0.0
 11
36.000000150129608
 21
39.500000203091588
 31
0.0
  0
LINE
  5
480
  8
0
 10
36.000000150129608
 20
25.125000203091531
 30
0.0
 11
36.250000150129608
 21
25.125000203091531
 31
0.0
  0
LINE
  5
481
  8
0
 10
36.250000150129608
 20
27.125000203091592
 30
0.0
 11
36.000000150129608
 21
27.125000203091592
 31
0.0
  0
LINE
  5
482
  8
0
 10
36.000000150129608
 20
7.3750002030914708
 30
0.0
 11
36.250000150129608
 21
7.3750002030914708
 31
0.0
  0
LINE
  5
483
  8
0
 10
36.250000150129608
 20
9.3750002030915276
 30
0.0
 11
36.000000150129608
 21
9.3750002030915276
 31
0.0
  0
LINE
  5
484
  8
0
 10
36.250000150129381
 20
39.500000203091531
 30
0.0
 11
36.250000150129381
 21
39.48296440652566
 31
0.0
  0
LINE
  5
485
  8
0
 10
36.250000150129381
 20
39.48296311623605
 30
0.0
 11
36.250000150129381
 21
39.43301324625029
 31
0.0
  0
LINE
  5
486
  8
0
 10
36.250000150129381
 20
39.433012904983748
 30
0.0
 11
36.250000150129381
 21
39.353554037943447
 31
0.0
  0
LINE
  5
487
  8
0
 10
36.250000150129381
 20
39.353553593684801
 30
0.0
 11
36.250000150129381
 21
39.250000203091517
 31
0.0
  0
LINE
  5
488
  8
0
 10
36.250000150129381
 20
39.249999306578601
 30
0.0
 11
36.250000150129381
 21
39.129410006104287
 31
0.0
  0
LINE
  5
489
  8
0
 10
36.250000150129381
 20
39.129409725642802
 30
0.0
 11
36.250000150129381
 21
39.000000203091531
 31
0.0
  0
LINE
  5
48A
  8
0
 10
36.250000150129381
 20
39.00000020309151
 30
0.0
 11
36.250000150129381
 21
38.870590680540253
 31
0.0
  0
LINE
  5
48B
  8
0
 10
36.250000150129381
 20
38.870590400078761
 30
0.0
 11
36.250000150129381
 21
38.750001099604468
 31
0.0
  0
LINE
  5
48C
  8
0
 10
36.250000150129381
 20
38.750000203091531
 30
0.0
 11
36.250000150129381
 21
38.646446812498247
 31
0.0
  0
LINE
  5
48D
  8
0
 10
36.250000150129381
 20
38.646446368239602
 30
0.0
 11
36.250000150129381
 21
38.5669875011993
 31
0.0
  0
LINE
  5
48E
  8
0
 10
36.250000150129381
 20
38.566987159932758
 30
0.0
 11
36.250000150129381
 21
38.517037289946991
 31
0.0
  0
LINE
  5
48F
  8
0
 10
36.250000150129381
 20
38.517035999657409
 30
0.0
 11
36.250000150129381
 21
38.500000203091531
 31
0.0
  0
LINE
  5
490
  8
0
 10
36.250000150129381
 20
27.12500020309152
 30
0.0
 11
36.250000150129381
 21
27.09092671356235
 31
0.0
  0
LINE
  5
491
  8
0
 10
36.250000150129381
 20
27.09092602938059
 30
0.0
 11
36.250000150129381
 21
26.991025606875962
 31
0.0
  0
LINE
  5
492
  8
0
 10
36.250000150129381
 20
26.991025250402348
 30
0.0
 11
36.250000150129381
 21
26.83210698427807
 31
0.0
  0
LINE
  5
493
  8
0
 10
36.250000150129381
 20
26.832106813630279
 30
0.0
 11
36.250000150129381
 21
26.383819248194051
 31
0.0
  0
LINE
  5
494
  8
0
 10
36.250000150129381
 20
26.383818839105
 30
0.0
 11
36.250000150129381
 21
26.125000203091531
 31
0.0
  0
LINE
  5
495
  8
0
 10
36.250000150129381
 20
26.124999238435439
 30
0.0
 11
36.250000150129381
 21
25.866182498864369
 31
0.0
  0
LINE
  5
496
  8
0
 10
36.250000150129381
 20
25.866181157989001
 30
0.0
 11
36.250000150129381
 21
25.625001099604191
 31
0.0
  0
LINE
  5
497
  8
0
 10
36.250000150129381
 20
25.62500020309152
 30
0.0
 11
36.250000150129381
 21
25.41789444498486
 31
0.0
  0
LINE
  5
498
  8
0
 10
36.250000150129381
 20
25.417893421904981
 30
0.0
 11
36.250000150129381
 21
25.258975941314759
 31
0.0
  0
LINE
  5
499
  8
0
 10
36.250000150129381
 20
25.258974799307079
 30
0.0
 11
36.250000150129381
 21
25.159074790281959
 31
0.0
  0
LINE
  5
49A
  8
0
 10
36.250000150129381
 20
25.159074376802469
 30
0.0
 11
36.250000150129381
 21
25.12500020309152
 31
0.0
  0
LINE
  5
49B
  8
0
 10
36.250000150129381
 20
9.3750002030915276
 30
0.0
 11
36.250000150129381
 21
9.3409262394549035
 31
0.0
  0
LINE
  5
49C
  8
0
 10
36.250000150129381
 20
9.3409260293805954
 30
0.0
 11
36.250000150129381
 21
9.24102566460936
 31
0.0
  0
LINE
  5
49D
  8
0
 10
36.250000150129381
 20
9.2410256068759704
 30
0.0
 11
36.250000150129381
 21
9.0821073173405118
 31
0.0
  0
LINE
  5
49E
  8
0
 10
36.250000150129381
 20
9.0821069842780808
 30
0.0
 11
36.250000150129381
 21
8.8750002030915365
 31
0.0
  0
LINE
  5
49F
  8
0
 10
36.250000150129381
 20
8.8749999789634177
 30
0.0
 11
36.250000150129381
 21
8.6338193091522744
 31
0.0
  0
LINE
  5
4A0
  8
0
 10
36.250000150129381
 20
8.6338192481940563
 30
0.0
 11
36.250000150129381
 21
8.3750004442555266
 31
0.0
  0
LINE
  5
4A1
  8
0
 10
36.250000150129381
 20
8.3750002030915223
 30
0.0
 11
36.250000150129381
 21
7.6678935925527689
 31
0.0
  0
LINE
  5
4A2
  8
0
 10
36.250000150129381
 20
7.667893421904977
 30
0.0
 11
36.250000150129381
 21
7.5089747993070892
 31
0.0
  0
LINE
  5
4A3
  8
0
 10
36.250000150129381
 20
7.5089744291738709
 30
0.0
 11
36.250000150129381
 21
7.4090743768024572
 31
0.0
  0
LINE
  5
4A4
  8
0
 10
36.250000150129381
 20
7.4090736926204119
 30
0.0
 11
36.250000150129381
 21
7.3750002030915258
 31
0.0
  0
LINE
  5
4A5
  8
0
 10
36.000000150129608
 20
11.37500020309192
 30
0.0
 11
36.250000150129608
 21
11.37500020309192
 31
0.0
  0
LINE
  5
4A6
  8
0
 10
36.250000150129608
 20
14.3750002030921
 30
0.0
 11
36.000000150129608
 21
14.3750002030921
 31
0.0
  0
LINE
  5
4A7
  8
0
 10
36.250000150129381
 20
14.375000203091959
 30
0.0
 11
36.250000150129381
 21
14.323889020581641
 31
0.0
  0
LINE
  5
4A8
  8
0
 10
36.250000150129381
 20
14.32388894252556
 30
0.0
 11
36.250000150129381
 21
14.17403870776802
 31
0.0
  0
LINE
  5
4A9
  8
0
 10
36.250000150129381
 20
14.17403830876861
 30
0.0
 11
36.250000150129381
 21
13.93566115219244
 31
0.0
  0
LINE
  5
4AA
  8
0
 10
36.250000150129381
 20
13.93566037487178
 30
0.0
 11
36.250000150129381
 21
13.625000203091959
 31
0.0
  0
LINE
  5
4AB
  8
0
 10
36.250000150129381
 20
13.62499975483518
 30
0.0
 11
36.250000150129381
 21
13.263229112165179
 31
0.0
  0
LINE
  5
4AC
  8
0
 10
36.250000150129381
 20
13.263228770745741
 30
0.0
 11
36.250000150129381
 21
12.87500020309197
 31
0.0
  0
LINE
  5
4AD
  8
0
 10
36.250000150129381
 20
12.87499972076353
 30
0.0
 11
36.250000150129381
 21
12.12500020309195
 31
0.0
  0
LINE
  5
4AE
  8
0
 10
36.250000150129381
 20
12.124999681086139
 30
0.0
 11
36.250000150129381
 21
11.814340031312121
 31
0.0
  0
LINE
  5
4AF
  8
0
 10
36.250000150129381
 20
11.81433980944538
 30
0.0
 11
36.250000150129381
 21
11.42611146365835
 31
0.0
  0
LINE
  5
4B0
  8
0
 10
36.250000150129381
 20
11.426110911491479
 30
0.0
 11
36.250000150129381
 21
11.37500020309195
 31
0.0
  0
LINE
  5
4B1
  8
0
 10
80.129917979094671
 20
181.38419843210369
 30
0.0
 11
80.129917979094671
 21
145.38419843210909
 31
0.0
  0
LINE
  5
4B2
  8
0
 10
80.129917979094671
 20
145.38419843210909
 30
0.0
 11
120.8799179790919
 21
145.38419843210889
 31
0.0
  0
LINE
  5
4B3
  8
0
 10
120.8799179790919
 20
145.38419843210889
 30
0.0
 11
120.8799179790919
 21
181.38419843210369
 31
0.0
  0
LINE
  5
4B4
  8
0
 10
120.8799179790919
 20
181.38419843210369
 30
0.0
 11
80.129917979094671
 21
181.38419843210369
 31
0.0
  0
LINE
  5
4B5
  8
0
 10
119.2549179790949
 20
179.7591984321038
 30
0.0
 11
119.2549179790946
 21
147.0091984321038
 31
0.0
1001
ACAD
1000
ASC_BOUNDS
1002
{
1070
    19
1005
50E
1002
}
  0
LINE
  5
4B6
  8
0
 10
119.2549179790946
 20
147.0091984321038
 30
0.0
 11
81.754917979094927
 21
147.00919843210389
 31
0.0
1001
ACAD
1000
ASC_BOUNDS
1002
{
1070
    19
1005
50E
1002
}
  0
LINE
  5
4B7
  8
0
 10
81.754917979094927
 20
147.00919843210389
 30
0.0
 11
81.754917979094927
 21
179.75919843210389
 31
0.0
1001
ACAD
1000
ASC_BOUNDS
1002
{
1070
    19
1005
50E
1002
}
  0
LINE
  5
4B8
  8
0
 10
81.754917979094927
 20
179.75919843210389
 30
0.0
 11
119.2549179790949
 21
179.7591984321038
 31
0.0
1001
ACAD
1000
ASC_BOUNDS
1002
{
1070
    19
1005
50E
1002
}
  0
LINE
  5
4B9
  8
0
 10
120.8799179790919
 20
145.3841984321038
 30
0.0
 11
127.6299179790953
 21
145.3841984321038
 31
0.0
  0
LINE
  5
4BA
  8
0
 10
127.6299179790953
 20
145.3841984321038
 30
0.0
 11
127.6299179790953
 21
181.3841984321038
 31
0.0
  0
LINE
  5
4BB
  8
0
 10
127.6299179790953
 20
181.3841984321038
 30
0.0
 11
120.8799179790919
 21
181.3841984321038
 31
0.0
  0
LINE
  5
4BC
  8
0
 10
102.0049179790951
 20
145.13419843210329
 30
0.0
 11
102.0049179790951
 21
145.3841984321034
 31
0.0
  0
LINE
  5
4BD
  8
0
 10
99.004917979095111
 20
145.3841984321034
 30
0.0
 11
99.004917979095111
 21
145.13419843210329
 31
0.0
  0
LINE
  5
4BE
  8
0
 10
102.0049179790949
 20
145.1341984321036
 30
0.0
 11
101.953806796595
 21
145.1341984321036
 31
0.0
  0
LINE
  5
4BF
  8
0
 10
101.9538067185285
 20
145.1341984321036
 30
0.0
 11
101.8039564837779
 21
145.1341984321036
 31
0.0
  0
LINE
  5
4C0
  8
0
 10
101.8039560847717
 20
145.1341984321036
 30
0.0
 11
101.5655789282013
 21
145.1341984321036
 31
0.0
  0
LINE
  5
4C1
  8
0
 10
101.5655781508749
 20
145.1341984321036
 30
0.0
 11
100.8931468881735
 21
145.1341984321036
 31
0.0
  0
LINE
  5
4C2
  8
0
 10
100.8931465467487
 20
145.1341984321036
 30
0.0
 11
100.5049179790949
 21
145.1341984321036
 31
0.0
  0
LINE
  5
4C3
  8
0
 10
100.5049174967719
 20
145.1341984321036
 30
0.0
 11
100.1166895591862
 21
145.1341984321036
 31
0.0
  0
LINE
  5
4C4
  8
0
 10
100.1166894114412
 20
145.1341984321036
 30
0.0
 11
99.754917979094927
 21
145.1341984321036
 31
0.0
  0
LINE
  5
4C5
  8
0
 10
99.75491745709472
 20
145.1341984321036
 30
0.0
 11
99.444257807315125
 21
145.1341984321036
 31
0.0
  0
LINE
  5
4C6
  8
0
 10
99.444257585454366
 20
145.1341984321036
 30
0.0
 11
99.056029536461864
 21
145.1341984321036
 31
0.0
  0
LINE
  5
4C7
  8
0
 10
99.056029239661484
 20
145.1341984321036
 30
0.0
 11
99.004917979094884
 21
145.1341984321036
 31
0.0
  0
LINE
  5
4C8
  8
0
 10
110.6299179790951
 20
145.13419843210329
 30
0.0
 11
110.6299179790951
 21
145.3841984321034
 31
0.0
  0
LINE
  5
4C9
  8
0
 10
109.6299179790949
 20
145.3841984321034
 30
0.0
 11
109.6299179790949
 21
145.13419843210329
 31
0.0
  0
LINE
  5
4CA
  8
0
 10
98.379917979094884
 20
145.13419843210329
 30
0.0
 11
98.379917979094884
 21
145.3841984321034
 31
0.0
  0
LINE
  5
4CB
  8
0
 10
96.37991797909487
 20
145.3841984321034
 30
0.0
 11
96.37991797909487
 21
145.13419843210329
 31
0.0
  0
LINE
  5
4CC
  8
0
 10
81.379917979094898
 20
145.3841984321034
 30
0.0
 11
81.379917979094898
 21
145.13419843210349
 31
0.0
  0
LINE
  5
4CD
  8
0
 10
110.6299179790949
 20
145.13419843210349
 30
0.0
 11
110.6128808922394
 21
145.13419843210349
 31
0.0
  0
LINE
  5
4CE
  8
0
 10
110.6128808472137
 20
145.13419843210349
 30
0.0
 11
110.5629310222598
 21
145.13419843210349
 31
0.0
  0
LINE
  5
4CF
  8
0
 10
110.56293068098699
 20
145.13419843210349
 30
0.0
 11
110.4834713696882
 21
145.13419843210349
 31
0.0
  0
LINE
  5
4D0
  8
0
 10
110.4834710712605
 20
145.13419843210349
 30
0.0
 11
110.3799179790949
 21
145.13419843210349
 31
0.0
  0
LINE
  5
4D1
  8
0
 10
110.3799177549713
 20
145.13419843210349
 30
0.0
 11
110.25932778211261
 21
145.13419843210349
 31
0.0
  0
LINE
  5
4D2
  8
0
 10
110.2593275016461
 20
145.13419843210349
 30
0.0
 11
110.0005084565436
 21
145.13419843210349
 31
0.0
  0
LINE
  5
4D3
  8
0
 10
110.0005081760871
 20
145.13419843210349
 30
0.0
 11
109.8799179790949
 21
145.13419843210349
 31
0.0
  0
LINE
  5
4D4
  8
0
 10
109.8799174570949
 20
145.13419843210349
 30
0.0
 11
109.77636458850149
 21
145.13419843210349
 31
0.0
  0
LINE
  5
4D5
  8
0
 10
109.7763641442486
 20
145.13419843210349
 30
0.0
 11
109.6969052772026
 21
145.13419843210349
 31
0.0
  0
LINE
  5
4D6
  8
0
 10
109.6969049359422
 20
145.13419843210349
 30
0.0
 11
109.64695506595029
 21
145.13419843210349
 31
0.0
  0
LINE
  5
4D7
  8
0
 10
109.64695377567
 20
145.13419843210349
 30
0.0
 11
109.6299179790949
 21
145.13419843210349
 31
0.0
  0
LINE
  5
4D8
  8
0
 10
98.379917979094884
 20
145.1341984321036
 30
0.0
 11
98.245944065418584
 21
145.1341984321036
 31
0.0
  0
LINE
  5
4D9
  8
0
 10
98.245943382879446
 20
145.1341984321036
 30
0.0
 11
98.087025648804001
 21
145.1341984321036
 31
0.0
  0
LINE
  5
4DA
  8
0
 10
98.087024760281565
 20
145.1341984321036
 30
0.0
 11
97.879919023110702
 21
145.1341984321036
 31
0.0
  0
LINE
  5
4DB
  8
0
 10
97.879917979094927
 20
145.1341984321036
 30
0.0
 11
97.638737585125455
 21
145.1341984321036
 31
0.0
  0
LINE
  5
4DC
  8
0
 10
97.638737024197312
 20
145.1341984321036
 30
0.0
 11
97.121098933992485
 21
145.1341984321036
 31
0.0
  0
LINE
  5
4DD
  8
0
 10
97.121098373074346
 20
145.1341984321036
 30
0.0
 11
96.879917979094884
 21
145.1341984321036
 31
0.0
  0
LINE
  5
4DE
  8
0
 10
96.879916935089568
 20
145.1341984321036
 30
0.0
 11
96.672811197908459
 21
145.1341984321036
 31
0.0
  0
LINE
  5
4DF
  8
0
 10
96.672810309396922
 20
145.1341984321036
 30
0.0
 11
96.513892575310365
 21
145.1341984321036
 31
0.0
  0
LINE
  5
4E0
  8
0
 10
96.513891892783704
 20
145.1341984321036
 30
0.0
 11
96.413992152805804
 21
145.1341984321036
 31
0.0
  0
LINE
  5
4E1
  8
0
 10
96.413989572235565
 20
145.1341984321036
 30
0.0
 11
96.37991797909487
 21
145.1341984321036
 31
0.0
  0
LINE
  5
4E2
  8
0
 10
82.758174904193098
 20
145.1341984321036
 30
0.0
 11
82.638737585125682
 21
145.1341984321036
 31
0.0
  0
LINE
  5
4E3
  8
0
 10
82.638737024197312
 20
145.1341984321036
 30
0.0
 11
82.121098933992215
 21
145.1341984321036
 31
0.0
  0
LINE
  5
4E4
  8
0
 10
82.121098373074346
 20
145.1341984321036
 30
0.0
 11
81.879917979094884
 21
145.1341984321036
 31
0.0
  0
LINE
  5
4E5
  8
0
 10
81.879916935089554
 20
145.1341984321036
 30
0.0
 11
81.672811197908203
 21
145.1341984321036
 31
0.0
  0
LINE
  5
4E6
  8
0
 10
81.672810309396937
 20
145.1341984321036
 30
0.0
 11
81.513892575310379
 21
145.1341984321036
 31
0.0
  0
LINE
  5
4E7
  8
0
 10
81.513891892783704
 20
145.1341984321036
 30
0.0
 11
81.413992152805776
 21
145.1341984321036
 31
0.0
  0
LINE
  5
4E8
  8
0
 10
81.413989572235764
 20
145.1341984321036
 30
0.0
 11
81.379917979094898
 21
145.1341984321036
 31
0.0
  0
LINE
  5
4E9
  8
0
 10
85.754917979095126
 20
145.13419843210349
 30
0.0
 11
85.754917979095126
 21
145.3841984321034
 31
0.0
  0
LINE
  5
4EA
  8
0
 10
82.754917979095126
 20
145.3841984321034
 30
0.0
 11
82.754917979095126
 21
145.13419843210349
 31
0.0
  0
LINE
  5
4EB
  8
0
 10
85.754917979095126
 20
145.1341984321036
 30
0.0
 11
85.703806718528767
 21
145.1341984321036
 31
0.0
  0
LINE
  5
4EC
  8
0
 10
85.703806098312526
 20
145.1341984321036
 30
0.0
 11
85.553957108577137
 21
145.1341984321036
 31
0.0
  0
LINE
  5
4ED
  8
0
 10
85.553956084771684
 20
145.1341984321036
 30
0.0
 11
85.315579483655696
 21
145.1341984321036
 31
0.0
  0
LINE
  5
4EE
  8
0
 10
85.315578150874913
 20
145.1341984321036
 30
0.0
 11
84.643147388138431
 21
145.1341984321036
 31
0.0
  0
LINE
  5
4EF
  8
0
 10
84.643146546748994
 20
145.1341984321036
 30
0.0
 11
83.866689411441243
 21
145.1341984321036
 31
0.0
  0
LINE
  5
4F0
  8
0
 10
83.866688570061555
 20
145.1341984321036
 30
0.0
 11
83.194257807315324
 21
145.1341984321036
 31
0.0
  0
LINE
  5
4F1
  8
0
 10
83.194256474544986
 20
145.1341984321036
 30
0.0
 11
82.955879873418553
 21
145.1341984321036
 31
0.0
  0
LINE
  5
4F2
  8
0
 10
82.955878849625165
 20
145.1341984321036
 30
0.0
 11
82.806029859883893
 21
145.1341984321036
 31
0.0
  0
LINE
  5
4F3
  8
0
 10
82.806029239661484
 20
145.1341984321036
 30
0.0
 11
82.754917979095126
 21
145.1341984321036
 31
0.0
  0
INSERT
  5
505
  8
0
  6
CONTINUOUS
  2
*X4
 10
0.0
 20
0.0
 30
0.0
1001
GRADIENTCOLOR1ACI
1070
     5
1001
GRADIENTCOLOR2ACI
1070
     2
1001
ACAD
1000
HATCH
1002
{
1070
    19
1000
NET
1040
12.0
1040
0.0
1000
ASC_BOUNDS
1070
     2
1070
     1
1070
     4
1005
396
1005
397
1005
38E
1005
395
1070
     1
1070
     4
1005
38B
1005
397
1005
394
1005
395
1000
ASC_SEEDPOINT
1011
173.22106369761329
1021
0.0
1031
0.0
1021
33.684994330296831
1031
0.0
1000
R14_HATCH_DATA
1000
505
1011
1.0
1021
0.0
1031
0.0
1021
0.0
1031
0.0
1011
0.0
1021
0.0
1031
0.0
1021
1.0
1031
0.0
1011
0.0
1021
0.0
1031
0.0
1021
0.0
1031
1.0
1040
0.0
1010
0.0
1020
0.0
1030
1.0
1000
NET
1070
     0
1070
     1
1071
        2
1071
        7
1070
     0
1070
     1
1071
        4
1040
177.23739358752721
1040
42.500000203091567
1040
169.86239358752709
1040
42.500000203091481
1040
169.86239358752721
1040
4.000000203090929
1040
177.23739358752721
1040
4.0000002030910036
1071
        4
1005
395
1005
394
1005
397
1005
38B
1071
        7
1070
     0
1070
     1
1071
        4
1040
202.61239358752709
1040
42.500000203091822
1040
195.23739358752781
1040
42.50000020309173
1040
195.23739358752781
1040
4.0000002030911972
1040
202.61239358752761
1040
4.000000203091278
1071
        4
1005
395
1005
38E
1005
397
1005
396
1070
     1
1070
     1
1040
0.0
1040
12.0
1070
     0
1070
     2
1040
0.0
1040
0.0
1040
0.0
1040
0.0
1040
1.5
1070
     0
1040
1.570796326794895
1040
0.0
1040
0.0
1040
-1.5
1040
0.0000000000000001
1070
     0
1040
0.0719123640138334
1071
        2
1040
173.22106369761329
1040
33.684994330296831
1040
0.0
1040
199.98537428630971
1040
32.606309020802541
1040
0.0
1002
}
  0
INSERT
  5
50E
  8
0
  6
CONTINUOUS
  2
*X7
 10
0.0
 20
0.0
 30
0.0
1001
GRADIENTCOLOR1ACI
1070
     5
1001
GRADIENTCOLOR2ACI
1070
     2
1001
ACAD
1000
HATCH
1002
{
1070
    19
1000
ANSI31
1040
12.0
1040
0.7853981633974483
1000
ASC_BOUNDS
1070
     1
1070
     1
1070
     4
1005
4B5
1005
4B6
1005
4B7
1005
4B8
1000
ASC_SEEDPOINT
1011
94.568756825699424
1021
0.0
1031
0.0
1021
160.84714003294911
1031
0.0
1000
R14_HATCH_DATA
1000
50E
1011
1.0
1021
0.0
1031
0.0
1021
0.0
1031
0.0
1011
0.0
1021
0.0
1031
0.0
1021
1.0
1031
0.0
1011
0.0
1021
0.0
1031
0.0
1021
0.0
1031
1.0
1040
0.0
1010
0.0
1020
0.0
1030
1.0
1000
ANSI31
1070
     0
1070
     1
1071
        1
1071
        7
1070
     0
1070
     1
1071
        4
1040
119.2549179790949
1040
179.7591984321038
1040
81.754917979094927
1040
179.75919843210389
1040
81.754917979094927
1040
147.00919843210389
1040
119.2549179790946
1040
147.0091984321038
1071
        4
1005
4B8
1005
4B7
1005
4B6
1005
4B5
1070
     1
1070
     1
1040
0.7853981633974483
1040
12.0
1070
     0
1070
     1
1040
1.5707963267948959
1040
0.0
1040
18.0
1040
-1.5
1040
0.0000000000000002
1070
     0
1040
0.1163716118448113
1071
        1
1040
94.568756825699424
1040
160.84714003294911
1040
0.0
1002
}
  0
ENDSEC
  0
EOF
