  0
SECTION
  2
HEADER
  9
$ACADVER
  1
AC1009
  9
$INSBASE
 10
0.0
 20
0.0
 30
0.0
  9
$EXTMIN
 10
-0.0099837836805818
 20
-0.0055826523382052
 30
-0.0015258207003583
  9
$EXTMAX
 10
327.18356993487509
 20
182.90169153086219
 30
0.0000000349246037
  9
$LIMMIN
 10
0.0
 20
0.0
  9
$LIMMAX
 10
12.0
 20
9.0
  9
$ORTHOMODE
 70
     0
  9
$REGENMODE
 70
     1
  9
$FILLMODE
 70
     1
  9
$QTEXTMODE
 70
     0
  9
$MIRRTEXT
 70
     0
  9
$DRAGMODE
 70
     2
  9
$LTSCALE
 40
1.0
  9
$OSMODE
 70
    37
  9
$ATTMODE
 70
     1
  9
$TEXTSIZE
 40
0.2
  9
$TRACEWID
 40
0.05
  9
$TEXTSTYLE
  7
ROMANS
  9
$CLAYER
  8
0
  9
$CELTYPE
  6
BYLAYER
  9
$CECOLOR
 62
   256
  9
$DIMSCALE
 40
1.0
  9
$DIMASZ
 40
0.09375
  9
$DIMEXO
 40
0.0625
  9
$DIMDLI
 40
0.375
  9
$DIMRND
 40
0.0
  9
$DIMDLE
 40
0.0
  9
$DIMEXE
 40
0.03125
  9
$DIMTP
 40
0.0
  9
$DIMTM
 40
0.0
  9
$DIMTXT
 40
0.09375
  9
$DIMCEN
 40
0.09375
  9
$DIMTSZ
 40
0.0
  9
$DIMTOL
 70
     0
  9
$DIMLIM
 70
     0
  9
$DIMTIH
 70
     0
  9
$DIMTOH
 70
     0
  9
$DIMSE1
 70
     0
  9
$DIMSE2
 70
     0
  9
$DIMTAD
 70
     0
  9
$DIMZIN
 70
     0
  9
$DIMBLK
  1

  9
$DIMASO
 70
     1
  9
$DIMSHO
 70
     1
  9
$DIMPOST
  1

  9
$DIMAPOST
  1

  9
$DIMALT
 70
     0
  9
$DIMALTD
 70
     2
  9
$DIMALTF
 40
25.399999999999999
  9
$DIMLFAC
 40
1.0
  9
$DIMTOFL
 70
     0
  9
$DIMTVP
 40
0.0
  9
$DIMTIX
 70
     0
  9
$DIMSOXD
 70
     0
  9
$DIMSAH
 70
     0
  9
$DIMBLK1
  1

  9
$DIMBLK2
  1

  9
$DIMSTYLE
  2
BAC
  9
$DIMCLRD
 70
     0
  9
$DIMCLRE
 70
     6
  9
$DIMCLRT
 70
     0
  9
$DIMTFAC
 40
1.0
  9
$DIMGAP
 40
0.0625
  9
$LUNITS
 70
     5
  9
$LUPREC
 70
     6
  9
$SKETCHINC
 40
0.1
  9
$FILLETRAD
 40
0.0
  9
$AUNITS
 70
     0
  9
$AUPREC
 70
     0
  9
$MENU
  1
.
  9
$ELEVATION
 40
0.0
  9
$PELEVATION
 40
0.0
  9
$THICKNESS
 40
0.0
  9
$LIMCHECK
 70
     0
  9
$BLIPMODE
 70
     0
  9
$CHAMFERA
 40
0.5
  9
$CHAMFERB
 40
0.5
  9
$SKPOLY
 70
     0
  9
$TDCREATE
 40
2456825.6754993522
  9
$TDUPDATE
 40
2456825.6773056369
  9
$TDINDWG
 40
0.0018085648
  9
$TDUSRTIMER
 40
0.0018081366
  9
$USRTIMER
 70
     1
  9
$ANGBASE
 50
0.0
  9
$ANGDIR
 70
     0
  9
$PDMODE
 70
     0
  9
$PDSIZE
 40
0.0
  9
$PLINEWID
 40
0.0
  9
$COORDS
 70
     1
  9
$SPLFRAME
 70
     0
  9
$SPLINETYPE
 70
     6
  9
$SPLINESEGS
 70
     8
  9
$ATTDIA
 70
     0
  9
$ATTREQ
 70
     1
  9
$HANDLING
 70
     1
  9
$HANDSEED
  5
87B
  9
$SURFTAB1
 70
     6
  9
$SURFTAB2
 70
     6
  9
$SURFTYPE
 70
     6
  9
$SURFU
 70
     6
  9
$SURFV
 70
     6
  9
$UCSNAME
  2

  9
$UCSORG
 10
0.0
 20
0.0
 30
0.0
  9
$UCSXDIR
 10
1.0
 20
0.0
 30
0.0
  9
$UCSYDIR
 10
0.0
 20
1.0
 30
0.0
  9
$PUCSNAME
  2

  9
$PUCSORG
 10
0.0
 20
0.0
 30
0.0
  9
$PUCSXDIR
 10
1.0
 20
0.0
 30
0.0
  9
$PUCSYDIR
 10
0.0
 20
1.0
 30
0.0
  9
$USERI1
 70
     0
  9
$USERI2
 70
     0
  9
$USERI3
 70
     0
  9
$USERI4
 70
     0
  9
$USERI5
 70
     0
  9
$USERR1
 40
0.0
  9
$USERR2
 40
0.0
  9
$USERR3
 40
0.0
  9
$USERR4
 40
0.0
  9
$USERR5
 40
0.0
  9
$WORLDVIEW
 70
     1
  9
$SHADEDGE
 70
     3
  9
$SHADEDIF
 70
    70
  9
$TILEMODE
 70
     1
  9
$MAXACTVP
 70
    48
  9
$PLIMCHECK
 70
     0
  9
$PEXTMIN
 10
1.0000000000000000E+020
 20
1.0000000000000000E+020
 30
1.0000000000000000E+020
  9
$PEXTMAX
 10
-1.0000000000000000E+020
 20
-1.0000000000000000E+020
 30
-1.0000000000000000E+020
  9
$PLIMMIN
 10
0.0
 20
0.0
  9
$PLIMMAX
 10
12.0
 20
9.0
  9
$UNITMODE
 70
     0
  9
$VISRETAIN
 70
     1
  9
$PLINEGEN
 70
     0
  9
$PSLTSCALE
 70
     1
  0
ENDSEC
  0
SECTION
  2
TABLES
  0
TABLE
  2
VPORT
 70
     1
  0
VPORT
  2
*ACTIVE
 70
     0
 10
0.0
 20
0.0
 11
1.0
 21
1.0
 12
163.58679307559731
 22
91.448054439261981
 13
0.0
 23
0.0
 14
0.5
 24
0.5
 15
0.5
 25
0.5
 16
0.0
 26
0.0
 36
1.0
 17
0.0
 27
0.0
 37
0.0
 40
185.5229675210353
 41
1.7702552719200879
 42
50.0
 43
0.0
 44
0.0
 50
0.0
 51
0.0
 71
     0
 72
   100
 73
     1
 74
     1
 75
     0
 76
     0
 77
     0
 78
     0
  0
ENDTAB
  0
TABLE
  2
LTYPE
 70
    19
  0
LTYPE
  2
CONTINUOUS
 70
     0
  3
Solid line
 72
    65
 73
     0
 40
0.0
  0
LTYPE
  2
CENTER
 70
     0
  3
Center ____ _ ____ _ ____ _ ____ _ ____ _ ____
 72
    65
 73
     4
 40
2.0
 49
1.25
 49
-0.25
 49
0.25
 49
-0.25
  0
LTYPE
  2
CENTER2
 70
     0
  3
Center (.5x) ___ _ ___ _ ___ _ ___ _ ___ _ ___
 72
    65
 73
     4
 40
1.125
 49
0.75
 49
-0.125
 49
0.125
 49
-0.125
  0
LTYPE
  2
HIDDEN
 70
     0
  3
Hidden __ __ __ __ __ __ __ __ __ __ __ __ __ _
 72
    65
 73
     2
 40
0.375
 49
0.25
 49
-0.125
  0
LTYPE
  2
HIDDEN2
 70
     0
  3
Hidden (.5x) _ _ _ _ _ _ _ _ _ _ _ _ _ _ _ _ _
 72
    65
 73
     2
 40
0.1875
 49
0.125
 49
-0.0625
  0
LTYPE
  2
PHANTOM2
 70
     0
  3
Phantom (.5x) ___ _ _ ___ _ _ ___ _ _ ___ _ _
 72
    65
 73
     6
 40
1.25
 49
0.625
 49
-0.125
 49
0.125
 49
-0.125
 49
0.125
 49
-0.125
  0
LTYPE
  2
AMCONSTR
 70
     0
  3
_______________________
 72
    65
 73
     2
 40
9999.0
 49
9999.0
 49
0.0
  0
LTYPE
  2
AMZIGZAG2
 70
     0
  3
/\/-/\/-/\/-/\/-/\/-/\/
 72
    65
 73
     2
 40
0.4401
 49
0.0001
 49
-0.4400000000000001
  0
LTYPE
  2
ACANSTGB
 70
     0
  3
__ . . __ . .
 72
    65
 73
     6
 40
0.35433070866
 49
0.15748031496
 49
-0.03937007874
 49
0.03937007874
 49
-0.03937007874
 49
0.03937007874
 49
-0.03937007874
  0
LTYPE
  2
ACANSTGL
 70
     0
  3
_ _ _ _ _
 72
    65
 73
     2
 40
0.11811023622
 49
0.07874015748
 49
-0.03937007874
  0
ENDTAB
  0
TABLE
  2
LAYER
 70
     8
  0
LAYER
  2
0
 70
     0
 62
     7
  6
CONTINUOUS
  0
ENDTAB
  0
TABLE
  2
STYLE
 70
    11
  0
STYLE
  2
STANDARD
 70
     0
 40
0.0
 41
1.0
 50
0.0
 71
     0
 42
0.2
  3
txt
  4

  0
STYLE
  2
ROMANS
 70
     0
 40
0.0
 41
0.75
 50
0.0
 71
     0
 42
0.2
  3
romans.shx
  4

  0
STYLE
  2

 70
     1
 40
0.0
 41
1.0
 50
0.0
 71
     0
 42
0.2
  3
genltshp.shx
  4

  0
STYLE
  2
ACANSGDT
 70
     0
 40
0.0
 41
1.0
 50
0.0
 71
     0
 42
0.2
  3
amgdt.shx
  4

  0
ENDTAB
  0
TABLE
  2
VIEW
 70
     0
  0
ENDTAB
  0
TABLE
  2
UCS
 70
     0
  0
ENDTAB
  0
TABLE
  2
APPID
 70
    14
  0
APPID
  2
ACAD
 70
     0
  0
APPID
  2
ACAD_MLEADERVER
 70
     0
  0
APPID
  2
ACAD_DSTYLE_DIMJAG
 70
     0
  0
APPID
  2
ACAD_DSTYLE_DIMTALN
 70
     0
  0
APPID
  2
ACAD_PSEXT
 70
     0
  0
APPID
  2
ACADANNOPO
 70
     0
  0
APPID
  2
MCAD_NO_VIS
 70
     0
  0
APPID
  2
ACAD_TEMP_GRAPHIC
 70
     0
  0
APPID
  2
ACATTRIBSERVICES
 70
     0
  0
APPID
  2
DESIGNERASSEMBLIES
 70
     0
  0
APPID
  2
ACAD_DSTYLE_DIMBREAK
 70
     0
  0
APPID
  2
ACAD_NAV_VCDISPLAY
 70
     0
  0
APPID
  2
GRADIENTCOLOR1ACI
 70
     0
  0
APPID
  2
GRADIENTCOLOR2ACI
 70
     0
  0
ENDTAB
  0
TABLE
  2
DIMSTYLE
 70
    13
  0
DIMSTYLE
  2
BAC
 70
     0
  3

  4

  5

  6

  7

 40
1.0
 41
0.09375
 42
0.0625
 43
0.375
 44
0.03125
 45
0.0
 46
0.0
 47
0.0
 48
0.0
140
0.09375
141
0.09375
142
0.0
143
25.399999999999999
144
1.0
145
0.0
146
1.0
147
0.0625
 71
     0
 72
     0
 73
     0
 74
     0
 75
     0
 76
     0
 77
     0
 78
     0
170
     0
171
     2
172
     0
173
     0
174
     0
175
     0
176
     0
177
     6
178
     0
  0
DIMSTYLE
  2
AM_ANSI
 70
     0
  3

  4
mm
  5

  6

  7

 40
1.0
 41
0.12
 42
0.05
 43
0.5
 44
0.1
 45
0.0
 46
0.0
 47
0.1
 48
0.1
140
0.12
141
0.0
142
0.0
143
25.399999999999999
144
1.0
145
0.0
146
0.71
147
0.06
 71
     0
 72
     0
 73
     1
 74
     1
 75
     0
 76
     0
 77
     0
 78
     7
170
     0
171
     2
172
     0
173
     0
174
     0
175
     0
176
   256
177
   256
178
     2
  0
DIMSTYLE
  2
AM_ANSI$3
 70
     0
  3

  4
mm
  5

  6

  7

 40
1.0
 41
0.12
 42
0.05
 43
0.5
 44
0.1
 45
0.0
 46
0.0
 47
0.1
 48
0.1
140
0.12
141
0.0
142
0.0
143
25.399999999999999
144
1.0
145
0.0
146
0.71
147
0.06
 71
     0
 72
     0
 73
     1
 74
     1
 75
     0
 76
     0
 77
     0
 78
     7
170
     0
171
     2
172
     0
173
     0
174
     0
175
     0
176
   256
177
   256
178
     2
  0
DIMSTYLE
  2
AM_ANSI$4
 70
     0
  3

  4
mm
  5

  6

  7

 40
1.0
 41
0.12
 42
0.05
 43
0.5
 44
0.1
 45
0.0
 46
0.0
 47
0.1
 48
0.1
140
0.12
141
0.0
142
0.0
143
25.399999999999999
144
1.0
145
0.0
146
0.71
147
0.06
 71
     0
 72
     0
 73
     1
 74
     1
 75
     0
 76
     0
 77
     0
 78
     7
170
     0
171
     2
172
     0
173
     0
174
     0
175
     0
176
   256
177
   256
178
     2
  0
DIMSTYLE
  2
AM_ANSI$7
 70
     0
  3

  4
mm
  5

  6

  7

 40
1.0
 41
0.12
 42
0.05
 43
0.5
 44
0.1
 45
0.0
 46
0.0
 47
0.1
 48
0.1
140
0.12
141
0.0
142
0.0
143
25.399999999999999
144
1.0
145
0.0
146
0.71
147
0.06
 71
     0
 72
     0
 73
     1
 74
     1
 75
     0
 76
     0
 77
     0
 78
     7
170
     0
171
     2
172
     0
173
     0
174
     0
175
     0
176
   256
177
   256
178
     2
  0
DIMSTYLE
  2
AM_ANSI$SF
 70
     0
  3

  4
mm
  5

  6

  7

 40
1.0
 41
0.12
 42
0.05
 43
0.5
 44
0.1
 45
0.0
 46
0.0
 47
0.1
 48
0.1
140
0.12
141
0.0
142
0.0
143
25.399999999999999
144
1.0
145
0.0
146
0.71
147
0.06
 71
     0
 72
     0
 73
     1
 74
     1
 75
     1
 76
     1
 77
     0
 78
     7
170
     0
171
     2
172
     0
173
     0
174
     0
175
     0
176
   256
177
   256
178
     2
  0
DIMSTYLE
  2
AM_ANSI$SH
 70
     0
  3

  4
mm
  5

  6
GENAXEH
  7

 40
1.0
 41
0.12
 42
0.05
 43
0.5
 44
0.1
 45
0.0
 46
0.0
 47
0.1
 48
0.1
140
0.12
141
0.0
142
0.0
143
25.399999999999999
144
1.0
145
0.0
146
0.71
147
0.06
 71
     0
 72
     0
 73
     1
 74
     1
 75
     1
 76
     1
 77
     0
 78
     7
170
     0
171
     2
172
     0
173
     1
174
     0
175
     0
176
   256
177
   256
178
     2
  0
DIMSTYLE
  2
STANDARD
 70
     0
  3

  4

  5

  6

  7

 40
1.0
 41
0.18
 42
0.0625
 43
0.38
 44
0.18
 45
0.0
 46
0.0
 47
0.0
 48
0.0
140
0.18
141
0.09
142
0.0
143
25.399999999999999
144
1.0
145
0.0
146
1.0
147
0.09
 71
     0
 72
     0
 73
     1
 74
     1
 75
     0
 76
     0
 77
     0
 78
     0
170
     0
171
     2
172
     0
173
     0
174
     0
175
     0
176
     0
177
     0
178
     0
  0
ENDTAB
  0
ENDSEC
  0
SECTION
  2
BLOCKS
  0
BLOCK
  8
0
  2
$MODEL_SPACE
 70
     0
 10
0.0
 20
0.0
 30
0.0
  3
$MODEL_SPACE
  1

  0
ENDBLK
  5
1A
  8
0
  0
BLOCK
 67
     1
  8
0
  2
$PAPER_SPACE
 70
     0
 10
0.0
 20
0.0
 30
0.0
  3
$PAPER_SPACE
  1

  0
ENDBLK
  5
17
 67
     1
  8
0
  0
BLOCK
  8
0
  2
*U0
 70
     1
 10
0.0
 20
0.0
 30
0.0
  3
*U0
  1

  0
ENDBLK
  5
17A
  8
0
  0
BLOCK
  8
0
  2
GENAXEH
 70
     0
 10
0.0
 20
0.0
 30
0.0
  3
GENAXEH
  1

  0
LINE
  5
1AD
  8
0
 10
-1.0
 20
0.0
 30
0.0
 11
1.0
 21
0.0
 31
0.0
  0
ENDBLK
  5
1AF
  8
0
  0
BLOCK
  8
0
  2
*X3
 70
     1
 10
0.0
 20
0.0
 30
0.0
  3
*X3
  1

  0
LINE
  5
81A
  8
0
 62
     0
 10
70.5
 20
14.9999984681917
 30
0.0
 11
70.5
 21
78.249998468189247
 31
0.0
  0
LINE
  5
81B
  8
0
 62
     0
 10
69.0
 20
14.999998468191681
 30
0.0
 11
69.0
 21
78.249998468189247
 31
0.0
  0
LINE
  5
81C
  8
0
 62
     0
 10
67.5
 20
14.999998468191659
 30
0.0
 11
67.5
 21
78.249998468189247
 31
0.0
  0
LINE
  5
81D
  8
0
 62
     0
 10
66.0
 20
14.99999846819164
 30
0.0
 11
66.0
 21
78.249998468189247
 31
0.0
  0
LINE
  5
81E
  8
0
 62
     0
 10
64.5
 20
14.99999846819162
 30
0.0
 11
64.5
 21
78.249998468189247
 31
0.0
  0
LINE
  5
81F
  8
0
 62
     0
 10
63.0
 20
14.999998468191601
 30
0.0
 11
63.0
 21
78.249998468189247
 31
0.0
  0
LINE
  5
820
  8
0
 62
     0
 10
61.5
 20
14.999998468191579
 30
0.0
 11
61.500000000000007
 21
78.249998468189247
 31
0.0
  0
LINE
  5
821
  8
0
 62
     0
 10
60.0
 20
14.99999846819156
 30
0.0
 11
60.0
 21
78.249998468189247
 31
0.0
  0
LINE
  5
822
  8
0
 62
     0
 10
58.5
 20
14.99999846819154
 30
0.0
 11
58.500000000000007
 21
78.249998468189247
 31
0.0
  0
LINE
  5
823
  8
0
 62
     0
 10
57.0
 20
14.999998468191521
 30
0.0
 11
57.000000000000007
 21
78.249998468189247
 31
0.0
  0
LINE
  5
824
  8
0
 62
     0
 10
55.5
 20
14.999998468191491
 30
0.0
 11
55.5
 21
78.249998468189247
 31
0.0
  0
LINE
  5
825
  8
0
 62
     0
 10
54.0
 20
14.99999846819148
 30
0.0
 11
54.000000000000007
 21
78.249998468189247
 31
0.0
  0
LINE
  5
826
  8
0
 62
     0
 10
52.5
 20
14.99999846819146
 30
0.0
 11
52.5
 21
78.249998468189247
 31
0.0
  0
LINE
  5
827
  8
0
 62
     0
 10
51.0
 20
14.999998468191439
 30
0.0
 11
51.000000000000007
 21
78.249998468189247
 31
0.0
  0
LINE
  5
828
  8
0
 62
     0
 10
49.5
 20
14.999998468191411
 30
0.0
 11
49.500000000000007
 21
78.249998468189247
 31
0.0
  0
LINE
  5
829
  8
0
 62
     0
 10
48.0
 20
14.9999984681914
 30
0.0
 11
48.0
 21
78.249998468189247
 31
0.0
  0
LINE
  5
82A
  8
0
 62
     0
 10
46.5
 20
14.99999846819137
 30
0.0
 11
46.500000000000007
 21
78.249998468189247
 31
0.0
  0
LINE
  5
82B
  8
0
 62
     0
 10
45.0
 20
14.99999846819135
 30
0.0
 11
45.0
 21
78.249998468189247
 31
0.0
  0
LINE
  5
82C
  8
0
 62
     0
 10
43.5
 20
14.999998468191331
 30
0.0
 11
43.5
 21
78.249998468189247
 31
0.0
  0
LINE
  5
82D
  8
0
 62
     0
 10
42.0
 20
14.999998468191309
 30
0.0
 11
42.000000000000007
 21
78.249998468189247
 31
0.0
  0
LINE
  5
82E
  8
0
 62
     0
 10
40.499999999999993
 20
14.99999846819129
 30
0.0
 11
40.5
 21
78.249998468189247
 31
0.0
  0
LINE
  5
82F
  8
0
 62
     0
 10
39.0
 20
14.99999846819127
 30
0.0
 11
39.000000000000007
 21
78.249998468189247
 31
0.0
  0
LINE
  5
830
  8
0
 62
     0
 10
37.5
 20
14.999998468191251
 30
0.0
 11
37.500000000000007
 21
78.249998468189247
 31
0.0
  0
LINE
  5
831
  8
0
 62
     0
 10
36.0
 20
14.99999846819123
 30
0.0
 11
36.000000000000007
 21
78.249998468189247
 31
0.0
  0
LINE
  5
832
  8
0
 62
     0
 10
34.5
 20
14.99999846819121
 30
0.0
 11
34.500000000000007
 21
78.249998468189247
 31
0.0
  0
LINE
  5
833
  8
0
 62
     0
 10
33.0
 20
14.99999846819119
 30
0.0
 11
33.000000000000007
 21
78.249998468189247
 31
0.0
  0
LINE
  5
834
  8
0
 62
     0
 10
31.5
 20
14.999998468191171
 30
0.0
 11
31.5
 21
78.249998468189247
 31
0.0
  0
LINE
  5
835
  8
0
 62
     0
 10
30.0
 20
14.99999846819115
 30
0.0
 11
30.0
 21
78.249998468189247
 31
0.0
  0
LINE
  5
836
  8
0
 62
     0
 10
28.5
 20
14.99999846819113
 30
0.0
 11
28.500000000000011
 21
78.249998468189247
 31
0.0
  0
LINE
  5
837
  8
0
 62
     0
 10
27.0
 20
14.99999846819111
 30
0.0
 11
27.000000000000011
 21
78.249998468189247
 31
0.0
  0
LINE
  5
838
  8
0
 62
     0
 10
25.5
 20
14.999998468191089
 30
0.0
 11
25.500000000000011
 21
78.249998468189247
 31
0.0
  0
LINE
  5
839
  8
0
 62
     0
 10
24.0
 20
14.99999846819107
 30
0.0
 11
24.0
 21
78.249998468189247
 31
0.0
  0
LINE
  5
83A
  8
0
 62
     0
 10
22.5
 20
14.99999846819105
 30
0.0
 11
22.5
 21
78.249998468189247
 31
0.0
  0
LINE
  5
83B
  8
0
 62
     0
 10
21.0
 20
14.999998468191031
 30
0.0
 11
21.0
 21
78.249998468189247
 31
0.0
  0
LINE
  5
83C
  8
0
 62
     0
 10
19.5
 20
14.999998468191009
 30
0.0
 11
19.5
 21
78.249998468189247
 31
0.0
  0
LINE
  5
83D
  8
0
 62
     0
 10
18.0
 20
14.99999846819099
 30
0.0
 11
18.0
 21
78.249998468189247
 31
0.0
  0
LINE
  5
83E
  8
0
 62
     0
 10
16.5
 20
14.999998468190959
 30
0.0
 11
16.5
 21
78.249998468189247
 31
0.0
  0
LINE
  5
83F
  8
0
 62
     0
 10
15.0
 20
14.99999846819094
 30
0.0
 11
15.0
 21
78.249998468189247
 31
0.0
  0
LINE
  5
840
  8
0
 62
     0
 10
13.5
 20
14.99999846819092
 30
0.0
 11
13.5
 21
78.249998468189247
 31
0.0
  0
LINE
  5
841
  8
0
 62
     0
 10
12.0
 20
14.999998468190901
 30
0.0
 11
12.0
 21
78.249998468189247
 31
0.0
  0
LINE
  5
842
  8
0
 62
     0
 10
10.5
 20
14.99999846819088
 30
0.0
 11
10.5
 21
78.249998468189247
 31
0.0
  0
LINE
  5
843
  8
0
 62
     0
 10
9.0000000000000018
 20
14.99999846819086
 30
0.0
 11
9.0000000000000053
 21
78.249998468189247
 31
0.0
  0
LINE
  5
844
  8
0
 62
     0
 10
7.5
 20
14.99999846819084
 30
0.0
 11
7.5000000000000044
 21
78.249998468189247
 31
0.0
  0
LINE
  5
845
  8
0
 62
     0
 10
6.0
 20
14.999998468190819
 30
0.0
 11
6.0000000000000044
 21
78.249998468189247
 31
0.0
  0
LINE
  5
846
  8
0
 62
     0
 10
4.5
 20
14.9999984681908
 30
0.0
 11
4.5000000000000044
 21
78.249998468189247
 31
0.0
  0
LINE
  5
847
  8
0
 62
     0
 10
3.0
 20
14.99999846819078
 30
0.0
 11
3.000000000000004
 21
78.249998468189247
 31
0.0
  0
ENDBLK
  5
849
  8
0
  0
BLOCK
  8
0
  2
*X4
 70
     1
 10
0.0
 20
0.0
 30
0.0
  3
*X4
  1

  0
LINE
  5
84B
  8
0
 62
     0
 10
130.46904490325269
 20
180.0
 30
0.0
 11
119.3163633734423
 21
180.0
 31
0.0
  0
LINE
  5
84C
  8
0
 62
     0
 10
130.46904490325269
 20
178.49999999999989
 30
0.0
 11
119.3163633734423
 21
178.49999999999989
 31
0.0
  0
LINE
  5
84D
  8
0
 62
     0
 10
130.46904490325269
 20
177.0
 30
0.0
 11
119.3163633734423
 21
177.0
 31
0.0
  0
LINE
  5
84E
  8
0
 62
     0
 10
130.46904490325269
 20
175.49999999999989
 30
0.0
 11
119.3163633734423
 21
175.49999999999989
 31
0.0
  0
LINE
  5
84F
  8
0
 62
     0
 10
130.46904490325269
 20
174.0
 30
0.0
 11
119.3163633734422
 21
174.0
 31
0.0
  0
LINE
  5
850
  8
0
 62
     0
 10
130.46904490325269
 20
172.49999999999989
 30
0.0
 11
119.3163633734422
 21
172.49999999999989
 31
0.0
  0
LINE
  5
851
  8
0
 62
     0
 10
130.46904490325269
 20
170.99999999999989
 30
0.0
 11
119.3163633734422
 21
170.99999999999989
 31
0.0
  0
LINE
  5
852
  8
0
 62
     0
 10
130.46904490325269
 20
169.5
 30
0.0
 11
119.3163633734422
 21
169.5
 31
0.0
  0
LINE
  5
853
  8
0
 62
     0
 10
130.46904490325269
 20
167.99999999999989
 30
0.0
 11
119.3163633734422
 21
167.99999999999989
 31
0.0
  0
LINE
  5
854
  8
0
 62
     0
 10
130.46904490325269
 20
166.5
 30
0.0
 11
119.3163633734422
 21
166.5
 31
0.0
  0
LINE
  5
855
  8
0
 62
     0
 10
130.46904490325261
 20
164.99999999999989
 30
0.0
 11
119.3163633734422
 21
164.99999999999989
 31
0.0
  0
LINE
  5
856
  8
0
 62
     0
 10
130.46904490325261
 20
163.49999999999989
 30
0.0
 11
119.3163633734422
 21
163.49999999999989
 31
0.0
  0
LINE
  5
857
  8
0
 62
     0
 10
130.46904490325261
 20
161.99999999999989
 30
0.0
 11
119.3163633734422
 21
161.99999999999989
 31
0.0
  0
LINE
  5
858
  8
0
 62
     0
 10
130.46904490325261
 20
160.49999999999989
 30
0.0
 11
119.3163633734422
 21
160.49999999999989
 31
0.0
  0
LINE
  5
859
  8
0
 62
     0
 10
130.46904490325261
 20
159.0
 30
0.0
 11
119.3163633734422
 21
159.0
 31
0.0
  0
LINE
  5
85A
  8
0
 62
     0
 10
130.46904490325261
 20
157.5
 30
0.0
 11
119.3163633734422
 21
157.5
 31
0.0
  0
LINE
  5
85B
  8
0
 62
     0
 10
130.46904490325261
 20
156.0
 30
0.0
 11
119.3163633734422
 21
156.0
 31
0.0
  0
LINE
  5
85C
  8
0
 62
     0
 10
130.46904490325261
 20
154.49999999999989
 30
0.0
 11
119.3163633734422
 21
154.49999999999989
 31
0.0
  0
LINE
  5
85D
  8
0
 62
     0
 10
130.4690449032525
 20
153.0
 30
0.0
 11
119.3163633734422
 21
153.0
 31
0.0
  0
LINE
  5
85E
  8
0
 62
     0
 10
130.4690449032525
 20
151.49999999999989
 30
0.0
 11
119.3163633734422
 21
151.49999999999989
 31
0.0
  0
LINE
  5
85F
  8
0
 62
     0
 10
130.4690449032525
 20
150.0
 30
0.0
 11
119.3163633734422
 21
150.0
 31
0.0
  0
LINE
  5
860
  8
0
 62
     0
 10
130.4690449032525
 20
148.49999999999989
 30
0.0
 11
119.3163633734422
 21
148.49999999999989
 31
0.0
  0
LINE
  5
861
  8
0
 62
     0
 10
130.4690449032525
 20
146.99999999999989
 30
0.0
 11
119.3163633734422
 21
146.99999999999989
 31
0.0
  0
LINE
  5
862
  8
0
 62
     0
 10
130.4690449032525
 20
145.5
 30
0.0
 11
119.3163633734422
 21
145.5
 31
0.0
  0
LINE
  5
863
  8
0
 62
     0
 10
130.4690449032525
 20
143.99999999999989
 30
0.0
 11
119.3163633734422
 21
143.99999999999989
 31
0.0
  0
LINE
  5
864
  8
0
 62
     0
 10
130.4690449032525
 20
142.5
 30
0.0
 11
119.3163633734422
 21
142.5
 31
0.0
  0
LINE
  5
865
  8
0
 62
     0
 10
130.4690449032525
 20
140.99999999999989
 30
0.0
 11
119.3163633734422
 21
140.99999999999989
 31
0.0
  0
LINE
  5
866
  8
0
 62
     0
 10
130.4690449032525
 20
139.5
 30
0.0
 11
119.3163633734421
 21
139.5
 31
0.0
  0
LINE
  5
867
  8
0
 62
     0
 10
130.4690449032525
 20
137.99999999999989
 30
0.0
 11
119.3163633734421
 21
137.99999999999989
 31
0.0
  0
LINE
  5
868
  8
0
 62
     0
 10
130.4690449032525
 20
136.49999999999989
 30
0.0
 11
119.3163633734421
 21
136.49999999999989
 31
0.0
  0
LINE
  5
869
  8
0
 62
     0
 10
130.46904490325241
 20
134.99999999999989
 30
0.0
 11
119.3163633734421
 21
134.99999999999989
 31
0.0
  0
LINE
  5
86A
  8
0
 62
     0
 10
130.46904490325241
 20
133.49999999999989
 30
0.0
 11
119.3163633734421
 21
133.49999999999989
 31
0.0
  0
LINE
  5
86B
  8
0
 62
     0
 10
130.46904490325241
 20
132.0
 30
0.0
 11
119.3163633734421
 21
132.0
 31
0.0
  0
LINE
  5
86C
  8
0
 62
     0
 10
130.46904490325241
 20
130.49999999999989
 30
0.0
 11
119.3163633734421
 21
130.49999999999989
 31
0.0
  0
LINE
  5
86D
  8
0
 62
     0
 10
130.46904490325241
 20
129.0
 30
0.0
 11
119.3163633734421
 21
129.0
 31
0.0
  0
LINE
  5
86E
  8
0
 62
     0
 10
130.46904490325241
 20
127.5
 30
0.0
 11
119.3163633734421
 21
127.5
 31
0.0
  0
LINE
  5
86F
  8
0
 62
     0
 10
130.46904490325241
 20
126.0
 30
0.0
 11
119.3163633734421
 21
126.0
 31
0.0
  0
LINE
  5
870
  8
0
 62
     0
 10
130.46904490325241
 20
124.5
 30
0.0
 11
119.3163633734421
 21
124.5
 31
0.0
  0
LINE
  5
871
  8
0
 62
     0
 10
130.4690449032523
 20
123.0
 30
0.0
 11
119.3163633734421
 21
123.0
 31
0.0
  0
LINE
  5
872
  8
0
 62
     0
 10
130.4690449032523
 20
121.5
 30
0.0
 11
119.3163633734421
 21
121.5
 31
0.0
  0
LINE
  5
873
  8
0
 62
     0
 10
130.4690449032523
 20
120.0
 30
0.0
 11
119.3163633734421
 21
120.0
 31
0.0
  0
LINE
  5
874
  8
0
 62
     0
 10
130.4690449032523
 20
118.5
 30
0.0
 11
119.3163633734421
 21
118.5
 31
0.0
  0
LINE
  5
875
  8
0
 62
     0
 10
130.4690449032523
 20
117.0
 30
0.0
 11
119.3163633734421
 21
117.0
 31
0.0
  0
LINE
  5
876
  8
0
 62
     0
 10
130.4690449032523
 20
115.5
 30
0.0
 11
119.3163633734421
 21
115.5
 31
0.0
  0
LINE
  5
877
  8
0
 62
     0
 10
130.4690449032523
 20
114.0
 30
0.0
 11
119.316363373442
 21
114.0
 31
0.0
  0
LINE
  5
878
  8
0
 62
     0
 10
130.4690449032523
 20
112.5
 30
0.0
 11
119.316363373442
 21
112.5
 31
0.0
  0
ENDBLK
  5
87A
  8
0
  0
ENDSEC
  0
SECTION
  2
ENTITIES
  0
LINE
  5
37B
  8
0
 10
207.5663633734425
 20
21.124998468189229
 30
0.0
 11
210.1913633734425
 21
45.624998468189112
 31
0.0
  0
LINE
  5
37C
  8
0
 10
210.1913633734425
 20
49.624998468189389
 30
0.0
 11
207.5663633734425
 21
74.124998468189276
 31
0.0
  0
LINE
  5
37D
  8
0
 10
207.3163633734425
 20
21.124998468189229
 30
0.0
 11
207.5663633734425
 21
21.124998468189229
 31
0.0
  0
LINE
  5
37E
  8
0
 10
207.5663633734425
 20
74.124998468189276
 30
0.0
 11
207.3163633734425
 21
74.124998468189276
 31
0.0
  0
POLYLINE
  5
37F
  8
0
 66
     1
 10
0.0
 20
0.0
 30
0.0
  0
VERTEX
  5
6CB
  8
0
 10
207.31622782787369
 20
21.256774842954538
 30
0.0
  0
VERTEX
  5
6CC
  8
0
 10
207.31486357343189
 20
21.32497846978902
 30
0.0
  0
VERTEX
  5
6CD
  8
0
 10
207.3103665727599
 20
21.39983851938138
 30
0.0
  0
VERTEX
  5
6CE
  8
0
 10
207.30287956566869
 20
21.474458856856021
 30
0.0
  0
VERTEX
  5
6CF
  8
0
 10
207.292414529772
 20
21.54872010559086
 30
0.0
  0
VERTEX
  5
6D0
  8
0
 10
207.27898820689461
 20
21.62250346342995
 30
0.0
  0
VERTEX
  5
6D1
  8
0
 10
207.26262207629
 20
21.69569089273995
 30
0.0
  0
VERTEX
  5
6D2
  8
0
 10
207.2433423202751
 20
21.76816530924679
 30
0.0
  0
VERTEX
  5
6D3
  8
0
 10
207.22117978234701
 20
21.839810769344471
 30
0.0
  0
VERTEX
  5
6D4
  8
0
 10
207.19616991783869
 20
21.910512655580021
 30
0.0
  0
VERTEX
  5
6D5
  8
0
 10
207.16835273719789
 20
21.980157860017979
 30
0.0
  0
VERTEX
  5
6D6
  8
0
 10
207.13777274197989
 20
22.04863496518777
 30
0.0
  0
VERTEX
  5
6D7
  8
0
 10
207.10447885365369
 20
22.115834422329439
 30
0.0
  0
VERTEX
  5
6D8
  8
0
 10
207.0685243353382
 20
22.181648726646241
 30
0.0
  0
VERTEX
  5
6D9
  8
0
 10
207.0299667065924
 20
22.245972589290719
 30
0.0
  0
VERTEX
  5
6DA
  8
0
 10
206.98886765139829
 20
22.308703105804909
 30
0.0
  0
VERTEX
  5
6DB
  8
0
 10
206.94529291947541
 20
22.369739920743481
 30
0.0
  0
VERTEX
  5
6DC
  8
0
 10
206.89931222110039
 20
22.42898538822384
 30
0.0
  0
VERTEX
  5
6DD
  8
0
 10
206.85099911558149
 20
22.486344728135631
 30
0.0
  0
VERTEX
  5
6DE
  8
0
 10
206.80043089358151
 20
22.541726177771569
 30
0.0
  0
VERTEX
  5
6DF
  8
0
 10
206.7476884534685
 20
22.595041138625788
 30
0.0
  0
VERTEX
  5
6E0
  8
0
 10
206.6928561718951
 20
22.64620431813437
 30
0.0
  0
VERTEX
  5
6E1
  8
0
 10
206.6360217688148
 20
22.695133866124749
 30
0.0
  0
VERTEX
  5
6E2
  8
0
 10
206.5772761671488
 20
22.741751505757289
 30
0.0
  0
VERTEX
  5
6E3
  8
0
 10
206.51671334732831
 20
22.785982658753639
 30
0.0
  0
VERTEX
  5
6E4
  8
0
 10
206.4544301969454
 20
22.827756564703918
 30
0.0
  0
VERTEX
  5
6E5
  8
0
 10
206.39052635575399
 20
22.867006394270501
 30
0.0
  0
VERTEX
  5
6E6
  8
0
 10
206.3251040562682
 20
22.90366935609854
 30
0.0
  0
VERTEX
  5
6E7
  8
0
 10
206.2582679602115
 20
22.93768679727026
 30
0.0
  0
VERTEX
  5
6E8
  8
0
 10
206.1901249910793
 20
22.969004297136109
 30
0.0
  0
VERTEX
  5
6E9
  8
0
 10
206.1207841630862
 20
22.997571754377869
 30
0.0
  0
VERTEX
  5
6EA
  8
0
 10
206.0503564067653
 20
23.023343467156899
 30
0.0
  0
VERTEX
  5
6EB
  8
0
 10
205.97895439150261
 20
23.04627820623136
 30
0.0
  0
VERTEX
  5
6EC
  8
0
 10
205.90669234529059
 20
23.066339280910821
 30
0.0
  0
VERTEX
  5
6ED
  8
0
 10
205.83368587198879
 20
23.083494597755362
 30
0.0
  0
VERTEX
  5
6EE
  8
0
 10
205.76005176638051
 20
23.097716711917592
 30
0.0
  0
VERTEX
  5
6EF
  8
0
 10
205.68590782732639
 20
23.108982871048632
 30
0.0
  0
VERTEX
  5
6F0
  8
0
 10
205.61137266931311
 20
23.11727505169733
 30
0.0
  0
VERTEX
  5
6F1
  8
0
 10
205.536565532693
 20
23.122579988143329
 30
0.0
  0
VERTEX
  5
6F2
  8
0
 10
205.46160609292701
 20
23.12488919362033
 30
0.0
  0
VERTEX
  5
6F3
  8
0
 10
205.4413633734425
 20
23.124998468189119
 30
0.0
  0
SEQEND
  5
6F4
  8
0
  0
POLYLINE
  5
380
  8
0
 66
     1
 10
0.0
 20
0.0
 30
0.0
  0
VERTEX
  5
6F5
  8
0
 10
205.4413633734425
 20
72.124998468189204
 30
0.0
  0
VERTEX
  5
6F6
  8
0
 10
205.5163433750422
 20
72.126498268199995
 30
0.0
  0
VERTEX
  5
6F7
  8
0
 10
205.5912034246349
 20
72.130995268871786
 30
0.0
  0
VERTEX
  5
6F8
  8
0
 10
205.66582376210911
 20
72.138482275963327
 30
0.0
  0
VERTEX
  5
6F9
  8
0
 10
205.74008501084401
 20
72.148947311859942
 30
0.0
  0
VERTEX
  5
6FA
  8
0
 10
205.81386836868339
 20
72.162373634736852
 30
0.0
  0
VERTEX
  5
6FB
  8
0
 10
205.8870557979933
 20
72.178739765341831
 30
0.0
  0
VERTEX
  5
6FC
  8
0
 10
205.95953021450009
 20
72.198019521356613
 30
0.0
  0
VERTEX
  5
6FD
  8
0
 10
206.0311756745977
 20
72.220182059284738
 30
0.0
  0
VERTEX
  5
6FE
  8
0
 10
206.1018775608332
 20
72.245191923793286
 30
0.0
  0
VERTEX
  5
6FF
  8
0
 10
206.17152276527119
 20
72.273009104433797
 30
0.0
  0
VERTEX
  5
700
  8
0
 10
206.2399998704413
 20
72.303589099651816
 30
0.0
  0
VERTEX
  5
701
  8
0
 10
206.30719932758259
 20
72.336882987978044
 30
0.0
  0
VERTEX
  5
702
  8
0
 10
206.37301363189951
 20
72.372837506293635
 30
0.0
  0
VERTEX
  5
703
  8
0
 10
206.4373374945439
 20
72.411395135039214
 30
0.0
  0
VERTEX
  5
704
  8
0
 10
206.50006801105789
 20
72.452494190233651
 30
0.0
  0
VERTEX
  5
705
  8
0
 10
206.56110482599709
 20
72.496068922156141
 30
0.0
  0
VERTEX
  5
706
  8
0
 10
206.6203502934768
 20
72.542049620531131
 30
0.0
  0
VERTEX
  5
707
  8
0
 10
206.67770963338899
 20
72.590362726050259
 30
0.0
  0
VERTEX
  5
708
  8
0
 10
206.73309108302459
 20
72.640930948050183
 30
0.0
  0
VERTEX
  5
709
  8
0
 10
206.7864060438792
 20
72.693673388163404
 30
0.0
  0
VERTEX
  5
70A
  8
0
 10
206.83756922338759
 20
72.748505669736844
 30
0.0
  0
VERTEX
  5
70B
  8
0
 10
206.8864987713782
 20
72.805340072816904
 30
0.0
  0
VERTEX
  5
70C
  8
0
 10
206.93311641101079
 20
72.864085674482666
 30
0.0
  0
VERTEX
  5
70D
  8
0
 10
206.97734756400681
 20
72.924648494303511
 30
0.0
  0
VERTEX
  5
70E
  8
0
 10
207.01912146995761
 20
72.986931644686621
 30
0.0
  0
VERTEX
  5
70F
  8
0
 10
207.05837129952349
 20
73.050835485877926
 30
0.0
  0
VERTEX
  5
710
  8
0
 10
207.09503426135191
 20
73.116257785363416
 30
0.0
  0
VERTEX
  5
711
  8
0
 10
207.12905170252361
 20
73.183093881420433
 30
0.0
  0
VERTEX
  5
712
  8
0
 10
207.1603692023896
 20
73.251236850552615
 30
0.0
  0
VERTEX
  5
713
  8
0
 10
207.18893665963111
 20
73.320577678545462
 30
0.0
  0
VERTEX
  5
714
  8
0
 10
207.21470837241031
 20
73.391005434866457
 30
0.0
  0
VERTEX
  5
715
  8
0
 10
207.23764311148491
 20
73.462407450129405
 30
0.0
  0
VERTEX
  5
716
  8
0
 10
207.25770418616409
 20
73.534669496341081
 30
0.0
  0
VERTEX
  5
717
  8
0
 10
207.27485950300891
 20
73.607675969642898
 30
0.0
  0
VERTEX
  5
718
  8
0
 10
207.28908161717069
 20
73.681310075251417
 30
0.0
  0
VERTEX
  5
719
  8
0
 10
207.30034777630181
 20
73.75545401430513
 30
0.0
  0
VERTEX
  5
71A
  8
0
 10
207.3086399569506
 20
73.829989172318705
 30
0.0
  0
VERTEX
  5
71B
  8
0
 10
207.31394489339661
 20
73.904796308938941
 30
0.0
  0
VERTEX
  5
71C
  8
0
 10
207.31625409887371
 20
73.97975574870496
 30
0.0
  0
VERTEX
  5
71D
  8
0
 10
207.3163633734421
 20
73.999998468189204
 30
0.0
  0
SEQEND
  5
71E
  8
0
  0
LINE
  5
381
  8
0
 10
179.3163633734425
 20
23.124998468189119
 30
0.0
 11
181.20289538524389
 21
23.124998468189119
 31
0.0
  0
LINE
  5
382
  8
0
 10
195.196147185781
 20
23.124998468189119
 30
0.0
 11
195.96048663280251
 21
23.124998468189119
 31
0.0
  0
LINE
  5
383
  8
0
 10
198.96994517467229
 20
23.124998468189119
 30
0.0
 11
205.4413633734425
 21
23.124998468189119
 31
0.0
  0
LINE
  5
384
  8
0
 10
205.4413633734425
 20
72.124998468189204
 30
0.0
 11
179.3163633734425
 21
72.124998468189204
 31
0.0
  0
LINE
  5
385
  8
0
 10
210.1913633734421
 20
47.624998468189247
 30
0.0
 11
210.1913633734421
 21
46.757230989954152
 31
0.0
  0
LINE
  5
386
  8
0
 10
210.1913633734421
 20
46.757230049313932
 30
0.0
 11
210.1913633734421
 21
46.061335503253197
 31
0.0
  0
LINE
  5
387
  8
0
 10
210.1913633734421
 20
46.061334752995791
 30
0.0
 11
210.1913633734421
 21
45.675142643825602
 31
0.0
  0
LINE
  5
388
  8
0
 10
210.1913633734421
 20
49.574854292552892
 30
0.0
 11
210.1913633734421
 21
49.188662183382007
 31
0.0
  0
LINE
  5
389
  8
0
 10
210.1913633734421
 20
49.188661433125297
 30
0.0
 11
210.1913633734421
 21
48.492765946424377
 31
0.0
  0
LINE
  5
38A
  8
0
 10
210.1913633734421
 20
48.492764034454979
 30
0.0
 11
210.1913633734421
 21
47.624998468189247
 31
0.0
  0
LINE
  5
38B
  8
0
 10
207.56636337344159
 20
47.624998468189439
 30
0.0
 11
207.56636337344159
 21
44.016582267138887
 31
0.0
  0
LINE
  5
38C
  8
0
 10
207.56636337344159
 20
44.016581906375158
 30
0.0
 11
207.5663633734421
 21
40.475385071140067
 31
0.0
  0
LINE
  5
38D
  8
0
 10
207.5663633734421
 20
40.475384032528282
 30
0.0
 11
207.5663633734421
 21
37.067369587264018
 31
0.0
  0
LINE
  5
38E
  8
0
 10
207.5663633734421
 20
37.067368859093307
 30
0.0
 11
207.5663633734421
 21
33.856025068699282
 31
0.0
  0
LINE
  5
38F
  8
0
 10
207.5663633734421
 20
33.85602379225044
 30
0.0
 11
207.5663633734421
 21
28.257845414819091
 31
0.0
  0
LINE
  5
390
  8
0
 10
207.5663633734421
 20
28.257844258794201
 30
0.0
 11
207.5663633734421
 21
21.67927014460772
 31
0.0
  0
LINE
  5
391
  8
0
 10
207.5663633734421
 20
21.679269463846641
 30
0.0
 11
207.5663633734421
 21
21.186776084639948
 31
0.0
  0
LINE
  5
393
  8
0
 10
207.5663633734421
 20
74.063220851738578
 30
0.0
 11
207.5663633734421
 21
73.570729611616457
 31
0.0
  0
LINE
  5
394
  8
0
 10
207.5663633734421
 20
73.570726791770824
 30
0.0
 11
207.5663633734421
 21
72.594914089224702
 31
0.0
  0
LINE
  5
395
  8
0
 10
207.5663633734421
 20
72.594912904338045
 30
0.0
 11
207.5663633734421
 21
71.153956755852278
 31
0.0
  0
LINE
  5
396
  8
0
 10
207.5663633734421
 20
71.153954249793941
 30
0.0
 11
207.5663633734421
 21
69.274702648664473
 31
0.0
  0
LINE
  5
397
  8
0
 10
207.5663633734421
 20
69.274700632966059
 30
0.0
 11
207.5663633734421
 21
61.393974751377691
 31
0.0
  0
LINE
  5
398
  8
0
 10
207.5663633734421
 20
61.393973144128381
 30
0.0
 11
207.5663633734421
 21
58.182627349114803
 31
0.0
  0
LINE
  5
399
  8
0
 10
207.5663633734421
 20
58.182625248134073
 30
0.0
 11
207.5663633734421
 21
54.77461475066643
 31
0.0
  0
LINE
  5
39A
  8
0
 10
207.5663633734421
 20
54.774612903850581
 30
0.0
 11
207.56636337344159
 21
51.233414669239963
 31
0.0
  0
LINE
  5
39B
  8
0
 10
207.56636337344159
 20
51.233412180074971
 30
0.0
 11
207.56636337344159
 21
47.624998468189418
 31
0.0
  0
LINE
  5
39C
  8
0
 10
207.3163633734421
 20
47.624998468189439
 30
0.0
 11
207.3163633734421
 21
44.016582267138887
 31
0.0
  0
LINE
  5
39D
  8
0
 10
207.3163633734421
 20
44.016581906375158
 30
0.0
 11
207.3163633734421
 21
40.475385071140067
 31
0.0
  0
LINE
  5
39E
  8
0
 10
207.3163633734421
 20
40.475384032528282
 30
0.0
 11
207.3163633734421
 21
37.067369587264018
 31
0.0
  0
LINE
  5
39F
  8
0
 10
207.3163633734421
 20
37.067368859093307
 30
0.0
 11
207.3163633734421
 21
33.856025068699282
 31
0.0
  0
LINE
  5
3A0
  8
0
 10
207.3163633734421
 20
33.85602379225044
 30
0.0
 11
207.3163633734421
 21
28.257845414819091
 31
0.0
  0
LINE
  5
3A1
  8
0
 10
207.3163633734421
 20
28.257844258794201
 30
0.0
 11
207.3163633734421
 21
21.67927014460772
 31
0.0
  0
LINE
  5
3A2
  8
0
 10
207.3163633734421
 20
21.679269463846641
 30
0.0
 11
207.3163633734421
 21
21.186776084639948
 31
0.0
  0
LINE
  5
3A4
  8
0
 10
207.3163633734421
 20
74.063220851738578
 30
0.0
 11
207.3163633734421
 21
73.570729611616457
 31
0.0
  0
LINE
  5
3A5
  8
0
 10
207.3163633734421
 20
73.570726791770824
 30
0.0
 11
207.3163633734421
 21
72.594914089224702
 31
0.0
  0
LINE
  5
3A6
  8
0
 10
207.3163633734421
 20
72.594912904338045
 30
0.0
 11
207.3163633734421
 21
71.153956755852278
 31
0.0
  0
LINE
  5
3A7
  8
0
 10
207.3163633734421
 20
71.153954249793941
 30
0.0
 11
207.3163633734421
 21
69.274702648664473
 31
0.0
  0
LINE
  5
3A8
  8
0
 10
207.3163633734421
 20
69.274700632966059
 30
0.0
 11
207.3163633734421
 21
61.393974751377691
 31
0.0
  0
LINE
  5
3A9
  8
0
 10
207.3163633734421
 20
61.393973144128381
 30
0.0
 11
207.3163633734421
 21
58.182627349114803
 31
0.0
  0
LINE
  5
3AA
  8
0
 10
207.3163633734421
 20
58.182625248134073
 30
0.0
 11
207.3163633734421
 21
54.77461475066643
 31
0.0
  0
LINE
  5
3AB
  8
0
 10
207.3163633734421
 20
54.774612903850581
 30
0.0
 11
207.3163633734421
 21
51.233414669239963
 31
0.0
  0
LINE
  5
3AC
  8
0
 10
207.3163633734421
 20
51.233412180074971
 30
0.0
 11
207.3163633734421
 21
47.624998468189418
 31
0.0
  0
LINE
  5
3AD
  8
0
 10
195.9604891108861
 20
20.624998468385279
 30
0.0
 11
198.9699434608815
 21
20.624998468385279
 31
0.0
  0
LINE
  5
3AE
  8
0
 10
198.96994346088081
 20
34.15127221043835
 30
0.0
 11
198.96994346088081
 21
24.468202012805751
 31
0.0
  0
LINE
  5
3AF
  8
0
 10
198.96994346088081
 20
24.468200741091049
 30
0.0
 11
198.96994346088081
 21
23.91779704090516
 31
0.0
  0
LINE
  5
3B0
  8
0
 10
198.96994346088081
 20
23.91779698892142
 30
0.0
 11
198.96994346088081
 21
23.320228000679052
 31
0.0
  0
LINE
  5
3B1
  8
0
 10
198.96994346088081
 20
23.320227889933658
 30
0.0
 11
198.96994346088081
 21
21.601334475567679
 31
0.0
  0
LINE
  5
3B2
  8
0
 10
198.96994346088081
 20
21.601333938098449
 30
0.0
 11
198.96994346088081
 21
21.16682791077929
 31
0.0
  0
LINE
  5
3B3
  8
0
 10
198.96994346088081
 20
21.16682751235594
 30
0.0
 11
198.96994346088081
 21
20.848817681305949
 31
0.0
  0
LINE
  5
3B4
  8
0
 10
198.96994346088081
 20
20.848817515678761
 30
0.0
 11
198.96994346088081
 21
20.666222761791921
 31
0.0
  0
LINE
  5
3B5
  8
0
 10
198.96994346088081
 20
20.66622247624295
 30
0.0
 11
198.96994346088081
 21
20.629905800608629
 31
0.0
  0
LINE
  5
3B6
  8
0
 10
195.9604891108861
 20
20.629905800608629
 30
0.0
 11
195.9604891108861
 21
20.66622247624295
 31
0.0
  0
LINE
  5
3B7
  8
0
 10
195.9604891108861
 20
20.666222761791921
 30
0.0
 11
195.9604891108861
 21
20.848817515678739
 31
0.0
  0
LINE
  5
3B8
  8
0
 10
195.9604891108861
 20
20.848817681305938
 30
0.0
 11
195.9604891108859
 21
21.16682751235594
 31
0.0
  0
LINE
  5
3B9
  8
0
 10
195.9604891108859
 20
21.16682791077929
 30
0.0
 11
195.9604891108859
 21
21.601333938098431
 31
0.0
  0
LINE
  5
3BA
  8
0
 10
195.9604891108859
 20
21.601334475567661
 30
0.0
 11
195.9604891108859
 21
23.320227889933651
 31
0.0
  0
LINE
  5
3BB
  8
0
 10
195.9604891108859
 20
23.32022800067903
 30
0.0
 11
195.9604891108859
 21
23.917796988921399
 31
0.0
  0
LINE
  5
3BC
  8
0
 10
195.9604891108859
 20
23.917797040905128
 30
0.0
 11
195.9604891108859
 21
24.468200741091032
 31
0.0
  0
LINE
  5
3BD
  8
0
 10
195.9604891108859
 20
24.468202012805751
 30
0.0
 11
195.9604891108861
 21
34.151272210438272
 31
0.0
  0
LINE
  5
3BE
  8
0
 10
181.2028961091996
 20
18.12499846818956
 30
0.0
 11
195.19614864791399
 21
18.12499846818956
 31
0.0
  0
LINE
  5
3BF
  8
0
 10
195.19614864791399
 20
28.124998468189691
 30
0.0
 11
181.2028961091996
 21
28.124998468189691
 31
0.0
  0
LINE
  5
3C0
  8
0
 10
195.1961486479135
 20
23.124998468189698
 30
0.0
 11
195.1961486479135
 21
21.83090389044219
 31
0.0
  0
LINE
  5
3C1
  8
0
 10
195.1961486479135
 20
21.830903242677088
 30
0.0
 11
195.1961486479135
 21
19.589464562256961
 31
0.0
  0
LINE
  5
3C2
  8
0
 10
195.1961486479135
 20
19.589464007853479
 30
0.0
 11
195.1961486479135
 21
18.79487144926749
 31
0.0
  0
LINE
  5
3C3
  8
0
 10
195.1961486479135
 20
18.794870535799991
 30
0.0
 11
195.1961486479135
 21
18.29536933674434
 31
0.0
  0
LINE
  5
3C4
  8
0
 10
195.1961486479135
 20
18.295368760479899
 30
0.0
 11
195.1961486479135
 21
18.12499846818967
 31
0.0
  0
LINE
  5
3C5
  8
0
 10
195.1961486479135
 20
28.124998468189681
 30
0.0
 11
195.1961486479135
 21
25.624999512199832
 31
0.0
  0
LINE
  5
3C6
  8
0
 10
195.1961486479135
 20
25.624998468189681
 30
0.0
 11
195.1961486479135
 21
24.419093693702301
 31
0.0
  0
LINE
  5
3C7
  8
0
 10
195.1961486479135
 20
24.419092580042829
 30
0.0
 11
195.1961486479135
 21
23.124998950517039
 31
0.0
  0
LINE
  5
3C8
  8
0
 10
181.2028961091994
 20
23.124998950517
 30
0.0
 11
181.2028961091994
 21
24.4190925800428
 31
0.0
  0
LINE
  5
3C9
  8
0
 10
181.2028961091994
 20
24.419093693702269
 30
0.0
 11
181.2028961091994
 21
25.624998468189659
 31
0.0
  0
LINE
  5
3CA
  8
0
 10
181.2028961091994
 20
25.624999512199821
 30
0.0
 11
181.2028961091996
 21
28.124998468189681
 31
0.0
  0
LINE
  5
3CB
  8
0
 10
181.2028961091996
 20
18.12499846818967
 30
0.0
 11
181.2028961091994
 21
18.295368760479889
 31
0.0
  0
LINE
  5
3CC
  8
0
 10
181.2028961091994
 20
18.295369336744329
 30
0.0
 11
181.2028961091994
 21
18.794870535799991
 31
0.0
  0
LINE
  5
3CD
  8
0
 10
181.2028961091994
 20
18.794871449267479
 30
0.0
 11
181.2028961091994
 21
19.589464007853469
 31
0.0
  0
LINE
  5
3CE
  8
0
 10
181.2028961091994
 20
19.589464562256929
 30
0.0
 11
181.2028961091994
 21
21.83090324267706
 31
0.0
  0
LINE
  5
3CF
  8
0
 10
181.2028961091994
 20
21.830903890442169
 30
0.0
 11
181.2028961091994
 21
23.124998468189649
 31
0.0
  0
LINE
  5
3D0
  8
0
 10
166.31636337344199
 20
87.249998468189219
 30
0.0
 11
166.31636337344199
 21
78.249998468189517
 31
0.0
  0
LINE
  5
3D1
  8
0
 10
137.5663633734425
 20
78.249998468189474
 30
0.0
 11
137.5663633734425
 21
87.24999846818919
 31
0.0
  0
LINE
  5
3D2
  8
0
 10
166.31636337344199
 20
78.249998468189517
 30
0.0
 11
137.5663633734425
 21
78.249998468189474
 31
0.0
  0
LINE
  5
3D3
  8
0
 10
137.5663633734425
 20
87.24999846818919
 30
0.0
 11
166.31636337344199
 21
87.249998468189219
 31
0.0
  0
LINE
  5
3D4
  8
0
 10
116.8163633734421
 20
78.249998468189247
 30
0.0
 11
179.3163633734421
 21
78.249998468189247
 31
0.0
  0
LINE
  5
3D5
  8
0
 10
179.3163633734421
 20
-0.0000015318109963
 30
0.0
 11
177.5663633734423
 21
-0.0000015318109963
 31
0.0
  0
LINE
  5
3D6
  8
0
 10
118.5663633734423
 20
-0.0000015318109963
 30
0.0
 11
116.8163633734421
 21
-0.0000015318109963
 31
0.0
  0
LINE
  5
3D7
  8
0
 10
116.8163633734421
 20
-0.0000015318109963
 30
0.0
 11
116.8163633734421
 21
78.249998468189247
 31
0.0
  0
LINE
  5
3D8
  8
0
 10
118.5663633734423
 20
-0.0000015318109963
 30
0.0
 11
118.5663633734423
 21
1.99999846818925
 31
0.0
  0
LINE
  5
3D9
  8
0
 10
118.5663633734423
 20
1.99999846818925
 30
0.0
 11
177.5663633734423
 21
1.99999846818925
 31
0.0
  0
LINE
  5
3DA
  8
0
 10
177.5663633734423
 20
1.99999846818925
 30
0.0
 11
177.5663633734423
 21
-0.0000015318109963
 31
0.0
  0
LINE
  5
3DB
  8
0
 10
179.3163633734421
 20
-0.0000015318109963
 30
0.0
 11
179.3163633734421
 21
78.249998468189247
 31
0.0
  0
ARC
  5
3DC
  8
0
 10
134.81636337344159
 20
55.522725740917387
 30
0.0
 40
8.2500000000000053
 50
179.9999999999996
 51
359.99999999999881
  0
ARC
  5
3DD
  8
0
 10
134.81636337344159
 20
55.522725740917387
 30
0.0
 40
8.2499999999999911
 50
359.9999999999996
 51
179.9999999999998
  0
ARC
  5
3DE
  8
0
 10
134.81636337344159
 20
55.522725740917387
 30
0.0
 40
7.687499999999992
 50
0.0000000000007124
 51
180.00000000000011
  0
ARC
  5
3DF
  8
0
 10
134.81636337344159
 20
55.522725740917387
 30
0.0
 40
7.687499999999992
 50
180.00000000000011
 51
359.9999999999996
  0
LINE
  5
3E0
  8
0
 10
139.93886414742931
 20
53.080869892120013
 30
0.0
 11
139.74392367123889
 21
52.631961161961279
 31
0.0
  0
LINE
  5
3E1
  8
0
 10
139.74392367123889
 20
52.631961161961279
 30
0.0
 11
139.293030814096
 21
52.474719098469222
 31
0.0
  0
LINE
  5
3E2
  8
0
 10
139.293030814096
 20
52.474719098469222
 30
0.0
 11
138.96850204425479
 21
52.53895520958033
 31
0.0
  0
LINE
  5
3E3
  8
0
 10
138.96850204425479
 20
52.53895520958033
 30
0.0
 11
138.73301097282609
 21
52.731663542913651
 31
0.0
  0
LINE
  5
3E4
  8
0
 10
138.73301097282609
 20
52.731663542913651
 30
0.0
 11
138.54203875060401
 21
53.48960005085015
 31
0.0
  0
LINE
  5
3E5
  8
0
 10
138.54203875060401
 20
53.48960005085015
 30
0.0
 11
138.72606652838181
 21
54.25348893973905
 31
0.0
  0
LINE
  5
3E6
  8
0
 10
138.72606652838181
 20
54.25348893973905
 30
0.0
 11
138.95585323473091
 21
54.44322108259621
 31
0.0
  0
LINE
  5
3E7
  8
0
 10
138.95585323473091
 20
54.44322108259621
 30
0.0
 11
139.27715779822299
 21
54.50646513021524
 31
0.0
  0
LINE
  5
3E8
  8
0
 10
139.27715779822299
 20
54.50646513021524
 30
0.0
 11
139.74541176647699
 21
54.363111955612069
 31
0.0
  0
LINE
  5
3E9
  8
0
 10
139.74541176647699
 20
54.363111955612069
 30
0.0
 11
139.93886414742931
 21
53.93801274926286
 31
0.0
  0
LINE
  5
3EA
  8
0
 10
139.93886414742931
 20
53.93801274926286
 30
0.0
 11
141.08172129028659
 21
53.93801274926286
 31
0.0
  0
LINE
  5
3EB
  8
0
 10
141.08172129028659
 20
53.93801274926286
 30
0.0
 11
140.9215030363184
 21
54.585706201643809
 31
0.0
  0
LINE
  5
3EC
  8
0
 10
140.9215030363184
 20
54.585706201643809
 30
0.0
 11
140.55394351250879
 21
55.064500844500948
 31
0.0
  0
LINE
  5
3ED
  8
0
 10
140.55394351250879
 20
55.064500844500948
 30
0.0
 11
139.99491573473091
 21
55.360259773072393
 31
0.0
  0
LINE
  5
3EE
  8
0
 10
139.99491573473091
 20
55.360259773072393
 30
0.0
 11
139.2602927188579
 21
55.45884608259621
 31
0.0
  0
LINE
  5
3EF
  8
0
 10
139.2602927188579
 20
55.45884608259621
 30
0.0
 11
138.46230164742931
 21
55.326901638151767
 31
0.0
  0
LINE
  5
3F0
  8
0
 10
138.46230164742931
 20
55.326901638151767
 30
0.0
 11
137.8520585918738
 21
54.931068304818417
 31
0.0
  0
LINE
  5
3F1
  8
0
 10
137.8520585918738
 20
54.931068304818417
 30
0.0
 11
137.46478180615961
 21
54.307060368310488
 31
0.0
  0
LINE
  5
3F2
  8
0
 10
137.46478180615961
 20
54.307060368310488
 30
0.0
 11
137.33568954425479
 21
53.490592114342249
 31
0.0
  0
LINE
  5
3F3
  8
0
 10
137.33568954425479
 20
53.490592114342249
 30
0.0
 11
137.465401845842
 21
52.672263741326347
 31
0.0
  0
LINE
  5
3F4
  8
0
 10
137.465401845842
 20
52.672263741326347
 30
0.0
 11
137.85453875060401
 21
52.048627828627971
 31
0.0
  0
LINE
  5
3F5
  8
0
 10
137.85453875060401
 20
52.048627828627971
 30
0.0
 11
138.4698661315565
 21
51.653910566723191
 31
0.0
  0
LINE
  5
3F6
  8
0
 10
138.4698661315565
 20
51.653910566723191
 30
0.0
 11
139.27814986171501
 21
51.522338146088259
 31
0.0
  0
LINE
  5
3F7
  8
0
 10
139.27814986171501
 20
51.522338146088259
 30
0.0
 11
140.00124013949289
 21
51.62452068577079
 31
0.0
  0
LINE
  5
3F8
  8
0
 10
140.00124013949289
 20
51.62452068577079
 30
0.0
 11
140.55741573473091
 21
51.931068304818417
 31
0.0
  0
LINE
  5
3F9
  8
0
 10
140.55741573473091
 20
51.931068304818417
 30
0.0
 11
140.92485125060401
 21
52.422883781008899
 31
0.0
  0
LINE
  5
3FA
  8
0
 10
140.92485125060401
 20
52.422883781008899
 30
0.0
 11
141.0817212902864
 21
53.080869892120013
 31
0.0
  0
LINE
  5
3FB
  8
0
 10
141.0817212902864
 20
53.080869892120013
 30
0.0
 11
139.93886414742931
 21
53.080869892120013
 31
0.0
  0
LINE
  5
3FC
  8
0
 10
132.71713676966169
 20
53.854944081043222
 30
0.0
 11
133.8947161347412
 21
53.854944081043222
 31
0.0
  0
LINE
  5
3FD
  8
0
 10
133.8947161347412
 20
53.854944081043222
 30
0.0
 11
134.04154153156651
 21
54.362880588979721
 31
0.0
  0
LINE
  5
3FE
  8
0
 10
134.04154153156651
 20
54.362880588979721
 30
0.0
 11
135.24491454743949
 21
54.362880588979721
 31
0.0
  0
LINE
  5
3FF
  8
0
 10
135.24491454743949
 20
54.362880588979721
 30
0.0
 11
135.38677962680461
 21
53.854944081043222
 31
0.0
  0
LINE
  5
400
  8
0
 10
135.38677962680461
 20
53.854944081043222
 30
0.0
 11
136.59015264267759
 21
53.854944081043222
 31
0.0
  0
LINE
  5
401
  8
0
 10
136.59015264267759
 20
53.854944081043222
 30
0.0
 11
135.2607875633125
 21
57.664467890567032
 31
0.0
  0
LINE
  5
402
  8
0
 10
135.2607875633125
 20
57.664467890567032
 30
0.0
 11
134.03162089664599
 21
57.664467890567032
 31
0.0
  0
LINE
  5
403
  8
0
 10
134.03162089664599
 20
57.664467890567032
 30
0.0
 11
132.71713676966169
 21
53.854944081043222
 31
0.0
  0
LINE
  5
404
  8
0
 10
134.26177962680461
 20
55.188277414376543
 30
0.0
 11
134.64769232521729
 21
56.491848842947967
 31
0.0
  0
LINE
  5
405
  8
0
 10
134.64769232521729
 20
56.491848842947967
 30
0.0
 11
135.02467645220139
 21
55.188277414376543
 31
0.0
  0
LINE
  5
406
  8
0
 10
135.02467645220139
 20
55.188277414376543
 30
0.0
 11
134.26177962680461
 21
55.188277414376543
 31
0.0
  0
LINE
  5
407
  8
0
 10
128.9564055794003
 20
55.595332390223469
 30
0.0
 11
130.65581034130511
 21
55.595332390223469
 31
0.0
  0
LINE
  5
408
  8
0
 10
130.65581034130511
 20
55.595332390223469
 30
0.0
 11
131.42366748416219
 21
55.634022866413972
 31
0.0
  0
LINE
  5
409
  8
0
 10
131.42366748416219
 20
55.634022866413972
 30
0.0
 11
131.8363658968608
 21
55.765967310858407
 31
0.0
  0
LINE
  5
40A
  8
0
 10
131.8363658968608
 20
55.765967310858407
 30
0.0
 11
132.2446000238449
 21
56.148903818794942
 31
0.0
  0
LINE
  5
40B
  8
0
 10
132.2446000238449
 20
56.148903818794942
 30
0.0
 11
132.3849770079716
 21
56.736205406096481
 31
0.0
  0
LINE
  5
40C
  8
0
 10
132.3849770079716
 20
56.736205406096481
 30
0.0
 11
132.2411278016225
 21
57.299201437842527
 31
0.0
  0
LINE
  5
40D
  8
0
 10
132.2411278016225
 20
57.299201437842527
 30
0.0
 11
131.7976754206702
 21
57.624102231493318
 31
0.0
  0
LINE
  5
40E
  8
0
 10
131.7976754206702
 20
57.624102231493318
 30
0.0
 11
132.1429135159083
 21
57.941562548953641
 31
0.0
  0
LINE
  5
40F
  8
0
 10
132.1429135159083
 20
57.941562548953641
 30
0.0
 11
132.2579928809875
 21
58.393943501334597
 31
0.0
  0
LINE
  5
410
  8
0
 10
132.2579928809875
 20
58.393943501334597
 30
0.0
 11
132.10422303971791
 21
58.953963342604432
 31
0.0
  0
LINE
  5
411
  8
0
 10
132.10422303971791
 20
58.953963342604432
 30
0.0
 11
131.66176272225741
 21
59.293745088636172
 31
0.0
  0
LINE
  5
412
  8
0
 10
131.66176272225741
 20
59.293745088636172
 30
0.0
 11
131.2664254206702
 21
59.379062548953641
 31
0.0
  0
LINE
  5
413
  8
0
 10
131.2664254206702
 20
59.379062548953641
 30
0.0
 11
130.53279446828921
 21
59.4048561997473
 31
0.0
  0
LINE
  5
414
  8
0
 10
130.53279446828921
 20
59.4048561997473
 30
0.0
 11
128.9564055794003
 21
59.4048561997473
 31
0.0
  0
LINE
  5
415
  8
0
 10
128.9564055794003
 20
59.4048561997473
 30
0.0
 11
128.9564055794003
 21
55.595332390223469
 31
0.0
  0
LINE
  5
416
  8
0
 10
130.16275478574951
 20
56.484221279112369
 30
0.0
 11
130.16275478574951
 21
57.182633977525057
 31
0.0
  0
LINE
  5
417
  8
0
 10
130.16275478574951
 20
57.182633977525057
 30
0.0
 11
130.7113658968608
 21
57.182633977525057
 31
0.0
  0
LINE
  5
418
  8
0
 10
130.7113658968608
 20
57.182633977525057
 30
0.0
 11
131.12059208733689
 21
57.103268898159989
 31
0.0
  0
LINE
  5
419
  8
0
 10
131.12059208733689
 20
57.103268898159989
 30
0.0
 11
131.24211986511449
 21
56.836403818794913
 31
0.0
  0
LINE
  5
41A
  8
0
 10
131.24211986511449
 20
56.836403818794913
 30
0.0
 11
131.12307224606701
 21
56.566562548953641
 31
0.0
  0
LINE
  5
41B
  8
0
 10
131.12307224606701
 20
56.566562548953641
 30
0.0
 11
130.72227859527331
 21
56.484221279112369
 31
0.0
  0
LINE
  5
41C
  8
0
 10
130.72227859527331
 20
56.484221279112369
 30
0.0
 11
130.16275478574951
 21
56.484221279112369
 31
0.0
  0
LINE
  5
41D
  8
0
 10
130.16275478574951
 20
57.881046675937782
 30
0.0
 11
130.16275478574951
 21
58.515967310858407
 31
0.0
  0
LINE
  5
41E
  8
0
 10
130.16275478574951
 20
58.515967310858407
 30
0.0
 11
130.49708018257479
 21
58.515967310858407
 31
0.0
  0
LINE
  5
41F
  8
0
 10
130.49708018257479
 20
58.515967310858407
 30
0.0
 11
131.00551272225741
 21
58.448506993398077
 31
0.0
  0
LINE
  5
420
  8
0
 10
131.00551272225741
 20
58.448506993398077
 30
0.0
 11
131.11513573813039
 21
58.198506993398077
 31
0.0
  0
LINE
  5
421
  8
0
 10
131.11513573813039
 20
58.198506993398077
 30
0.0
 11
131.0129531984478
 21
57.953467310858407
 31
0.0
  0
LINE
  5
422
  8
0
 10
131.0129531984478
 20
57.953467310858407
 30
0.0
 11
130.66077065876539
 21
57.881046675937782
 31
0.0
  0
LINE
  5
423
  8
0
 10
130.66077065876539
 20
57.881046675937782
 30
0.0
 11
130.16275478574951
 21
57.881046675937782
 31
0.0
  0
ARC
  5
424
  8
0
 10
134.81636337344111
 20
55.522725740918069
 30
0.0
 40
9.0000000000000089
 50
179.99999999999969
 51
359.99999999999881
  0
ARC
  5
425
  8
0
 10
134.81636337344111
 20
55.522725740918069
 30
0.0
 40
9.0000000000000124
 50
359.99999999999949
 51
179.99999999999969
  0
ARC
  5
431
  8
0
 10
162.8163633734421
 20
22.499998468189009
 30
0.0
 40
0.2499999999999716
 50
0.0
 51
179.99999999999841
  0
ARC
  5
432
  8
0
 10
162.8163633734421
 20
22.499998468189009
 30
0.0
 40
0.25
 50
180.0
 51
0.0
  0
LINE
  5
433
  8
0
 10
159.44136337344199
 20
87.499998468189204
 30
0.0
 11
159.44136337344199
 21
87.249998468189304
 31
0.0
  0
LINE
  5
434
  8
0
 10
165.4413633734421
 20
87.249998468189304
 30
0.0
 11
165.4413633734421
 21
87.499998468189204
 31
0.0
  0
LINE
  5
435
  8
0
 10
159.44136337344159
 20
87.499998468189048
 30
0.0
 11
159.54358230746169
 21
87.499998468189048
 31
0.0
  0
LINE
  5
436
  8
0
 10
159.54358589457451
 20
87.499998468189048
 30
0.0
 11
159.84328716208839
 21
87.499998468189048
 31
0.0
  0
LINE
  5
437
  8
0
 10
159.84328759586151
 20
87.499998468189048
 30
0.0
 11
160.32004279811889
 21
87.499998468189048
 31
0.0
  0
LINE
  5
438
  8
0
 10
160.32004302988199
 20
87.499998468189048
 30
0.0
 11
160.94136337344159
 21
87.499998468189048
 31
0.0
  0
LINE
  5
439
  8
0
 10
160.94136533752771
 20
87.499998468189048
 30
0.0
 11
161.66490623813411
 21
87.499998468189048
 31
0.0
  0
LINE
  5
43A
  8
0
 10
161.66490671140619
 20
87.499998468189048
 30
0.0
 11
162.44136337344159
 21
87.499998468189048
 31
0.0
  0
LINE
  5
43B
  8
0
 10
162.44136548681689
 20
87.499998468189048
 30
0.0
 11
163.217818527487
 21
87.499998468189048
 31
0.0
  0
LINE
  5
43C
  8
0
 10
163.2178205087491
 20
87.499998468189048
 30
0.0
 11
163.94136337344159
 21
87.499998468189048
 31
0.0
  0
LINE
  5
43D
  8
0
 10
163.94136566066729
 20
87.499998468189048
 30
0.0
 11
165.03943787972611
 21
87.499998468189048
 31
0.0
  0
LINE
  5
43E
  8
0
 10
165.03943958479499
 20
87.499998468189048
 30
0.0
 11
165.3391408523089
 21
87.499998468189048
 31
0.0
  0
LINE
  5
43F
  8
0
 10
165.33914137027699
 20
87.499998468189048
 30
0.0
 11
165.44136337344159
 21
87.499998468189048
 31
0.0
  0
ARC
  5
440
  8
0
 10
174.0663633734421
 20
7.8749984681894301
 30
0.0
 40
2.9999999999999929
 50
359.9999999999996
 51
179.99999999999969
  0
ARC
  5
441
  8
0
 10
174.0663633734421
 20
7.8749984681894301
 30
0.0
 40
3.000000000000008
 50
180.0000000000002
 51
359.99999999999909
  0
ARC
  5
442
  8
0
 10
160.3163633734421
 20
14.624998468189
 30
0.0
 40
1.50000000000001
 50
359.99999999999898
 51
179.99999999999909
  0
ARC
  5
443
  8
0
 10
160.3163633734421
 20
14.624998468189
 30
0.0
 40
1.4999999999999909
 50
180.00000000000071
 51
0.0000000000002036
  0
ARC
  5
444
  8
0
 10
160.3163633734421
 20
4.6249984681890011
 30
0.0
 40
1.000000000000032
 50
359.99999999999881
 51
179.99999999999889
  0
ARC
  5
445
  8
0
 10
160.3163633734421
 20
4.6249984681890011
 30
0.0
 40
1.0000000000000011
 50
180.00000000000011
 51
359.99999999999909
  0
CIRCLE
  5
446
  8
0
 10
168.44136337344199
 20
32.624998468189013
 30
0.0
 40
8.5
  0
ARC
  5
447
  8
0
 10
291.1110846276693
 20
47.624998468189247
 30
0.0
 40
2.0
 50
179.9999999999996
 51
359.99999999999898
  0
ARC
  5
448
  8
0
 10
291.1110846276693
 20
47.624998468189247
 30
0.0
 40
2.0000000000000031
 50
359.99999999999909
 51
179.99999999999949
  0
ARC
  5
449
  8
0
 10
291.1110846276693
 20
47.624998468189247
 30
0.0
 40
26.500000000000039
 50
179.99999999999949
 51
359.99999999999898
  0
ARC
  5
44A
  8
0
 10
291.1110846276693
 20
47.624998468189247
 30
0.0
 40
26.50000000000006
 50
0.0000000000001018
 51
179.9999999999996
  0
ARC
  5
44B
  8
0
 10
291.1110846276693
 20
47.624998468189247
 30
0.0
 40
26.500000000000039
 50
179.99999999999949
 51
359.99999999999909
  0
ARC
  5
44C
  8
0
 10
291.1110846276693
 20
47.624998468189247
 30
0.0
 40
26.500000000000039
 50
0.0000000000001018
 51
179.9999999999996
  0
ARC
  5
44D
  8
0
 10
291.1110846276697
 20
47.624998468189247
 30
0.0
 40
24.50000000000005
 50
179.99999999999949
 51
359.99999999999898
  0
ARC
  5
44E
  8
0
 10
291.1110846276697
 20
47.624998468189247
 30
0.0
 40
24.50000000000006
 50
359.99999999999937
 51
179.9999999999996
  0
LINE
  5
44F
  8
0
 10
325.54858462766919
 20
14.999998468189
 30
0.0
 11
325.54858462766919
 21
76.749998468189375
 31
0.0
  0
LINE
  5
450
  8
0
 10
325.54858462766919
 20
76.749998468189375
 30
0.0
 11
256.67358462766919
 21
76.749998468189375
 31
0.0
  0
LINE
  5
451
  8
0
 10
256.67358462766919
 20
76.749998468189375
 30
0.0
 11
256.67358462766919
 21
14.999998468189
 31
0.0
  0
LINE
  5
452
  8
0
 10
256.67358462766919
 20
14.999998468189
 30
0.0
 11
325.54858462766919
 21
14.999998468189
 31
0.0
  0
LINE
  5
453
  8
0
 10
325.54858462766919
 20
14.999998468189
 30
0.0
 11
256.67358462766919
 21
14.999998468189
 31
0.0
  0
LINE
  5
454
  8
0
 10
256.67358462766919
 20
14.999998468189
 30
0.0
 11
256.67358462766919
 21
76.749998468189375
 31
0.0
  0
LINE
  5
455
  8
0
 10
256.67358462766919
 20
76.749998468189375
 30
0.0
 11
325.54858462766919
 21
76.749998468189375
 31
0.0
  0
LINE
  5
456
  8
0
 10
325.54858462766919
 20
76.749998468189375
 30
0.0
 11
325.54858462766919
 21
14.999998468189
 31
0.0
  0
LINE
  5
45B
  8
0
 10
255.04858462767331
 20
78.249998468189517
 30
0.0
 11
327.17358462767339
 21
78.249998468189517
 31
0.0
  0
LINE
  5
45C
  8
0
 10
327.17358462767339
 20
78.249998468189517
 30
0.0
 11
327.17358462767339
 21
87.249998468189219
 31
0.0
  0
LINE
  5
45D
  8
0
 10
327.17358462767339
 20
87.249998468189219
 30
0.0
 11
255.04858462767331
 21
87.249998468189219
 31
0.0
  0
LINE
  5
45E
  8
0
 10
255.04858462767331
 20
87.249998468189219
 30
0.0
 11
255.04858462767331
 21
78.249998468189517
 31
0.0
  0
LINE
  5
45F
  8
0
 10
255.04858462767331
 20
78.249998468189474
 30
0.0
 11
255.04858462767331
 21
87.24999846818919
 31
0.0
  0
LINE
  5
460
  8
0
 10
255.04858462767331
 20
87.24999846818919
 30
0.0
 11
327.17358462767339
 21
87.24999846818919
 31
0.0
  0
LINE
  5
461
  8
0
 10
327.17358462767339
 20
87.24999846818919
 30
0.0
 11
327.17358462767339
 21
78.249998468189474
 31
0.0
  0
LINE
  5
462
  8
0
 10
327.17358462767339
 20
78.249998468189474
 30
0.0
 11
255.04858462767331
 21
78.249998468189474
 31
0.0
  0
LINE
  5
468
  8
0
 10
255.04858462767291
 20
78.249998468189247
 30
0.0
 11
327.17358462767288
 21
78.249998468189247
 31
0.0
  0
LINE
  5
46A
  8
0
 10
327.17358462767339
 20
78.249998468189247
 30
0.0
 11
325.5485846276747
 21
78.249998468189247
 31
0.0
  0
LINE
  5
46C
  8
0
 10
325.5485846276747
 20
78.249998468189247
 30
0.0
 11
256.6735846276747
 21
78.249998468189247
 31
0.0
  0
LINE
  5
46E
  8
0
 10
256.6735846276747
 20
78.249998468189247
 30
0.0
 11
255.04858462767331
 21
78.249998468189247
 31
0.0
  0
LINE
  5
46F
  8
0
 10
327.17358462767288
 20
-0.0000015318109963
 30
0.0
 11
255.04858462767291
 21
-0.0000015318109963
 31
0.0
  0
LINE
  5
471
  8
0
 10
255.04858462767291
 20
-0.0000015318109963
 30
0.0
 11
327.17358462767288
 21
-0.0000015318109963
 31
0.0
  0
LINE
  5
473
  8
0
 10
255.04858462767331
 20
-0.0000015318109963
 30
0.0
 11
327.17358462767339
 21
-0.0000015318109963
 31
0.0
  0
LINE
  5
475
  8
0
 10
327.17358462767339
 20
-0.0000015318109963
 30
0.0
 11
255.04858462767331
 21
-0.0000015318109963
 31
0.0
  0
LINE
  5
477
  8
0
 10
256.6735846276747
 20
78.249998468189247
 30
0.0
 11
256.67358462767379
 21
14.9999984681917
 31
0.0
  0
LINE
  5
478
  8
0
 10
256.67358462767379
 20
14.9999984681917
 30
0.0
 11
325.54858462767379
 21
14.999998468190761
 31
0.0
  0
LINE
  5
479
  8
0
 10
325.54858462767379
 20
14.999998468190761
 30
0.0
 11
325.5485846276747
 21
78.249998468189247
 31
0.0
  0
LINE
  5
47A
  8
0
 10
327.17358462767339
 20
78.249998468189247
 30
0.0
 11
327.17358462767339
 21
-0.0000015318109963
 31
0.0
  0
LINE
  5
47B
  8
0
 10
255.04858462767331
 20
-0.0000015318109963
 30
0.0
 11
255.04858462767331
 21
78.249998468189247
 31
0.0
  0
LINE
  5
47C
  8
0
 10
255.04858462767331
 20
-0.0000015318109963
 30
0.0
 11
255.04858462767331
 21
1.99999846818925
 31
0.0
  0
LINE
  5
47E
  8
0
 10
255.04858462767291
 20
1.99999846818925
 30
0.0
 11
255.04858462767291
 21
-0.0000015318109963
 31
0.0
  0
LINE
  5
47F
  8
0
 10
255.04858462767291
 20
-0.0000015318109963
 30
0.0
 11
255.04858462767291
 21
78.249998468189247
 31
0.0
  0
LINE
  5
480
  8
0
 10
256.67358462767339
 20
76.749998468189816
 30
0.0
 11
325.54858462767328
 21
76.749998468189816
 31
0.0
  0
LINE
  5
481
  8
0
 10
325.54858462767328
 20
76.749998468189816
 30
0.0
 11
325.54858462767328
 21
14.999998468189
 31
0.0
  0
LINE
  5
482
  8
0
 10
325.54858462767328
 20
14.999998468189
 30
0.0
 11
256.67358462767339
 21
14.999998468189
 31
0.0
  0
LINE
  5
483
  8
0
 10
256.67358462767339
 20
14.999998468189
 30
0.0
 11
256.67358462767339
 21
76.749998468189816
 31
0.0
  0
LINE
  5
484
  8
0
 10
327.17358462767288
 20
-0.0000015318109963
 30
0.0
 11
327.17358462767288
 21
78.249998468189247
 31
0.0
  0
LINE
  5
485
  8
0
 10
327.17358462767288
 20
-0.0000015318109963
 30
0.0
 11
327.17358462767288
 21
1.9999984681882499
 31
0.0
  0
LINE
  5
487
  8
0
 10
327.17358462767339
 20
1.9999984681882499
 30
0.0
 11
327.17358462767339
 21
-0.0000015318109963
 31
0.0
  0
LINE
  5
488
  8
0
 10
327.17358462767379
 20
1.9999984681882479
 30
0.0
 11
255.04858462767379
 21
1.9999984681892471
 31
0.0
  0
LINE
  5
489
  8
0
 10
327.17358462767339
 20
1.9999984681882479
 30
0.0
 11
255.04858462767331
 21
1.9999984681892471
 31
0.0
  0
LINE
  5
48B
  8
0
 10
325.54858462767379
 20
14.999998468190739
 30
0.0
 11
325.5485846276747
 21
78.249998468191492
 31
0.0
  0
LINE
  5
48C
  8
0
 10
256.6735846276747
 20
78.249998468192445
 30
0.0
 11
256.67358462767379
 21
14.9999984681917
 31
0.0
  0
LINE
  5
48E
  8
0
 10
325.54858462767379
 20
14.999998468190761
 30
0.0
 11
256.67358462767379
 21
14.9999984681917
 31
0.0
  0
LINE
  5
48F
  8
0
 10
325.54858462767328
 20
76.749998468189816
 30
0.0
 11
256.67358462767339
 21
76.749998468189816
 31
0.0
  0
LINE
  5
490
  8
0
 10
256.67358462767339
 20
76.749998468189816
 30
0.0
 11
256.67358462767339
 21
14.999998468189
 31
0.0
  0
LINE
  5
491
  8
0
 10
256.67358462767339
 20
14.999998468189
 30
0.0
 11
325.54858462767328
 21
14.999998468189
 31
0.0
  0
LINE
  5
492
  8
0
 10
325.54858462767328
 20
14.999998468189
 30
0.0
 11
325.54858462767328
 21
76.749998468189816
 31
0.0
  0
LINE
  5
498
  8
0
 10
72.125004737584945
 20
78.249998468189474
 30
0.0
 11
72.125004737584945
 21
87.24999846818919
 31
0.0
  0
LINE
  5
499
  8
0
 10
72.125004737584945
 20
87.24999846818919
 30
0.0
 11
0.0000047375851864
 21
87.24999846818919
 31
0.0
  0
LINE
  5
49A
  8
0
 10
0.0000047375851864
 20
87.24999846818919
 30
0.0
 11
0.0000047375851864
 21
78.249998468189474
 31
0.0
  0
LINE
  5
49B
  8
0
 10
0.0000047375851864
 20
78.249998468189247
 30
0.0
 11
1.6250047375838219
 21
78.249998468189247
 31
0.0
  0
LINE
  5
49C
  8
0
 10
1.6250047375838219
 20
78.249998468189247
 30
0.0
 11
70.500004737583822
 21
78.249998468189247
 31
0.0
1001
ACAD
1000
ASC_BOUNDS
1002
{
1070
    19
1005
522
1002
}
  0
LINE
  5
49D
  8
0
 10
70.500004737583822
 20
78.249998468189247
 30
0.0
 11
72.125004737585186
 21
78.249998468189247
 31
0.0
  0
LINE
  5
49E
  8
0
 10
72.125004737585186
 20
-0.0000015318109963
 30
0.0
 11
0.0000047375851864
 21
-0.0000015318109963
 31
0.0
  0
LINE
  5
49F
  8
0
 10
70.500004737583822
 20
78.249998468189247
 30
0.0
 11
70.500004737584732
 21
14.9999984681917
 31
0.0
1001
ACAD
1000
ASC_BOUNDS
1002
{
1070
    19
1005
522
1002
}
  0
LINE
  5
4A0
  8
0
 10
70.500004737584732
 20
14.9999984681917
 30
0.0
 11
1.625004737584731
 21
14.999998468190761
 31
0.0
1001
ACAD
1000
ASC_BOUNDS
1002
{
1070
    19
1005
522
1002
}
  0
LINE
  5
4A1
  8
0
 10
1.625004737584731
 20
14.999998468190761
 30
0.0
 11
1.6250047375838219
 21
78.249998468189247
 31
0.0
1001
ACAD
1000
ASC_BOUNDS
1002
{
1070
    19
1005
522
1002
}
  0
LINE
  5
4A2
  8
0
 10
0.0000047375851864
 20
78.249998468189247
 30
0.0
 11
0.0000047375851864
 21
-0.0000015318109963
 31
0.0
  0
LINE
  5
4A3
  8
0
 10
72.125004737585186
 20
-0.0000015318109963
 30
0.0
 11
72.125004737585186
 21
78.249998468189247
 31
0.0
  0
LINE
  5
4A4
  8
0
 10
207.5663633734421
 20
120.3336095586546
 30
0.0
 11
210.1913633734421
 21
144.83360955865459
 31
0.0
  0
LINE
  5
4A5
  8
0
 10
210.1913633734421
 20
148.83360955865459
 30
0.0
 11
207.5663633734421
 21
173.33360955865459
 31
0.0
  0
LINE
  5
4A6
  8
0
 10
207.3163633734421
 20
120.3336095586546
 30
0.0
 11
207.5663633734421
 21
120.3336095586546
 31
0.0
  0
LINE
  5
4A7
  8
0
 10
207.5663633734421
 20
173.33360955865459
 30
0.0
 11
207.3163633734421
 21
173.33360955865459
 31
0.0
  0
POLYLINE
  5
4A8
  8
0
 66
     1
 10
0.0
 20
0.0
 30
0.0
  0
VERTEX
  5
71F
  8
0
 10
207.3163633734421
 20
173.20860955865459
 30
0.0
  0
VERTEX
  5
720
  8
0
 10
207.3163633734421
 20
173.1968916764273
 30
0.0
  0
VERTEX
  5
721
  8
0
 10
207.3163633734421
 20
173.16174844178451
 30
0.0
  0
VERTEX
  5
722
  8
0
 10
207.3163633734421
 20
173.10321108159121
 30
0.0
  0
VERTEX
  5
723
  8
0
 10
207.3163633734421
 20
173.02133160979201
 30
0.0
  0
VERTEX
  5
724
  8
0
 10
207.3163633734421
 20
172.91618278119321
 30
0.0
  0
VERTEX
  5
725
  8
0
 10
207.3163633734421
 20
172.78785802681571
 30
0.0
  0
VERTEX
  5
726
  8
0
 10
207.3163633734421
 20
172.63647137087619
 30
0.0
  0
VERTEX
  5
727
  8
0
 10
207.3163633734421
 20
172.46215732947019
 30
0.0
  0
VERTEX
  5
728
  8
0
 10
207.3163633734421
 20
172.2650707910453
 30
0.0
  0
VERTEX
  5
729
  8
0
 10
207.3163633734421
 20
172.04538687877491
 30
0.0
  0
VERTEX
  5
72A
  8
0
 10
207.3163633734421
 20
171.80330079494979
 30
0.0
  0
VERTEX
  5
72B
  8
0
 10
207.3163633734421
 20
171.53902764752971
 30
0.0
  0
VERTEX
  5
72C
  8
0
 10
207.3163633734421
 20
171.25280225900701
 30
0.0
  0
VERTEX
  5
72D
  8
0
 10
207.3163633734421
 20
170.94487895775279
 30
0.0
  0
VERTEX
  5
72E
  8
0
 10
207.3163633734421
 20
170.6155313520307
 30
0.0
  0
VERTEX
  5
72F
  8
0
 10
207.3163633734421
 20
170.26505208688019
 30
0.0
  0
VERTEX
  5
730
  8
0
 10
207.3163633734421
 20
169.8937525840833
 30
0.0
  0
VERTEX
  5
731
  8
0
 10
207.3163633734421
 20
169.5019627654483
 30
0.0
  0
VERTEX
  5
732
  8
0
 10
207.3163633734421
 20
169.0900307596539
 30
0.0
  0
VERTEX
  5
733
  8
0
 10
207.3163633734421
 20
168.6583225929167
 30
0.0
  0
VERTEX
  5
734
  8
0
 10
207.3163633734421
 20
168.20722186375451
 30
0.0
  0
VERTEX
  5
735
  8
0
 10
207.3163633734421
 20
167.73712940213639
 30
0.0
  0
VERTEX
  5
736
  8
0
 10
207.3163633734421
 20
167.24846291332119
 30
0.0
  0
VERTEX
  5
737
  8
0
 10
207.3163633734421
 20
166.7416566067015
 30
0.0
  0
VERTEX
  5
738
  8
0
 10
207.3163633734421
 20
166.21716080998249
 30
0.0
  0
VERTEX
  5
739
  8
0
 10
207.3163633734421
 20
165.67544156903909
 30
0.0
  0
VERTEX
  5
73A
  8
0
 10
207.3163633734421
 20
165.11698023380609
 30
0.0
  0
VERTEX
  5
73B
  8
0
 10
207.3163633734421
 20
164.54227303057019
 30
0.0
  0
VERTEX
  5
73C
  8
0
 10
207.3163633734421
 20
163.95183062104289
 30
0.0
  0
VERTEX
  5
73D
  8
0
 10
207.3163633734421
 20
163.34617764860769
 30
0.0
  0
VERTEX
  5
73E
  8
0
 10
207.3163633734421
 20
162.7258522721423
 30
0.0
  0
VERTEX
  5
73F
  8
0
 10
207.3163633734421
 20
162.0914056878328
 30
0.0
  0
VERTEX
  5
740
  8
0
 10
207.3163633734421
 20
161.44340163940279
 30
0.0
  0
VERTEX
  5
741
  8
0
 10
207.3163633734421
 20
160.78241591719319
 30
0.0
  0
VERTEX
  5
742
  8
0
 10
207.3163633734421
 20
160.10903584653849
 30
0.0
  0
VERTEX
  5
743
  8
0
 10
207.3163633734421
 20
159.4238597658927
 30
0.0
  0
VERTEX
  5
744
  8
0
 10
207.3163633734421
 20
158.7274964951699
 30
0.0
  0
VERTEX
  5
745
  8
0
 10
207.3163633734421
 20
158.0205647947715
 30
0.0
  0
VERTEX
  5
746
  8
0
 10
207.3163633734421
 20
157.30369281578061
 30
0.0
  0
VERTEX
  5
747
  8
0
 10
207.3163633734421
 20
156.5775175418122
 30
0.0
  0
VERTEX
  5
748
  8
0
 10
207.3163633734421
 20
155.84268422301491
 30
0.0
  0
VERTEX
  5
749
  8
0
 10
207.3163633734421
 20
155.099845802728
 30
0.0
  0
VERTEX
  5
74A
  8
0
 10
207.3163633734421
 20
154.34966233730211
 30
0.0
  0
VERTEX
  5
74B
  8
0
 10
207.3163633734421
 20
153.59280040959959
 30
0.0
  0
VERTEX
  5
74C
  8
0
 10
207.3163633734421
 20
152.82993253669559
 30
0.0
  0
VERTEX
  5
74D
  8
0
 10
207.3163633734421
 20
152.06173657230701
 30
0.0
  0
VERTEX
  5
74E
  8
0
 10
207.3163633734421
 20
151.2888951044784
 30
0.0
  0
VERTEX
  5
74F
  8
0
 10
207.3163633734421
 20
150.51209484906201
 30
0.0
  0
VERTEX
  5
750
  8
0
 10
207.3163633734421
 20
149.7320260395293
 30
0.0
  0
VERTEX
  5
751
  8
0
 10
207.3163633734421
 20
148.94938181365779
 30
0.0
  0
VERTEX
  5
752
  8
0
 10
207.3163633734421
 20
148.1648575976362
 30
0.0
  0
VERTEX
  5
753
  8
0
 10
207.3163633734421
 20
147.37915048813699
 30
0.0
  0
VERTEX
  5
754
  8
0
 10
207.3163633734421
 20
146.59295863290421
 30
0.0
  0
VERTEX
  5
755
  8
0
 10
207.3163633734421
 20
145.80698061040749
 30
0.0
  0
VERTEX
  5
756
  8
0
 10
207.3163633734421
 20
145.0219148091131
 30
0.0
  0
VERTEX
  5
757
  8
0
 10
207.3163633734421
 20
144.2384588069244
 30
0.0
  0
VERTEX
  5
758
  8
0
 10
207.3163633734421
 20
143.457308751342
 30
0.0
  0
VERTEX
  5
759
  8
0
 10
207.3163633734421
 20
142.6791587408951
 30
0.0
  0
VERTEX
  5
75A
  8
0
 10
207.3163633734421
 20
141.90470020839339
 30
0.0
  0
VERTEX
  5
75B
  8
0
 10
207.3163633734421
 20
141.13462130654759
 30
0.0
  0
VERTEX
  5
75C
  8
0
 10
207.3163633734421
 20
140.3696062965048
 30
0.0
  0
VERTEX
  5
75D
  8
0
 10
207.3163633734421
 20
139.61033493984161
 30
0.0
  0
VERTEX
  5
75E
  8
0
 10
207.3163633734421
 20
138.85748189455501
 30
0.0
  0
VERTEX
  5
75F
  8
0
 10
207.3163633734421
 20
138.11171611558859
 30
0.0
  0
VERTEX
  5
760
  8
0
 10
207.3163633734421
 20
137.37370026042609
 30
0.0
  0
VERTEX
  5
761
  8
0
 10
207.3163633734421
 20
136.64409010028061
 30
0.0
  0
VERTEX
  5
762
  8
0
 10
207.3163633734421
 20
135.92353393740271
 30
0.0
  0
VERTEX
  5
763
  8
0
 10
207.3163633734421
 20
135.21267202902499
 30
0.0
  0
VERTEX
  5
764
  8
0
 10
207.3163633734421
 20
134.51213601845521
 30
0.0
  0
VERTEX
  5
765
  8
0
 10
207.3163633734421
 20
133.82254837382371
 30
0.0
  0
VERTEX
  5
766
  8
0
 10
207.3163633734421
 20
133.1445218349829
 30
0.0
  0
VERTEX
  5
767
  8
0
 10
207.3163633734421
 20
132.47865886905171
 30
0.0
  0
VERTEX
  5
768
  8
0
 10
207.3163633734421
 20
131.82555113508701
 30
0.0
  0
VERTEX
  5
769
  8
0
 10
207.3163633734421
 20
131.18577895835969
 30
0.0
  0
VERTEX
  5
76A
  8
0
 10
207.3163633734421
 20
130.55991081470049
 30
0.0
  0
VERTEX
  5
76B
  8
0
 10
207.3163633734421
 20
129.94850282537581
 30
0.0
  0
VERTEX
  5
76C
  8
0
 10
207.3163633734421
 20
129.35209826293971
 30
0.0
  0
VERTEX
  5
76D
  8
0
 10
207.3163633734421
 20
128.771227068505
 30
0.0
  0
VERTEX
  5
76E
  8
0
 10
207.3163633734421
 20
128.20640538085809
 30
0.0
  0
VERTEX
  5
76F
  8
0
 10
207.3163633734421
 20
127.65813507783891
 30
0.0
  0
VERTEX
  5
770
  8
0
 10
207.3163633734421
 20
127.12690333039269
 30
0.0
  0
VERTEX
  5
771
  8
0
 10
207.3163633734421
 20
126.6131821696892
 30
0.0
  0
VERTEX
  5
772
  8
0
 10
207.3163633734421
 20
126.1174280676951
 30
0.0
  0
VERTEX
  5
773
  8
0
 10
207.3163633734421
 20
125.6400815315709
 30
0.0
  0
VERTEX
  5
774
  8
0
 10
207.3163633734421
 20
125.18156671225449
 30
0.0
  0
VERTEX
  5
775
  8
0
 10
207.3163633734421
 20
124.7422910275772
 30
0.0
  0
VERTEX
  5
776
  8
0
 10
207.3163633734421
 20
124.32264480024899
 30
0.0
  0
VERTEX
  5
777
  8
0
 10
207.3163633734421
 20
123.9230009110336
 30
0.0
  0
VERTEX
  5
778
  8
0
 10
207.3163633734421
 20
123.5437144674211
 30
0.0
  0
VERTEX
  5
779
  8
0
 10
207.3163633734421
 20
123.18512248809409
 30
0.0
  0
VERTEX
  5
77A
  8
0
 10
207.3163633734421
 20
122.84754360346621
 30
0.0
  0
VERTEX
  5
77B
  8
0
 10
207.3163633734421
 20
122.5312777725604
 30
0.0
  0
VERTEX
  5
77C
  8
0
 10
207.3163633734421
 20
122.2366060164767
 30
0.0
  0
VERTEX
  5
77D
  8
0
 10
207.3163633734421
 20
121.9637901686889
 30
0.0
  0
VERTEX
  5
77E
  8
0
 10
207.3163633734421
 20
121.71307264238921
 30
0.0
  0
VERTEX
  5
77F
  8
0
 10
207.3163633734421
 20
121.4846762150901
 30
0.0
  0
VERTEX
  5
780
  8
0
 10
207.3163633734421
 20
121.2788038306731
 30
0.0
  0
VERTEX
  5
781
  8
0
 10
207.3163633734421
 20
121.09563841906071
 30
0.0
  0
VERTEX
  5
782
  8
0
 10
207.3163633734421
 20
120.9353427336727
 30
0.0
  0
VERTEX
  5
783
  8
0
 10
207.3163633734421
 20
120.7980592068094
 30
0.0
  0
VERTEX
  5
784
  8
0
 10
207.3163633734421
 20
120.68390982309261
 30
0.0
  0
VERTEX
  5
785
  8
0
 10
207.3163633734421
 20
120.5929960110748
 30
0.0
  0
VERTEX
  5
786
  8
0
 10
207.3163633734421
 20
120.5253985531137
 30
0.0
  0
VERTEX
  5
787
  8
0
 10
207.3163633734421
 20
120.4811775135922
 30
0.0
  0
VERTEX
  5
788
  8
0
 10
207.3163633734421
 20
120.460372185548
 30
0.0
  0
VERTEX
  5
789
  8
0
 10
207.3163633734421
 20
120.4586095586545
 30
0.0
  0
SEQEND
  5
78A
  8
0
  0
POLYLINE
  5
4A9
  8
0
 66
     1
 10
0.0
 20
0.0
 30
0.0
  0
VERTEX
  5
78B
  8
0
 10
205.4413633734421
 20
171.33360955865459
 30
0.0
  0
VERTEX
  5
78C
  8
0
 10
205.65055828718209
 20
171.34531610670851
 30
0.0
  0
VERTEX
  5
78D
  8
0
 10
205.85714098725799
 20
171.38028957138499
 30
0.0
  0
VERTEX
  5
78E
  8
0
 10
206.0585318786766
 20
171.43809323956961
 30
0.0
  0
VERTEX
  5
78F
  8
0
 10
206.2522161964807
 20
171.5180053177483
 30
0.0
  0
VERTEX
  5
790
  8
0
 10
206.43577540757821
 20
171.6190279450324
 30
0.0
  0
VERTEX
  5
791
  8
0
 10
206.60691741092799
 20
171.73989965343159
 30
0.0
  0
VERTEX
  5
792
  8
0
 10
206.76350515897229
 20
171.8791111197857
 30
0.0
  0
VERTEX
  5
793
  8
0
 10
206.90358334291381
 20
172.03492401265939
 30
0.0
  0
VERTEX
  5
794
  8
0
 10
207.02540280862829
 20
172.20539269886049
 30
0.0
  0
VERTEX
  5
795
  8
0
 10
207.12744239832409
 20
172.38838853853099
 30
0.0
  0
VERTEX
  5
796
  8
0
 10
207.20842794521741
 20
172.58162646544091
 30
0.0
  0
VERTEX
  5
797
  8
0
 10
207.26734818403199
 20
172.78269352057441
 30
0.0
  0
VERTEX
  5
798
  8
0
 10
207.3034673786542
 20
172.98907898271241
 30
0.0
  0
VERTEX
  5
799
  8
0
 10
207.31633450925619
 20
173.19820571976931
 30
0.0
  0
VERTEX
  5
79A
  8
0
 10
207.3163633734421
 20
173.20860955865459
 30
0.0
  0
SEQEND
  5
79B
  8
0
  0
POLYLINE
  5
4AA
  8
0
 66
     1
 10
0.0
 20
0.0
 30
0.0
  0
VERTEX
  5
79C
  8
0
 10
207.3163633734421
 20
120.4586095586546
 30
0.0
  0
VERTEX
  5
79D
  8
0
 10
207.30465682538809
 20
120.66780447239459
 30
0.0
  0
VERTEX
  5
79E
  8
0
 10
207.2696833607115
 20
120.87438717247031
 30
0.0
  0
VERTEX
  5
79F
  8
0
 10
207.21187969252691
 20
121.0757780638891
 30
0.0
  0
VERTEX
  5
7A0
  8
0
 10
207.1319676143485
 20
121.2694623816931
 30
0.0
  0
VERTEX
  5
7A1
  8
0
 10
207.0309449870642
 20
121.45302159279041
 30
0.0
  0
VERTEX
  5
7A2
  8
0
 10
206.9100732786651
 20
121.62416359614051
 30
0.0
  0
VERTEX
  5
7A3
  8
0
 10
206.77086181231061
 20
121.78075134418479
 30
0.0
  0
VERTEX
  5
7A4
  8
0
 10
206.61504891943699
 20
121.9208295281263
 30
0.0
  0
VERTEX
  5
7A5
  8
0
 10
206.44458023323611
 20
122.0426489938407
 30
0.0
  0
VERTEX
  5
7A6
  8
0
 10
206.2615843935655
 20
122.14468858353671
 30
0.0
  0
VERTEX
  5
7A7
  8
0
 10
206.06834646665541
 20
122.22567413042999
 30
0.0
  0
VERTEX
  5
7A8
  8
0
 10
205.8672794115223
 20
122.2845943692447
 30
0.0
  0
VERTEX
  5
7A9
  8
0
 10
205.66089394938419
 20
122.32071356386651
 30
0.0
  0
VERTEX
  5
7AA
  8
0
 10
205.45176721232721
 20
122.33358069446879
 30
0.0
  0
VERTEX
  5
7AB
  8
0
 10
205.44136337344179
 20
122.3336095586546
 30
0.0
  0
SEQEND
  5
7AC
  8
0
  0
POLYLINE
  5
4AB
  8
0
 66
     1
 10
0.0
 20
0.0
 30
0.0
  0
VERTEX
  5
7AD
  8
0
 10
207.3163633734421
 20
120.4586095586545
 30
0.0
  0
VERTEX
  5
7AE
  8
0
 10
207.3163633734421
 20
120.4703274408818
 30
0.0
  0
VERTEX
  5
7AF
  8
0
 10
207.3163633734421
 20
120.50547067552471
 30
0.0
  0
VERTEX
  5
7B0
  8
0
 10
207.3163633734421
 20
120.5640080357179
 30
0.0
  0
VERTEX
  5
7B1
  8
0
 10
207.3163633734421
 20
120.6458875075171
 30
0.0
  0
VERTEX
  5
7B2
  8
0
 10
207.3163633734421
 20
120.751036336116
 30
0.0
  0
VERTEX
  5
7B3
  8
0
 10
207.3163633734421
 20
120.8793610904935
 30
0.0
  0
VERTEX
  5
7B4
  8
0
 10
207.3163633734421
 20
121.03074774643289
 30
0.0
  0
VERTEX
  5
7B5
  8
0
 10
207.3163633734421
 20
121.205061787839
 30
0.0
  0
VERTEX
  5
7B6
  8
0
 10
207.3163633734421
 20
121.4021483262638
 30
0.0
  0
VERTEX
  5
7B7
  8
0
 10
207.3163633734421
 20
121.6218322385343
 30
0.0
  0
VERTEX
  5
7B8
  8
0
 10
207.3163633734421
 20
121.8639183223594
 30
0.0
  0
VERTEX
  5
7B9
  8
0
 10
207.3163633734421
 20
122.1281914697794
 30
0.0
  0
VERTEX
  5
7BA
  8
0
 10
207.3163633734421
 20
122.4144168583021
 30
0.0
  0
VERTEX
  5
7BB
  8
0
 10
207.3163633734421
 20
122.7223401595564
 30
0.0
  0
VERTEX
  5
7BC
  8
0
 10
207.3163633734421
 20
123.0516877652784
 30
0.0
  0
VERTEX
  5
7BD
  8
0
 10
207.3163633734421
 20
123.402167030429
 30
0.0
  0
VERTEX
  5
7BE
  8
0
 10
207.3163633734421
 20
123.7734665332258
 30
0.0
  0
VERTEX
  5
7BF
  8
0
 10
207.3163633734421
 20
124.1652563518609
 30
0.0
  0
VERTEX
  5
7C0
  8
0
 10
207.3163633734421
 20
124.5771883576552
 30
0.0
  0
VERTEX
  5
7C1
  8
0
 10
207.3163633734421
 20
125.0088965243924
 30
0.0
  0
VERTEX
  5
7C2
  8
0
 10
207.3163633734421
 20
125.4599972535546
 30
0.0
  0
VERTEX
  5
7C3
  8
0
 10
207.3163633734421
 20
125.9300897151727
 30
0.0
  0
VERTEX
  5
7C4
  8
0
 10
207.3163633734421
 20
126.4187562039879
 30
0.0
  0
VERTEX
  5
7C5
  8
0
 10
207.3163633734421
 20
126.92556251060761
 30
0.0
  0
VERTEX
  5
7C6
  8
0
 10
207.3163633734421
 20
127.4500583073266
 30
0.0
  0
VERTEX
  5
7C7
  8
0
 10
207.3163633734421
 20
127.99177754826999
 30
0.0
  0
VERTEX
  5
7C8
  8
0
 10
207.3163633734421
 20
128.55023888350291
 30
0.0
  0
VERTEX
  5
7C9
  8
0
 10
207.3163633734421
 20
129.1249460867389
 30
0.0
  0
VERTEX
  5
7CA
  8
0
 10
207.3163633734421
 20
129.71538849626609
 30
0.0
  0
VERTEX
  5
7CB
  8
0
 10
207.3163633734421
 20
130.32104146870131
 30
0.0
  0
VERTEX
  5
7CC
  8
0
 10
207.3163633734421
 20
130.94136684516681
 30
0.0
  0
VERTEX
  5
7CD
  8
0
 10
207.3163633734421
 20
131.57581342947631
 30
0.0
  0
VERTEX
  5
7CE
  8
0
 10
207.3163633734421
 20
132.22381747790629
 30
0.0
  0
VERTEX
  5
7CF
  8
0
 10
207.3163633734421
 20
132.88480320011581
 30
0.0
  0
VERTEX
  5
7D0
  8
0
 10
207.3163633734421
 20
133.55818327077051
 30
0.0
  0
VERTEX
  5
7D1
  8
0
 10
207.3163633734421
 20
134.24335935141639
 30
0.0
  0
VERTEX
  5
7D2
  8
0
 10
207.3163633734421
 20
134.93972262213919
 30
0.0
  0
VERTEX
  5
7D3
  8
0
 10
207.3163633734421
 20
135.64665432253759
 30
0.0
  0
VERTEX
  5
7D4
  8
0
 10
207.3163633734421
 20
136.36352630152851
 30
0.0
  0
VERTEX
  5
7D5
  8
0
 10
207.3163633734421
 20
137.089701575497
 30
0.0
  0
VERTEX
  5
7D6
  8
0
 10
207.3163633734421
 20
137.82453489429429
 30
0.0
  0
VERTEX
  5
7D7
  8
0
 10
207.3163633734421
 20
138.56737331458109
 30
0.0
  0
VERTEX
  5
7D8
  8
0
 10
207.3163633734421
 20
139.3175567800071
 30
0.0
  0
VERTEX
  5
7D9
  8
0
 10
207.3163633734421
 20
140.07441870770961
 30
0.0
  0
VERTEX
  5
7DA
  8
0
 10
207.3163633734421
 20
140.83728658061361
 30
0.0
  0
VERTEX
  5
7DB
  8
0
 10
207.3163633734421
 20
141.60548254500219
 30
0.0
  0
VERTEX
  5
7DC
  8
0
 10
207.3163633734421
 20
142.3783240128308
 30
0.0
  0
VERTEX
  5
7DD
  8
0
 10
207.3163633734421
 20
143.15512426824731
 30
0.0
  0
VERTEX
  5
7DE
  8
0
 10
207.3163633734421
 20
143.9351930777799
 30
0.0
  0
VERTEX
  5
7DF
  8
0
 10
207.3163633734421
 20
144.71783730365149
 30
0.0
  0
VERTEX
  5
7E0
  8
0
 10
207.3163633734421
 20
145.502361519673
 30
0.0
  0
VERTEX
  5
7E1
  8
0
 10
207.3163633734421
 20
146.28806862917219
 30
0.0
  0
VERTEX
  5
7E2
  8
0
 10
207.3163633734421
 20
147.07426048440499
 30
0.0
  0
VERTEX
  5
7E3
  8
0
 10
207.3163633734421
 20
147.86023850690191
 30
0.0
  0
VERTEX
  5
7E4
  8
0
 10
207.3163633734421
 20
148.64530430819619
 30
0.0
  0
VERTEX
  5
7E5
  8
0
 10
207.3163633734421
 20
149.42876031038489
 30
0.0
  0
VERTEX
  5
7E6
  8
0
 10
207.3163633734421
 20
150.20991036596729
 30
0.0
  0
VERTEX
  5
7E7
  8
0
 10
207.3163633734421
 20
150.98806037641421
 30
0.0
  0
VERTEX
  5
7E8
  8
0
 10
207.3163633734421
 20
151.76251890891601
 30
0.0
  0
VERTEX
  5
7E9
  8
0
 10
207.3163633734421
 20
152.53259781076181
 30
0.0
  0
VERTEX
  5
7EA
  8
0
 10
207.3163633734421
 20
153.29761282080449
 30
0.0
  0
VERTEX
  5
7EB
  8
0
 10
207.3163633734421
 20
154.05688417746779
 30
0.0
  0
VERTEX
  5
7EC
  8
0
 10
207.3163633734421
 20
154.80973722275439
 30
0.0
  0
VERTEX
  5
7ED
  8
0
 10
207.3163633734421
 20
155.55550300172089
 30
0.0
  0
VERTEX
  5
7EE
  8
0
 10
207.3163633734421
 20
156.29351885688331
 30
0.0
  0
VERTEX
  5
7EF
  8
0
 10
207.3163633734421
 20
157.02312901702879
 30
0.0
  0
VERTEX
  5
7F0
  8
0
 10
207.3163633734421
 20
157.74368517990669
 30
0.0
  0
VERTEX
  5
7F1
  8
0
 10
207.3163633734421
 20
158.4545470882845
 30
0.0
  0
VERTEX
  5
7F2
  8
0
 10
207.3163633734421
 20
159.15508309885431
 30
0.0
  0
VERTEX
  5
7F3
  8
0
 10
207.3163633734421
 20
159.84467074348581
 30
0.0
  0
VERTEX
  5
7F4
  8
0
 10
207.3163633734421
 20
160.52269728232659
 30
0.0
  0
VERTEX
  5
7F5
  8
0
 10
207.3163633734421
 20
161.1885602482578
 30
0.0
  0
VERTEX
  5
7F6
  8
0
 10
207.3163633734421
 20
161.8416679822225
 30
0.0
  0
VERTEX
  5
7F7
  8
0
 10
207.3163633734421
 20
162.48144015894979
 30
0.0
  0
VERTEX
  5
7F8
  8
0
 10
207.3163633734421
 20
163.10730830260891
 30
0.0
  0
VERTEX
  5
7F9
  8
0
 10
207.3163633734421
 20
163.7187162919337
 30
0.0
  0
VERTEX
  5
7FA
  8
0
 10
207.3163633734421
 20
164.31512085436981
 30
0.0
  0
VERTEX
  5
7FB
  8
0
 10
207.3163633734421
 20
164.89599204880449
 30
0.0
  0
VERTEX
  5
7FC
  8
0
 10
207.3163633734421
 20
165.4608137364514
 30
0.0
  0
VERTEX
  5
7FD
  8
0
 10
207.3163633734421
 20
166.00908403947059
 30
0.0
  0
VERTEX
  5
7FE
  8
0
 10
207.3163633734421
 20
166.54031578691681
 30
0.0
  0
VERTEX
  5
7FF
  8
0
 10
207.3163633734421
 20
167.0540369476202
 30
0.0
  0
VERTEX
  5
800
  8
0
 10
207.3163633734421
 20
167.54979104961441
 30
0.0
  0
VERTEX
  5
801
  8
0
 10
207.3163633734421
 20
168.0271375857385
 30
0.0
  0
VERTEX
  5
802
  8
0
 10
207.3163633734421
 20
168.48565240505499
 30
0.0
  0
VERTEX
  5
803
  8
0
 10
207.3163633734421
 20
168.9249280897323
 30
0.0
  0
VERTEX
  5
804
  8
0
 10
207.3163633734421
 20
169.34457431706039
 30
0.0
  0
VERTEX
  5
805
  8
0
 10
207.3163633734421
 20
169.7442182062758
 30
0.0
  0
VERTEX
  5
806
  8
0
 10
207.3163633734421
 20
170.1235046498883
 30
0.0
  0
VERTEX
  5
807
  8
0
 10
207.3163633734421
 20
170.48209662921539
 30
0.0
  0
VERTEX
  5
808
  8
0
 10
207.3163633734421
 20
170.81967551384321
 30
0.0
  0
VERTEX
  5
809
  8
0
 10
207.3163633734421
 20
171.135941344749
 30
0.0
  0
VERTEX
  5
80A
  8
0
 10
207.3163633734421
 20
171.43061310083269
 30
0.0
  0
VERTEX
  5
80B
  8
0
 10
207.3163633734421
 20
171.70342894862051
 30
0.0
  0
VERTEX
  5
80C
  8
0
 10
207.3163633734421
 20
171.95414647492021
 30
0.0
  0
VERTEX
  5
80D
  8
0
 10
207.3163633734421
 20
172.18254290221921
 30
0.0
  0
VERTEX
  5
80E
  8
0
 10
207.3163633734421
 20
172.38841528663619
 30
0.0
  0
VERTEX
  5
80F
  8
0
 10
207.3163633734421
 20
172.57158069824851
 30
0.0
  0
VERTEX
  5
810
  8
0
 10
207.3163633734421
 20
172.7318763836366
 30
0.0
  0
VERTEX
  5
811
  8
0
 10
207.3163633734421
 20
172.86915991049989
 30
0.0
  0
VERTEX
  5
812
  8
0
 10
207.3163633734421
 20
172.9833092942167
 30
0.0
  0
VERTEX
  5
813
  8
0
 10
207.3163633734421
 20
173.0742231062344
 30
0.0
  0
VERTEX
  5
814
  8
0
 10
207.3163633734421
 20
173.14182056419551
 30
0.0
  0
VERTEX
  5
815
  8
0
 10
207.3163633734421
 20
173.186041603717
 30
0.0
  0
VERTEX
  5
816
  8
0
 10
207.3163633734421
 20
173.20684693176119
 30
0.0
  0
VERTEX
  5
817
  8
0
 10
207.3163633734421
 20
173.20860955865459
 30
0.0
  0
SEQEND
  5
818
  8
0
  0
LINE
  5
4AC
  8
0
 10
177.81636337344179
 20
122.3336095586547
 30
0.0
 11
205.44136337344179
 21
122.3336095586546
 31
0.0
  0
LINE
  5
4AD
  8
0
 10
205.4413633734421
 20
171.33360955865459
 30
0.0
 11
177.81636337344199
 21
171.3336095586547
 31
0.0
  0
LINE
  5
4AE
  8
0
 10
210.1913633734421
 20
144.83360955865459
 30
0.0
 11
210.1913633734421
 21
148.83360955865459
 31
0.0
  0
LINE
  5
4AF
  8
0
 10
210.1913633734421
 20
148.83360955865459
 30
0.0
 11
210.1913633734421
 21
144.83360955865459
 31
0.0
  0
LINE
  5
4B0
  8
0
 10
207.5663633734421
 20
120.3336095586546
 30
0.0
 11
207.5663633734421
 21
173.33360955865459
 31
0.0
  0
LINE
  5
4B1
  8
0
 10
207.5663633734421
 20
173.33360955865459
 30
0.0
 11
207.5663633734421
 21
120.3336095586546
 31
0.0
  0
LINE
  5
4B2
  8
0
 10
207.3163633734421
 20
120.3336095586546
 30
0.0
 11
207.3163633734421
 21
173.33360955865459
 31
0.0
  0
LINE
  5
4B3
  8
0
 10
207.3163633734421
 20
173.33360955865459
 30
0.0
 11
207.3163633734421
 21
120.3336095586546
 31
0.0
  0
LINE
  5
4B4
  8
0
 10
177.81636337344179
 20
122.3336095586547
 30
0.0
 11
177.81636337344199
 21
171.3336095586547
 31
0.0
  0
LINE
  5
4B5
  8
0
 10
177.81636337344199
 20
171.3336095586547
 30
0.0
 11
177.81636337344179
 21
122.3336095586547
 31
0.0
  0
LINE
  5
4B7
  8
0
 10
179.3163633734423
 20
181.2711095586545
 30
0.0
 11
179.31636337344179
 21
112.3961095586545
 31
0.0
  0
LINE
  5
4BA
  8
0
 10
177.81636337344179
 20
112.3961095586545
 30
0.0
 11
177.8163633734423
 21
181.2711095586545
 31
0.0
  0
LINE
  5
4BC
  8
0
 10
177.8163633734423
 20
181.2711095586545
 30
0.0
 11
179.3163633734423
 21
181.2711095586545
 31
0.0
  0
LINE
  5
4BD
  8
0
 10
177.81636337344179
 20
112.3961095586545
 30
0.0
 11
179.31636337344179
 21
112.3961095586545
 31
0.0
  0
LINE
  5
4BF
  8
0
 10
195.9604891108859
 20
119.8336095588503
 30
0.0
 11
198.96994346088081
 21
119.8336095588502
 31
0.0
  0
LINE
  5
4C1
  8
0
 10
198.9699434608809
 20
122.3336095586546
 30
0.0
 11
198.96994346088081
 21
120.22510116334399
 31
0.0
  0
LINE
  5
4C2
  8
0
 10
198.96994346088081
 20
119.8336095588502
 30
0.0
 11
198.96994346088081
 21
122.3336095586546
 31
0.0
  0
LINE
  5
4C3
  8
0
 10
195.9604891108861
 20
122.3336095586546
 30
0.0
 11
195.9604891108861
 21
120.22510116334421
 31
0.0
  0
LINE
  5
4C4
  8
0
 10
195.9604891108859
 20
119.8336095588503
 30
0.0
 11
195.9604891108859
 21
122.3336095586546
 31
0.0
  0
LINE
  5
4C8
  8
0
 10
181.2028961091994
 20
117.3336095586545
 30
0.0
 11
195.1961486479135
 21
117.3336095586545
 31
0.0
  0
LINE
  5
4C9
  8
0
 10
195.1961486479135
 20
117.3336095586545
 30
0.0
 11
195.19614864791359
 21
122.3336095586546
 31
0.0
  0
LINE
  5
4CA
  8
0
 10
195.19614864791359
 20
122.3336095586546
 30
0.0
 11
195.1961486479135
 21
117.3336095586545
 31
0.0
  0
LINE
  5
4CB
  8
0
 10
181.2028961091994
 20
117.3336095586545
 30
0.0
 11
181.2028961091994
 21
122.3336095586546
 31
0.0
  0
LINE
  5
4CC
  8
0
 10
181.2028961091994
 20
122.3336095586546
 30
0.0
 11
181.2028961091994
 21
117.3336095586545
 31
0.0
  0
LINE
  5
4CE
  8
0
 10
166.3163633734425
 20
182.8961095586584
 30
0.0
 11
166.31636337344199
 21
110.77110955865859
 31
0.0
  0
LINE
  5
4D1
  8
0
 10
137.5663633734425
 20
110.77110955865869
 30
0.0
 11
137.5663633734427
 21
182.89610955865851
 31
0.0
  0
LINE
  5
4D3
  8
0
 10
137.5663633734427
 20
182.89610955865851
 30
0.0
 11
166.3163633734425
 21
182.8961095586584
 31
0.0
  0
LINE
  5
4D4
  8
0
 10
137.5663633734425
 20
110.77110955865869
 30
0.0
 11
166.31636337344199
 21
110.77110955865859
 31
0.0
  0
LINE
  5
4D5
  8
0
 10
116.8163633734421
 20
110.77110955865849
 30
0.0
 11
179.3163633734421
 21
110.7711095586583
 31
0.0
  0
LINE
  5
4D6
  8
0
 10
179.3163633734421
 20
110.7711095586583
 30
0.0
 11
179.3163633734423
 21
182.89610955865831
 31
0.0
  0
LINE
  5
4D7
  8
0
 10
179.3163633734423
 20
182.89610955865831
 30
0.0
 11
116.8163633734423
 21
182.89610955865851
 31
0.0
  0
LINE
  5
4D8
  8
0
 10
116.8163633734423
 20
182.89610955865851
 30
0.0
 11
116.8163633734423
 21
181.27110955865999
 31
0.0
  0
LINE
  5
4D9
  8
0
 10
116.8163633734423
 20
181.27110955865999
 30
0.0
 11
130.46904490325321
 21
181.2711095586599
 31
0.0
  0
LINE
  5
4DA
  8
0
 10
130.46904490325269
 20
181.2711095586599
 30
0.0
 11
130.4690449032523
 21
112.3961095586599
 31
0.0
1001
ACAD
1000
ASC_BOUNDS
1002
{
1070
    19
1005
52B
1002
}
  0
LINE
  5
4DB
  8
0
 10
130.46904490325301
 20
112.3961095586599
 30
0.0
 11
116.8163633734421
 21
112.39610955866
 31
0.0
  0
LINE
  5
4DC
  8
0
 10
116.8163633734421
 20
112.39610955866
 30
0.0
 11
116.8163633734421
 21
110.77110955865849
 31
0.0
  0
LINE
  5
4DE
  8
0
 10
116.8163633734421
 20
112.39610955865911
 30
0.0
 11
116.8163633734423
 21
181.27110955865911
 31
0.0
  0
LINE
  5
4E6
  8
0
 10
179.3163633734423
 20
181.27110955865871
 30
0.0
 11
179.3163633734421
 21
112.39610955865859
 31
0.0
  0
LINE
  5
4EB
  8
0
 10
116.8163633734423
 20
181.27110955865911
 30
0.0
 11
119.3163633734423
 21
181.27110955865911
 31
0.0
  0
LINE
  5
4EC
  8
0
 10
119.3163633734423
 20
181.27110955865911
 30
0.0
 11
130.46904490325321
 21
181.2711095586599
 31
0.0
1001
ACAD
1000
ASC_BOUNDS
1002
{
1070
    19
1005
52B
1002
}
  0
LINE
  5
4ED
  8
0
 10
130.46904490325301
 20
112.3961095586599
 30
0.0
 11
119.316363373442
 21
112.39610955865911
 31
0.0
1001
ACAD
1000
ASC_BOUNDS
1002
{
1070
    19
1005
52B
1002
}
  0
LINE
  5
4EE
  8
0
 10
119.316363373442
 20
112.39610955865911
 30
0.0
 11
116.8163633734421
 21
112.39610955865911
 31
0.0
  0
LINE
  5
4EF
  8
0
 10
119.3163633734423
 20
181.27110955865911
 30
0.0
 11
119.316363373442
 21
112.39610955865911
 31
0.0
1001
ACAD
1000
ASC_BOUNDS
1002
{
1070
    19
1005
52B
1002
}
  0
LINE
  5
4F1
  8
0
 10
177.81636337344179
 20
112.39610955865869
 30
0.0
 11
177.81636337344199
 21
181.27110955865871
 31
0.0
  0
LINE
  5
4F3
  8
0
 10
179.31636337344179
 20
112.39610955865859
 30
0.0
 11
177.81636337344179
 21
112.39610955865869
 31
0.0
  0
LINE
  5
4F4
  8
0
 10
179.3163633734421
 20
181.27110955865871
 30
0.0
 11
177.81636337344199
 21
181.27110955865871
 31
0.0
  0
LINE
  5
4FB
  8
0
 10
162.56636337344199
 20
110.7711095586584
 30
0.0
 11
162.56636337344199
 21
110.5211095586584
 31
0.0
  0
LINE
  5
4FC
  8
0
 10
163.06636337344199
 20
110.5211095586584
 30
0.0
 11
163.06636337344199
 21
110.7711095586584
 31
0.0
  0
LINE
  5
4FD
  8
0
 10
163.06636337344199
 20
110.7711095586584
 30
0.0
 11
162.56636337344199
 21
110.7711095586584
 31
0.0
  0
LINE
  5
4FE
  8
0
 10
162.56636337344199
 20
110.7711095586584
 30
0.0
 11
163.06636337344199
 21
110.7711095586584
 31
0.0
  0
LINE
  5
4FF
  8
0
 10
163.06636337344199
 20
110.5211095586584
 30
0.0
 11
162.56636337344199
 21
110.5211095586584
 31
0.0
  0
LINE
  5
500
  8
0
 10
162.56636337344199
 20
110.5211095586584
 30
0.0
 11
163.06636337344199
 21
110.5211095586584
 31
0.0
  0
ARC
  5
501
  8
0
 10
162.44136337344179
 20
146.83360955865419
 30
0.0
 40
2.9999999999999978
 50
90.0
 51
270.0
  0
ARC
  5
502
  8
0
 10
162.44136337344179
 20
146.83360955865419
 30
0.0
 40
2.999999999999996
 50
270.0
 51
90.0
  0
LINE
  5
503
  8
0
 10
171.06636337344199
 20
110.7711095586584
 30
0.0
 11
171.06636337344199
 21
110.5211095586584
 31
0.0
  0
LINE
  5
504
  8
0
 10
177.0663633734421
 20
110.5211095586583
 30
0.0
 11
177.0663633734421
 21
110.7711095586583
 31
0.0
  0
LINE
  5
505
  8
0
 10
158.81636337344199
 20
110.7711095586584
 30
0.0
 11
158.81636337344199
 21
110.5211095586584
 31
0.0
  0
LINE
  5
506
  8
0
 10
161.81636337344199
 20
110.5211095586584
 30
0.0
 11
161.81636337344199
 21
110.7711095586584
 31
0.0
  0
LINE
  5
507
  8
0
 10
159.3163633734421
 20
110.7711095586584
 30
0.0
 11
159.3163633734421
 21
110.5211095586584
 31
0.0
  0
LINE
  5
508
  8
0
 10
161.3163633734421
 20
110.5211095586584
 30
0.0
 11
161.3163633734421
 21
110.7711095586584
 31
0.0
  0
LINE
  5
509
  8
0
 10
177.0663633734421
 20
110.7711095586583
 30
0.0
 11
171.06636337344199
 21
110.7711095586584
 31
0.0
  0
LINE
  5
50A
  8
0
 10
171.06636337344199
 20
110.7711095586584
 30
0.0
 11
177.0663633734421
 21
110.7711095586583
 31
0.0
  0
LINE
  5
50B
  8
0
 10
161.81636337344199
 20
110.7711095586584
 30
0.0
 11
158.81636337344199
 21
110.7711095586584
 31
0.0
  0
LINE
  5
50C
  8
0
 10
158.81636337344199
 20
110.7711095586584
 30
0.0
 11
161.81636337344199
 21
110.7711095586584
 31
0.0
  0
LINE
  5
50D
  8
0
 10
161.3163633734421
 20
110.7711095586584
 30
0.0
 11
159.3163633734421
 21
110.7711095586584
 31
0.0
  0
LINE
  5
50E
  8
0
 10
159.3163633734421
 20
110.7711095586584
 30
0.0
 11
161.3163633734421
 21
110.7711095586584
 31
0.0
  0
LINE
  5
50F
  8
0
 10
177.0663633734421
 20
110.5211095586583
 30
0.0
 11
171.06636337344199
 21
110.5211095586584
 31
0.0
  0
LINE
  5
510
  8
0
 10
171.06636337344199
 20
110.5211095586584
 30
0.0
 11
177.0663633734421
 21
110.5211095586583
 31
0.0
  0
LINE
  5
511
  8
0
 10
161.81636337344199
 20
110.5211095586584
 30
0.0
 11
158.81636337344199
 21
110.5211095586584
 31
0.0
  0
LINE
  5
512
  8
0
 10
158.81636337344199
 20
110.5211095586584
 30
0.0
 11
161.81636337344199
 21
110.5211095586584
 31
0.0
  0
LINE
  5
513
  8
0
 10
161.3163633734421
 20
110.5211095586584
 30
0.0
 11
159.3163633734421
 21
110.5211095586584
 31
0.0
  0
LINE
  5
514
  8
0
 10
159.3163633734421
 20
110.5211095586584
 30
0.0
 11
161.3163633734421
 21
110.5211095586584
 31
0.0
  0
INSERT
  5
522
  8
0
  6
CONTINUOUS
  2
*X3
 10
0.0
 20
0.0
 30
0.0
1001
GRADIENTCOLOR1ACI
1070
     5
1001
GRADIENTCOLOR2ACI
1070
     2
1001
ACAD
1000
HATCH
1002
{
1070
    19
1000
ANSI31
1040
12.0
1040
0.7853981633974483
1000
ASC_BOUNDS
1070
     1
1070
     1
1070
     4
1005
49F
1005
4A0
1005
4A1
1005
49C
1000
ASC_SEEDPOINT
1011
24.89624058572883
1021
0.0
1031
0.0
1021
44.776307939508847
1031
0.0
1000
R14_HATCH_DATA
1000
522
1011
1.0
1021
0.0
1031
0.0
1021
0.0
1031
0.0
1011
0.0
1021
0.0
1031
0.0
1021
1.0
1031
0.0
1011
0.0
1021
0.0
1031
0.0
1021
0.0
1031
1.0
1040
0.0
1010
0.0
1020
0.0
1030
1.0
1000
ANSI31
1070
     0
1070
     1
1071
        1
1071
        7
1070
     0
1070
     1
1071
        4
1040
70.500004737583822
1040
78.249998468189247
1040
1.6250047375838219
1040
78.249998468189247
1040
1.625004737584731
1040
14.999998468190761
1040
70.500004737584732
1040
14.9999984681917
1071
        4
1005
49C
1005
4A1
1005
4A0
1005
49F
1070
     1
1070
     1
1040
0.7853981633974483
1040
12.0
1070
     0
1070
     1
1040
1.5707963267948959
1040
0.0
1040
0.0
1040
-1.5
1040
0.0000000000000002
1070
     0
1040
0.083281053408815
1071
        1
1040
24.89624058572883
1040
44.776307939508847
1040
0.0
1002
}
  0
INSERT
  5
52B
  8
0
  6
CONTINUOUS
  2
*X4
 10
0.0
 20
0.0
 30
0.0
1001
GRADIENTCOLOR1ACI
1070
     5
1001
GRADIENTCOLOR2ACI
1070
     2
1001
ACAD
1000
HATCH
1002
{
1070
    19
1000
ANSI31
1040
12.0
1040
2.3561944901923439
1000
ASC_BOUNDS
1070
     1
1070
     1
1070
     4
1005
4DA
1005
4ED
1005
4EF
1005
4EC
1000
ASC_SEEDPOINT
1011
124.8347783558449
1021
0.0
1031
0.0
1021
151.65952472946259
1031
0.0
1000
R14_HATCH_DATA
1000
52B
1011
1.0
1021
0.0
1031
0.0
1021
0.0
1031
0.0
1011
0.0
1021
0.0
1031
0.0
1021
1.0
1031
0.0
1011
0.0
1021
0.0
1031
0.0
1021
0.0
1031
1.0
1040
0.0
1010
0.0
1020
0.0
1030
1.0
1000
ANSI31
1070
     0
1070
     1
1071
        1
1071
        7
1070
     0
1070
     1
1071
        4
1040
130.46904490325269
1040
181.2711095586599
1040
119.3163633734423
1040
181.27110955865911
1040
119.316363373442
1040
112.39610955865911
1040
130.4690449032523
1040
112.3961095586599
1071
        4
1005
4EC
1005
4EF
1005
4ED
1005
4DA
1070
     1
1070
     1
1040
2.3561944901923439
1040
12.0
1070
     0
1070
     1
1040
3.1415926535897931
1040
0.0
1040
0.0
1040
-0.0000000000000002
1040
-1.5
1070
     0
1040
0.1339808832025213
1071
        1
1040
124.8347783558449
1040
151.65952472946259
1040
0.0
1002
}
  0
ENDSEC
  0
EOF
