  0
SECTION
  2
HEADER
  9
$ACADVER
  1
AC1009
  9
$INSBASE
 10
0.0
 20
0.0
 30
0.0
  9
$EXTMIN
 10
-0.0155533784363797
 20
-0.0089820814730501
 30
-0.0015258207003583
  9
$EXTMAX
 10
509.64233573822543
 20
294.35628573820208
 30
0.0000000349246037
  9
$LIMMIN
 10
0.0
 20
0.0
  9
$LIMMAX
 10
12.0
 20
9.0
  9
$ORTHOMODE
 70
     1
  9
$REGENMODE
 70
     1
  9
$FILLMODE
 70
     1
  9
$QTEXTMODE
 70
     0
  9
$MIRRTEXT
 70
     0
  9
$DRAGMODE
 70
     2
  9
$LTSCALE
 40
48.0
  9
$OSMODE
 70
    37
  9
$ATTMODE
 70
     1
  9
$TEXTSIZE
 40
0.2
  9
$TRACEWID
 40
0.05
  9
$TEXTSTYLE
  7
ROMANS
  9
$CLAYER
  8
0
  9
$CELTYPE
  6
BYLAYER
  9
$CECOLOR
 62
   256
  9
$DIMSCALE
 40
1.0
  9
$DIMASZ
 40
0.09375
  9
$DIMEXO
 40
0.0625
  9
$DIMDLI
 40
0.375
  9
$DIMRND
 40
0.0
  9
$DIMDLE
 40
0.0
  9
$DIMEXE
 40
0.03125
  9
$DIMTP
 40
0.0
  9
$DIMTM
 40
0.0
  9
$DIMTXT
 40
0.09375
  9
$DIMCEN
 40
0.09375
  9
$DIMTSZ
 40
0.0
  9
$DIMTOL
 70
     0
  9
$DIMLIM
 70
     0
  9
$DIMTIH
 70
     0
  9
$DIMTOH
 70
     0
  9
$DIMSE1
 70
     0
  9
$DIMSE2
 70
     0
  9
$DIMTAD
 70
     0
  9
$DIMZIN
 70
     0
  9
$DIMBLK
  1

  9
$DIMASO
 70
     1
  9
$DIMSHO
 70
     1
  9
$DIMPOST
  1

  9
$DIMAPOST
  1

  9
$DIMALT
 70
     0
  9
$DIMALTD
 70
     2
  9
$DIMALTF
 40
25.399999999999999
  9
$DIMLFAC
 40
1.0
  9
$DIMTOFL
 70
     0
  9
$DIMTVP
 40
0.0
  9
$DIMTIX
 70
     0
  9
$DIMSOXD
 70
     0
  9
$DIMSAH
 70
     0
  9
$DIMBLK1
  1

  9
$DIMBLK2
  1

  9
$DIMSTYLE
  2
BAC
  9
$DIMCLRD
 70
     0
  9
$DIMCLRE
 70
     6
  9
$DIMCLRT
 70
     0
  9
$DIMTFAC
 40
1.0
  9
$DIMGAP
 40
0.0625
  9
$LUNITS
 70
     5
  9
$LUPREC
 70
     6
  9
$SKETCHINC
 40
0.1
  9
$FILLETRAD
 40
0.5
  9
$AUNITS
 70
     0
  9
$AUPREC
 70
     0
  9
$MENU
  1
.
  9
$ELEVATION
 40
0.0
  9
$PELEVATION
 40
0.0
  9
$THICKNESS
 40
0.0
  9
$LIMCHECK
 70
     0
  9
$BLIPMODE
 70
     0
  9
$CHAMFERA
 40
0.5
  9
$CHAMFERB
 40
0.5
  9
$SKPOLY
 70
     0
  9
$TDCREATE
 40
2456825.7002574308
  9
$TDUPDATE
 40
2456825.7027233099
  9
$TDINDWG
 40
0.0024679167
  9
$TDUSRTIMER
 40
0.0024673148
  9
$USRTIMER
 70
     1
  9
$ANGBASE
 50
0.0
  9
$ANGDIR
 70
     0
  9
$PDMODE
 70
     0
  9
$PDSIZE
 40
0.0
  9
$PLINEWID
 40
0.0
  9
$COORDS
 70
     1
  9
$SPLFRAME
 70
     0
  9
$SPLINETYPE
 70
     6
  9
$SPLINESEGS
 70
     8
  9
$ATTDIA
 70
     0
  9
$ATTREQ
 70
     1
  9
$HANDLING
 70
     1
  9
$HANDSEED
  5
657
  9
$SURFTAB1
 70
     6
  9
$SURFTAB2
 70
     6
  9
$SURFTYPE
 70
     6
  9
$SURFU
 70
     6
  9
$SURFV
 70
     6
  9
$UCSNAME
  2

  9
$UCSORG
 10
0.0
 20
0.0
 30
0.0
  9
$UCSXDIR
 10
1.0
 20
0.0
 30
0.0
  9
$UCSYDIR
 10
0.0
 20
1.0
 30
0.0
  9
$PUCSNAME
  2

  9
$PUCSORG
 10
0.0
 20
0.0
 30
0.0
  9
$PUCSXDIR
 10
1.0
 20
0.0
 30
0.0
  9
$PUCSYDIR
 10
0.0
 20
1.0
 30
0.0
  9
$USERI1
 70
     0
  9
$USERI2
 70
     0
  9
$USERI3
 70
     0
  9
$USERI4
 70
     0
  9
$USERI5
 70
     0
  9
$USERR1
 40
0.0
  9
$USERR2
 40
0.0
  9
$USERR3
 40
0.0
  9
$USERR4
 40
0.0
  9
$USERR5
 40
0.0
  9
$WORLDVIEW
 70
     1
  9
$SHADEDGE
 70
     3
  9
$SHADEDIF
 70
    70
  9
$TILEMODE
 70
     1
  9
$MAXACTVP
 70
    48
  9
$PLIMCHECK
 70
     0
  9
$PEXTMIN
 10
1.0000000000000000E+020
 20
1.0000000000000000E+020
 30
1.0000000000000000E+020
  9
$PEXTMAX
 10
-1.0000000000000000E+020
 20
-1.0000000000000000E+020
 30
-1.0000000000000000E+020
  9
$PLIMMIN
 10
0.0
 20
0.0
  9
$PLIMMAX
 10
12.0
 20
9.0
  9
$UNITMODE
 70
     0
  9
$VISRETAIN
 70
     1
  9
$PLINEGEN
 70
     0
  9
$PSLTSCALE
 70
     1
  0
ENDSEC
  0
SECTION
  2
TABLES
  0
TABLE
  2
VPORT
 70
     1
  0
VPORT
  2
*ACTIVE
 70
     0
 10
0.0
 20
0.0
 11
1.0
 21
1.0
 12
254.8133911798945
 22
147.17365182836451
 13
0.0
 23
0.0
 14
0.5
 24
0.5
 15
0.5
 25
0.5
 16
0.0
 26
0.0
 36
1.0
 17
0.0
 27
0.0
 37
0.0
 40
296.32335164109207
 41
1.7702552719200879
 42
50.0
 43
0.0
 44
0.0
 50
0.0
 51
0.0
 71
     0
 72
   100
 73
     1
 74
     1
 75
     0
 76
     0
 77
     0
 78
     0
  0
ENDTAB
  0
TABLE
  2
LTYPE
 70
    20
  0
LTYPE
  2
CONTINUOUS
 70
     0
  3
Solid line
 72
    65
 73
     0
 40
0.0
  0
LTYPE
  2
CENTER
 70
     0
  3
Center ____ _ ____ _ ____ _ ____ _ ____ _ ____
 72
    65
 73
     4
 40
2.0
 49
1.25
 49
-0.25
 49
0.25
 49
-0.25
  0
LTYPE
  2
CENTER2
 70
     0
  3
Center (.5x) ___ _ ___ _ ___ _ ___ _ ___ _ ___
 72
    65
 73
     4
 40
1.125
 49
0.75
 49
-0.125
 49
0.125
 49
-0.125
  0
LTYPE
  2
HIDDEN
 70
     0
  3
Hidden __ __ __ __ __ __ __ __ __ __ __ __ __ _
 72
    65
 73
     2
 40
0.375
 49
0.25
 49
-0.125
  0
LTYPE
  2
HIDDEN2
 70
     0
  3
Hidden (.5x) _ _ _ _ _ _ _ _ _ _ _ _ _ _ _ _ _
 72
    65
 73
     2
 40
0.1875
 49
0.125
 49
-0.0625
  0
LTYPE
  2
PHANTOM2
 70
     0
  3
Phantom (.5x) ___ _ _ ___ _ _ ___ _ _ ___ _ _
 72
    65
 73
     6
 40
1.25
 49
0.625
 49
-0.125
 49
0.125
 49
-0.125
 49
0.125
 49
-0.125
  0
LTYPE
  2
AMCONSTR
 70
     0
  3
_______________________
 72
    65
 73
     2
 40
9999.0
 49
9999.0
 49
0.0
  0
LTYPE
  2
AMZIGZAG2
 70
     0
  3
/\/-/\/-/\/-/\/-/\/-/\/
 72
    65
 73
     2
 40
0.4401
 49
0.0001
 49
-0.4400000000000001
  0
LTYPE
  2
ACANSTGB
 70
     0
  3
__ . . __ . .
 72
    65
 73
     6
 40
0.35433070866
 49
0.15748031496
 49
-0.03937007874
 49
0.03937007874
 49
-0.03937007874
 49
0.03937007874
 49
-0.03937007874
  0
LTYPE
  2
ACANSTGL
 70
     0
  3
_ _ _ _ _
 72
    65
 73
     2
 40
0.11811023622
 49
0.07874015748
 49
-0.03937007874
  0
ENDTAB
  0
TABLE
  2
LAYER
 70
     8
  0
LAYER
  2
0
 70
     0
 62
     7
  6
CONTINUOUS
  0
ENDTAB
  0
TABLE
  2
STYLE
 70
    11
  0
STYLE
  2
STANDARD
 70
     0
 40
0.0
 41
1.0
 50
0.0
 71
     0
 42
0.2
  3
txt
  4

  0
STYLE
  2
ROMANS
 70
     0
 40
0.0
 41
0.75
 50
0.0
 71
     0
 42
0.2
  3
romans.shx
  4

  0
STYLE
  2

 70
     1
 40
0.0
 41
1.0
 50
0.0
 71
     0
 42
0.2
  3
genltshp.shx
  4

  0
STYLE
  2
ACANSGDT
 70
     0
 40
0.0
 41
1.0
 50
0.0
 71
     0
 42
0.2
  3
amgdt.shx
  4

  0
ENDTAB
  0
TABLE
  2
VIEW
 70
     0
  0
ENDTAB
  0
TABLE
  2
UCS
 70
     0
  0
ENDTAB
  0
TABLE
  2
APPID
 70
    15
  0
APPID
  2
ACAD
 70
     0
  0
APPID
  2
ACAD_MLEADERVER
 70
     0
  0
APPID
  2
ACAD_DSTYLE_DIMJAG
 70
     0
  0
APPID
  2
ACAD_DSTYLE_DIMTALN
 70
     0
  0
APPID
  2
ACAD_PSEXT
 70
     0
  0
APPID
  2
ACADANNOPO
 70
     0
  0
APPID
  2
MCAD_NO_VIS
 70
     0
  0
APPID
  2
ACAD_TEMP_GRAPHIC
 70
     0
  0
APPID
  2
ACATTRIBSERVICES
 70
     0
  0
APPID
  2
DESIGNERASSEMBLIES
 70
     0
  0
APPID
  2
ACAD_DSTYLE_DIMBREAK
 70
     0
  0
APPID
  2
ACAD_NAV_VCDISPLAY
 70
     0
  0
APPID
  2
GRADIENTCOLOR1ACI
 70
     0
  0
APPID
  2
GRADIENTCOLOR2ACI
 70
     0
  0
APPID
  2
ACAD_EXEMPT_FROM_CAD_STANDARDS
 70
     0
  0
ENDTAB
  0
TABLE
  2
DIMSTYLE
 70
    14
  0
DIMSTYLE
  2
BAC
 70
     0
  3

  4

  5

  6

  7

 40
1.0
 41
0.09375
 42
0.0625
 43
0.375
 44
0.03125
 45
0.0
 46
0.0
 47
0.0
 48
0.0
140
0.09375
141
0.09375
142
0.0
143
25.399999999999999
144
1.0
145
0.0
146
1.0
147
0.0625
 71
     0
 72
     0
 73
     0
 74
     0
 75
     0
 76
     0
 77
     0
 78
     0
170
     0
171
     2
172
     0
173
     0
174
     0
175
     0
176
     0
177
     6
178
     0
  0
DIMSTYLE
  2
AM_ANSI
 70
     0
  3

  4
mm
  5

  6

  7

 40
1.0
 41
0.12
 42
0.05
 43
0.5
 44
0.1
 45
0.0
 46
0.0
 47
0.1
 48
0.1
140
0.12
141
0.0
142
0.0
143
25.399999999999999
144
1.0
145
0.0
146
0.71
147
0.06
 71
     0
 72
     0
 73
     1
 74
     1
 75
     0
 76
     0
 77
     0
 78
     7
170
     0
171
     2
172
     0
173
     0
174
     0
175
     0
176
   256
177
   256
178
     2
  0
DIMSTYLE
  2
AM_ANSI$3
 70
     0
  3

  4
mm
  5

  6

  7

 40
1.0
 41
0.12
 42
0.05
 43
0.5
 44
0.1
 45
0.0
 46
0.0
 47
0.1
 48
0.1
140
0.12
141
0.0
142
0.0
143
25.399999999999999
144
1.0
145
0.0
146
0.71
147
0.06
 71
     0
 72
     0
 73
     1
 74
     1
 75
     0
 76
     0
 77
     0
 78
     7
170
     0
171
     2
172
     0
173
     0
174
     0
175
     0
176
   256
177
   256
178
     2
  0
DIMSTYLE
  2
AM_ANSI$4
 70
     0
  3

  4
mm
  5

  6

  7

 40
1.0
 41
0.12
 42
0.05
 43
0.5
 44
0.1
 45
0.0
 46
0.0
 47
0.1
 48
0.1
140
0.12
141
0.0
142
0.0
143
25.399999999999999
144
1.0
145
0.0
146
0.71
147
0.06
 71
     0
 72
     0
 73
     1
 74
     1
 75
     0
 76
     0
 77
     0
 78
     7
170
     0
171
     2
172
     0
173
     0
174
     0
175
     0
176
   256
177
   256
178
     2
  0
DIMSTYLE
  2
AM_ANSI$7
 70
     0
  3

  4
mm
  5

  6

  7

 40
1.0
 41
0.12
 42
0.05
 43
0.5
 44
0.1
 45
0.0
 46
0.0
 47
0.1
 48
0.1
140
0.12
141
0.0
142
0.0
143
25.399999999999999
144
1.0
145
0.0
146
0.71
147
0.06
 71
     0
 72
     0
 73
     1
 74
     1
 75
     0
 76
     0
 77
     0
 78
     7
170
     0
171
     2
172
     0
173
     0
174
     0
175
     0
176
   256
177
   256
178
     2
  0
DIMSTYLE
  2
AM_ANSI$SF
 70
     0
  3

  4
mm
  5

  6

  7

 40
1.0
 41
0.12
 42
0.05
 43
0.5
 44
0.1
 45
0.0
 46
0.0
 47
0.1
 48
0.1
140
0.12
141
0.0
142
0.0
143
25.399999999999999
144
1.0
145
0.0
146
0.71
147
0.06
 71
     0
 72
     0
 73
     1
 74
     1
 75
     1
 76
     1
 77
     0
 78
     7
170
     0
171
     2
172
     0
173
     0
174
     0
175
     0
176
   256
177
   256
178
     2
  0
DIMSTYLE
  2
AM_ANSI$SH
 70
     0
  3

  4
mm
  5

  6
GENAXEH
  7

 40
1.0
 41
0.12
 42
0.05
 43
0.5
 44
0.1
 45
0.0
 46
0.0
 47
0.1
 48
0.1
140
0.12
141
0.0
142
0.0
143
25.399999999999999
144
1.0
145
0.0
146
0.71
147
0.06
 71
     0
 72
     0
 73
     1
 74
     1
 75
     1
 76
     1
 77
     0
 78
     7
170
     0
171
     2
172
     0
173
     1
174
     0
175
     0
176
   256
177
   256
178
     2
  0
DIMSTYLE
  2
STANDARD
 70
     0
  3

  4

  5

  6

  7

 40
1.0
 41
0.18
 42
0.0625
 43
0.38
 44
0.18
 45
0.0
 46
0.0
 47
0.0
 48
0.0
140
0.18
141
0.09
142
0.0
143
25.399999999999999
144
1.0
145
0.0
146
1.0
147
0.09
 71
     0
 72
     0
 73
     1
 74
     1
 75
     0
 76
     0
 77
     0
 78
     0
170
     0
171
     2
172
     0
173
     0
174
     0
175
     0
176
     0
177
     0
178
     0
  0
ENDTAB
  0
ENDSEC
  0
SECTION
  2
BLOCKS
  0
BLOCK
  8
0
  2
$MODEL_SPACE
 70
     0
 10
0.0
 20
0.0
 30
0.0
  3
$MODEL_SPACE
  1

  0
ENDBLK
  5
1A
  8
0
  0
BLOCK
 67
     1
  8
0
  2
$PAPER_SPACE
 70
     0
 10
0.0
 20
0.0
 30
0.0
  3
$PAPER_SPACE
  1

  0
ENDBLK
  5
17
 67
     1
  8
0
  0
BLOCK
  8
0
  2
*U0
 70
     1
 10
0.0
 20
0.0
 30
0.0
  3
*U0
  1

  0
ENDBLK
  5
17A
  8
0
  0
BLOCK
  8
0
  2
GENAXEH
 70
     0
 10
0.0
 20
0.0
 30
0.0
  3
GENAXEH
  1

  0
LINE
  5
1AD
  8
0
 10
-1.0
 20
0.0
 30
0.0
 11
1.0
 21
0.0
 31
0.0
  0
ENDBLK
  5
1AF
  8
0
  0
BLOCK
  8
0
  2
*X4
 70
     1
 10
0.0
 20
0.0
 30
0.0
  3
*X4
  1

  0
LINE
  5
549
  8
0
 62
     0
 10
226.5346969336556
 20
292.5
 30
0.0
 11
212.78119243839521
 21
292.5
 31
0.0
  0
LINE
  5
54A
  8
0
 62
     0
 10
226.5346969336556
 20
291.0
 30
0.0
 11
212.78119243839521
 21
291.0
 31
0.0
  0
LINE
  5
54B
  8
0
 62
     0
 10
226.5346969336556
 20
289.5
 30
0.0
 11
212.78119243839521
 21
289.5
 31
0.0
  0
LINE
  5
54C
  8
0
 62
     0
 10
226.5346969336556
 20
288.0
 30
0.0
 11
212.78119243839521
 21
288.0
 31
0.0
  0
LINE
  5
54D
  8
0
 62
     0
 10
226.5346969336556
 20
286.5
 30
0.0
 11
212.78119243839521
 21
286.5
 31
0.0
  0
LINE
  5
54E
  8
0
 62
     0
 10
226.5346969336556
 20
285.0
 30
0.0
 11
212.78119243839521
 21
285.0
 31
0.0
  0
LINE
  5
54F
  8
0
 62
     0
 10
226.5346969336556
 20
283.5
 30
0.0
 11
212.78119243839521
 21
283.5
 31
0.0
  0
LINE
  5
550
  8
0
 62
     0
 10
226.5346969336556
 20
282.0
 30
0.0
 11
212.78119243839521
 21
282.0
 31
0.0
  0
LINE
  5
551
  8
0
 62
     0
 10
226.53469693365551
 20
280.5
 30
0.0
 11
212.78119243839521
 21
280.5
 31
0.0
  0
LINE
  5
552
  8
0
 62
     0
 10
226.53469693365551
 20
279.0
 30
0.0
 11
212.78119243839521
 21
279.0
 31
0.0
  0
LINE
  5
553
  8
0
 62
     0
 10
226.53469693365551
 20
277.5
 30
0.0
 11
212.78119243839521
 21
277.5
 31
0.0
  0
LINE
  5
554
  8
0
 62
     0
 10
226.53469693365551
 20
276.0
 30
0.0
 11
212.78119243839521
 21
276.0
 31
0.0
  0
LINE
  5
555
  8
0
 62
     0
 10
226.53469693365551
 20
274.5
 30
0.0
 11
212.78119243839521
 21
274.5
 31
0.0
  0
LINE
  5
556
  8
0
 62
     0
 10
226.53469693365551
 20
273.0
 30
0.0
 11
212.7811924383951
 21
273.0
 31
0.0
  0
LINE
  5
557
  8
0
 62
     0
 10
226.53469693365551
 20
271.5
 30
0.0
 11
212.7811924383951
 21
271.5
 31
0.0
  0
LINE
  5
558
  8
0
 62
     0
 10
226.53469693365551
 20
270.0
 30
0.0
 11
212.7811924383951
 21
270.0
 31
0.0
  0
LINE
  5
559
  8
0
 62
     0
 10
226.53469693365551
 20
268.5
 30
0.0
 11
212.7811924383951
 21
268.5
 31
0.0
  0
LINE
  5
55A
  8
0
 62
     0
 10
226.53469693365551
 20
267.0
 30
0.0
 11
212.7811924383951
 21
267.0
 31
0.0
  0
LINE
  5
55B
  8
0
 62
     0
 10
226.53469693365551
 20
265.5
 30
0.0
 11
212.7811924383951
 21
265.5
 31
0.0
  0
LINE
  5
55C
  8
0
 62
     0
 10
226.53469693365551
 20
264.0
 30
0.0
 11
212.7811924383951
 21
264.0
 31
0.0
  0
LINE
  5
55D
  8
0
 62
     0
 10
226.53469693365551
 20
262.5
 30
0.0
 11
212.7811924383951
 21
262.5
 31
0.0
  0
LINE
  5
55E
  8
0
 62
     0
 10
226.53469693365551
 20
261.0
 30
0.0
 11
212.7811924383951
 21
261.0
 31
0.0
  0
LINE
  5
55F
  8
0
 62
     0
 10
226.53469693365551
 20
259.5
 30
0.0
 11
212.7811924383951
 21
259.5
 31
0.0
  0
LINE
  5
560
  8
0
 62
     0
 10
226.53469693365551
 20
258.0
 30
0.0
 11
212.7811924383951
 21
258.0
 31
0.0
  0
LINE
  5
561
  8
0
 62
     0
 10
226.53469693365551
 20
256.5
 30
0.0
 11
212.7811924383951
 21
256.5
 31
0.0
  0
LINE
  5
562
  8
0
 62
     0
 10
226.5346969336554
 20
255.0
 30
0.0
 11
212.7811924383951
 21
255.0
 31
0.0
  0
LINE
  5
563
  8
0
 62
     0
 10
226.5346969336554
 20
253.5
 30
0.0
 11
212.7811924383951
 21
253.5
 31
0.0
  0
LINE
  5
564
  8
0
 62
     0
 10
226.5346969336554
 20
252.0
 30
0.0
 11
212.7811924383951
 21
252.0
 31
0.0
  0
LINE
  5
565
  8
0
 62
     0
 10
226.5346969336554
 20
250.5
 30
0.0
 11
212.7811924383951
 21
250.5
 31
0.0
  0
LINE
  5
566
  8
0
 62
     0
 10
226.5346969336554
 20
249.0
 30
0.0
 11
212.7811924383951
 21
249.0
 31
0.0
  0
LINE
  5
567
  8
0
 62
     0
 10
226.5346969336554
 20
247.5
 30
0.0
 11
212.7811924383951
 21
247.5
 31
0.0
  0
LINE
  5
568
  8
0
 62
     0
 10
226.5346969336554
 20
246.0
 30
0.0
 11
212.7811924383951
 21
246.0
 31
0.0
  0
LINE
  5
569
  8
0
 62
     0
 10
226.5346969336554
 20
244.5
 30
0.0
 11
212.7811924383951
 21
244.5
 31
0.0
  0
LINE
  5
56A
  8
0
 62
     0
 10
226.5346969336554
 20
243.0
 30
0.0
 11
212.7811924383951
 21
243.0
 31
0.0
  0
LINE
  5
56B
  8
0
 62
     0
 10
226.53469693365531
 20
241.5
 30
0.0
 11
212.7811924383951
 21
241.5
 31
0.0
  0
LINE
  5
56C
  8
0
 62
     0
 10
226.53469693365531
 20
240.0
 30
0.0
 11
212.7811924383951
 21
240.0
 31
0.0
  0
LINE
  5
56D
  8
0
 62
     0
 10
226.53469693365531
 20
238.5
 30
0.0
 11
212.7811924383951
 21
238.5
 31
0.0
  0
LINE
  5
56E
  8
0
 62
     0
 10
226.53469693365531
 20
237.0
 30
0.0
 11
212.7811924383951
 21
237.0
 31
0.0
  0
LINE
  5
56F
  8
0
 62
     0
 10
226.53469693365531
 20
235.5
 30
0.0
 11
212.7811924383951
 21
235.5
 31
0.0
  0
LINE
  5
570
  8
0
 62
     0
 10
226.53469693365531
 20
234.0
 30
0.0
 11
212.78119243839501
 21
234.0
 31
0.0
  0
LINE
  5
571
  8
0
 62
     0
 10
226.53469693365531
 20
232.5
 30
0.0
 11
212.78119243839501
 21
232.5
 31
0.0
  0
LINE
  5
572
  8
0
 62
     0
 10
226.53469693365531
 20
231.0
 30
0.0
 11
212.78119243839501
 21
231.0
 31
0.0
  0
LINE
  5
573
  8
0
 62
     0
 10
226.53469693365531
 20
229.5
 30
0.0
 11
212.78119243839501
 21
229.5
 31
0.0
  0
LINE
  5
574
  8
0
 62
     0
 10
226.53469693365531
 20
228.0
 30
0.0
 11
212.78119243839501
 21
228.0
 31
0.0
  0
LINE
  5
575
  8
0
 62
     0
 10
226.5346969336552
 20
226.5
 30
0.0
 11
212.78119243839501
 21
226.5
 31
0.0
  0
LINE
  5
576
  8
0
 62
     0
 10
226.5346969336552
 20
225.0
 30
0.0
 11
212.78119243839501
 21
225.0
 31
0.0
  0
LINE
  5
577
  8
0
 62
     0
 10
226.5346969336552
 20
223.5
 30
0.0
 11
212.78119243839501
 21
223.5
 31
0.0
  0
LINE
  5
578
  8
0
 62
     0
 10
226.5346969336552
 20
222.0
 30
0.0
 11
212.78119243839501
 21
222.0
 31
0.0
  0
LINE
  5
579
  8
0
 62
     0
 10
226.5346969336552
 20
220.5
 30
0.0
 11
212.78119243839501
 21
220.5
 31
0.0
  0
LINE
  5
57A
  8
0
 62
     0
 10
226.5346969336552
 20
219.0
 30
0.0
 11
212.78119243839501
 21
219.0
 31
0.0
  0
LINE
  5
57B
  8
0
 62
     0
 10
226.5346969336552
 20
217.5
 30
0.0
 11
212.78119243839501
 21
217.5
 31
0.0
  0
LINE
  5
57C
  8
0
 62
     0
 10
226.5346969336552
 20
216.0
 30
0.0
 11
212.78119243839501
 21
216.0
 31
0.0
  0
LINE
  5
57D
  8
0
 62
     0
 10
226.5346969336552
 20
214.5
 30
0.0
 11
212.78119243839501
 21
214.5
 31
0.0
  0
LINE
  5
57E
  8
0
 62
     0
 10
226.5346969336552
 20
213.0
 30
0.0
 11
212.78119243839501
 21
213.0
 31
0.0
  0
LINE
  5
57F
  8
0
 62
     0
 10
226.53469693365511
 20
211.5
 30
0.0
 11
212.78119243839501
 21
211.5
 31
0.0
  0
LINE
  5
580
  8
0
 62
     0
 10
226.53469693365511
 20
210.0
 30
0.0
 11
212.7811924383949
 21
210.0
 31
0.0
  0
LINE
  5
581
  8
0
 62
     0
 10
226.53469693365511
 20
208.5
 30
0.0
 11
212.7811924383949
 21
208.5
 31
0.0
  0
LINE
  5
582
  8
0
 62
     0
 10
226.53469693365511
 20
207.0
 30
0.0
 11
212.7811924383949
 21
207.0
 31
0.0
  0
LINE
  5
583
  8
0
 62
     0
 10
226.53469693365511
 20
205.5
 30
0.0
 11
212.7811924383949
 21
205.5
 31
0.0
  0
LINE
  5
584
  8
0
 62
     0
 10
226.53469693365511
 20
204.0
 30
0.0
 11
212.7811924383949
 21
204.0
 31
0.0
  0
LINE
  5
585
  8
0
 62
     0
 10
226.53469693365511
 20
202.5
 30
0.0
 11
212.7811924383949
 21
202.5
 31
0.0
  0
LINE
  5
586
  8
0
 62
     0
 10
226.53469693365511
 20
201.0
 30
0.0
 11
212.7811924383949
 21
201.0
 31
0.0
  0
LINE
  5
587
  8
0
 62
     0
 10
226.53469693365511
 20
199.49999999999989
 30
0.0
 11
212.7811924383949
 21
199.49999999999989
 31
0.0
  0
LINE
  5
588
  8
0
 62
     0
 10
226.53469693365511
 20
198.0
 30
0.0
 11
212.7811924383949
 21
198.0
 31
0.0
  0
LINE
  5
589
  8
0
 62
     0
 10
226.53469693365511
 20
196.5
 30
0.0
 11
212.7811924383949
 21
196.5
 31
0.0
  0
LINE
  5
58A
  8
0
 62
     0
 10
226.53469693365511
 20
195.0
 30
0.0
 11
212.7811924383949
 21
195.0
 31
0.0
  0
LINE
  5
58B
  8
0
 62
     0
 10
226.53469693365511
 20
193.5
 30
0.0
 11
212.7811924383949
 21
193.5
 31
0.0
  0
LINE
  5
58C
  8
0
 62
     0
 10
226.53469693365511
 20
191.99999999999989
 30
0.0
 11
212.7811924383949
 21
191.99999999999989
 31
0.0
  0
LINE
  5
58D
  8
0
 62
     0
 10
226.53469693365511
 20
190.5
 30
0.0
 11
212.7811924383949
 21
190.5
 31
0.0
  0
LINE
  5
58E
  8
0
 62
     0
 10
226.53469693365511
 20
188.99999999999989
 30
0.0
 11
212.7811924383949
 21
188.99999999999989
 31
0.0
  0
LINE
  5
58F
  8
0
 62
     0
 10
226.534696933655
 20
187.5
 30
0.0
 11
212.7811924383949
 21
187.5
 31
0.0
  0
LINE
  5
590
  8
0
 62
     0
 10
226.534696933655
 20
185.99999999999989
 30
0.0
 11
212.78119243839481
 21
185.99999999999989
 31
0.0
  0
LINE
  5
591
  8
0
 62
     0
 10
226.534696933655
 20
184.49999999999989
 30
0.0
 11
212.78119243839481
 21
184.49999999999989
 31
0.0
  0
LINE
  5
592
  8
0
 62
     0
 10
226.534696933655
 20
183.0
 30
0.0
 11
212.78119243839481
 21
183.0
 31
0.0
  0
LINE
  5
593
  8
0
 62
     0
 10
226.534696933655
 20
181.49999999999989
 30
0.0
 11
212.78119243839481
 21
181.49999999999989
 31
0.0
  0
LINE
  5
594
  8
0
 62
     0
 10
226.534696933655
 20
180.0
 30
0.0
 11
212.78119243839481
 21
180.0
 31
0.0
  0
LINE
  5
595
  8
0
 62
     0
 10
226.534696933655
 20
178.49999999999989
 30
0.0
 11
212.78119243839481
 21
178.49999999999989
 31
0.0
  0
LINE
  5
596
  8
0
 62
     0
 10
226.534696933655
 20
177.0
 30
0.0
 11
212.78119243839481
 21
177.0
 31
0.0
  0
LINE
  5
597
  8
0
 62
     0
 10
226.534696933655
 20
175.49999999999989
 30
0.0
 11
212.78119243839481
 21
175.49999999999989
 31
0.0
  0
LINE
  5
598
  8
0
 62
     0
 10
226.534696933655
 20
174.0
 30
0.0
 11
212.78119243839481
 21
174.0
 31
0.0
  0
LINE
  5
599
  8
0
 62
     0
 10
226.53469693365491
 20
172.49999999999989
 30
0.0
 11
212.78119243839481
 21
172.49999999999989
 31
0.0
  0
LINE
  5
59A
  8
0
 62
     0
 10
226.53469693365491
 20
170.99999999999989
 30
0.0
 11
212.78119243839481
 21
170.99999999999989
 31
0.0
  0
LINE
  5
59B
  8
0
 62
     0
 10
226.53469693365491
 20
169.5
 30
0.0
 11
212.78119243839481
 21
169.5
 31
0.0
  0
LINE
  5
59C
  8
0
 62
     0
 10
226.53469693365491
 20
167.99999999999989
 30
0.0
 11
212.78119243839481
 21
167.99999999999989
 31
0.0
  0
LINE
  5
59D
  8
0
 62
     0
 10
226.53469693365491
 20
166.5
 30
0.0
 11
212.78119243839481
 21
166.5
 31
0.0
  0
LINE
  5
59E
  8
0
 62
     0
 10
226.53469693365491
 20
164.99999999999989
 30
0.0
 11
212.78119243839481
 21
164.99999999999989
 31
0.0
  0
LINE
  5
59F
  8
0
 62
     0
 10
226.53469693365491
 20
163.49999999999989
 30
0.0
 11
212.7811924383947
 21
163.49999999999989
 31
0.0
  0
LINE
  5
5A0
  8
0
 62
     0
 10
226.53469693365491
 20
161.99999999999989
 30
0.0
 11
212.7811924383947
 21
161.99999999999989
 31
0.0
  0
LINE
  5
5A1
  8
0
 62
     0
 10
226.53469693365491
 20
160.49999999999989
 30
0.0
 11
212.7811924383947
 21
160.49999999999989
 31
0.0
  0
LINE
  5
5A2
  8
0
 62
     0
 10
226.5346969336548
 20
159.0
 30
0.0
 11
212.7811924383947
 21
159.0
 31
0.0
  0
LINE
  5
5A3
  8
0
 62
     0
 10
226.5346969336548
 20
157.5
 30
0.0
 11
212.7811924383947
 21
157.5
 31
0.0
  0
LINE
  5
5A4
  8
0
 62
     0
 10
226.5346969336548
 20
156.0
 30
0.0
 11
212.7811924383947
 21
156.0
 31
0.0
  0
LINE
  5
5A5
  8
0
 62
     0
 10
226.5346969336548
 20
154.49999999999989
 30
0.0
 11
212.7811924383947
 21
154.49999999999989
 31
0.0
  0
LINE
  5
5A6
  8
0
 62
     0
 10
226.5346969336548
 20
153.0
 30
0.0
 11
212.7811924383947
 21
153.0
 31
0.0
  0
ENDBLK
  5
5A8
  8
0
  0
BLOCK
  8
0
  2
*X5
 70
     1
 10
0.0
 20
0.0
 30
0.0
  3
*X5
  1

  0
LINE
  5
5AA
  8
0
 62
     0
 10
141.0
 20
15.00000115457213
 30
0.0
 11
141.0
 21
93.000001154568963
 31
0.0
  0
LINE
  5
5AB
  8
0
 62
     0
 10
139.5
 20
15.000001154572111
 30
0.0
 11
139.5
 21
93.000001154568963
 31
0.0
  0
LINE
  5
5AC
  8
0
 62
     0
 10
138.0
 20
15.000001154572089
 30
0.0
 11
138.0
 21
93.000001154568963
 31
0.0
  0
LINE
  5
5AD
  8
0
 62
     0
 10
136.5
 20
15.00000115457207
 30
0.0
 11
136.5
 21
93.000001154568963
 31
0.0
  0
LINE
  5
5AE
  8
0
 62
     0
 10
135.0
 20
15.00000115457205
 30
0.0
 11
135.0
 21
93.000001154568963
 31
0.0
  0
LINE
  5
5AF
  8
0
 62
     0
 10
133.5
 20
15.000001154572031
 30
0.0
 11
133.5
 21
93.000001154568963
 31
0.0
  0
LINE
  5
5B0
  8
0
 62
     0
 10
132.0
 20
15.00000115457201
 30
0.0
 11
132.0
 21
93.000001154568963
 31
0.0
  0
LINE
  5
5B1
  8
0
 62
     0
 10
130.5
 20
15.00000115457199
 30
0.0
 11
130.5
 21
93.000001154568963
 31
0.0
  0
LINE
  5
5B2
  8
0
 62
     0
 10
129.0
 20
15.00000115457197
 30
0.0
 11
129.0
 21
93.000001154568963
 31
0.0
  0
LINE
  5
5B3
  8
0
 62
     0
 10
127.5
 20
15.000001154571949
 30
0.0
 11
127.5
 21
93.000001154568963
 31
0.0
  0
LINE
  5
5B4
  8
0
 62
     0
 10
126.0
 20
15.00000115457193
 30
0.0
 11
126.0
 21
93.000001154568963
 31
0.0
  0
LINE
  5
5B5
  8
0
 62
     0
 10
124.5
 20
15.00000115457191
 30
0.0
 11
124.5
 21
93.000001154568963
 31
0.0
  0
LINE
  5
5B6
  8
0
 62
     0
 10
123.0
 20
15.000001154571891
 30
0.0
 11
123.0
 21
93.000001154568963
 31
0.0
  0
LINE
  5
5B7
  8
0
 62
     0
 10
121.5
 20
15.000001154571869
 30
0.0
 11
121.5
 21
93.000001154568963
 31
0.0
  0
LINE
  5
5B8
  8
0
 62
     0
 10
120.0
 20
15.000001154571841
 30
0.0
 11
120.0
 21
93.000001154568963
 31
0.0
  0
LINE
  5
5B9
  8
0
 62
     0
 10
118.5
 20
15.000001154571819
 30
0.0
 11
118.5
 21
93.000001154568963
 31
0.0
  0
LINE
  5
5BA
  8
0
 62
     0
 10
117.0
 20
15.0000011545718
 30
0.0
 11
117.0
 21
93.000001154568963
 31
0.0
  0
LINE
  5
5BB
  8
0
 62
     0
 10
115.5
 20
15.00000115457178
 30
0.0
 11
115.5
 21
93.000001154568963
 31
0.0
  0
LINE
  5
5BC
  8
0
 62
     0
 10
114.0
 20
15.000001154571761
 30
0.0
 11
114.0
 21
93.000001154568963
 31
0.0
  0
LINE
  5
5BD
  8
0
 62
     0
 10
112.5
 20
15.00000115457174
 30
0.0
 11
112.5
 21
93.000001154568963
 31
0.0
  0
LINE
  5
5BE
  8
0
 62
     0
 10
111.0
 20
15.00000115457172
 30
0.0
 11
111.0
 21
93.000001154568963
 31
0.0
  0
LINE
  5
5BF
  8
0
 62
     0
 10
109.5
 20
15.0000011545717
 30
0.0
 11
109.5
 21
93.000001154568963
 31
0.0
  0
LINE
  5
5C0
  8
0
 62
     0
 10
108.0
 20
15.000001154571679
 30
0.0
 11
108.0
 21
93.000001154568963
 31
0.0
  0
LINE
  5
5C1
  8
0
 62
     0
 10
106.5
 20
15.00000115457166
 30
0.0
 11
106.5
 21
93.000001154568963
 31
0.0
  0
LINE
  5
5C2
  8
0
 62
     0
 10
105.0
 20
15.00000115457164
 30
0.0
 11
105.0
 21
93.000001154568963
 31
0.0
  0
LINE
  5
5C3
  8
0
 62
     0
 10
103.5
 20
15.000001154571621
 30
0.0
 11
103.5
 21
93.000001154568963
 31
0.0
  0
LINE
  5
5C4
  8
0
 62
     0
 10
102.0
 20
15.000001154571599
 30
0.0
 11
102.0
 21
93.000001154568963
 31
0.0
  0
LINE
  5
5C5
  8
0
 62
     0
 10
100.5
 20
15.00000115457158
 30
0.0
 11
100.5
 21
93.000001154568963
 31
0.0
  0
LINE
  5
5C6
  8
0
 62
     0
 10
99.0
 20
15.00000115457156
 30
0.0
 11
99.0
 21
93.000001154568963
 31
0.0
  0
LINE
  5
5C7
  8
0
 62
     0
 10
97.5
 20
15.000001154571541
 30
0.0
 11
97.5
 21
93.000001154568963
 31
0.0
  0
LINE
  5
5C8
  8
0
 62
     0
 10
96.0
 20
15.00000115457151
 30
0.0
 11
96.0
 21
93.000001154568963
 31
0.0
  0
LINE
  5
5C9
  8
0
 62
     0
 10
94.500000000000014
 20
15.000001154571491
 30
0.0
 11
94.500000000000014
 21
93.000001154568963
 31
0.0
  0
LINE
  5
5CA
  8
0
 62
     0
 10
93.0
 20
15.00000115457147
 30
0.0
 11
93.0
 21
93.000001154568963
 31
0.0
  0
LINE
  5
5CB
  8
0
 62
     0
 10
91.5
 20
15.00000115457145
 30
0.0
 11
91.5
 21
93.000001154568963
 31
0.0
  0
LINE
  5
5CC
  8
0
 62
     0
 10
90.0
 20
15.00000115457143
 30
0.0
 11
90.0
 21
93.000001154568963
 31
0.0
  0
LINE
  5
5CD
  8
0
 62
     0
 10
88.499999999999986
 20
15.000001154571409
 30
0.0
 11
88.499999999999986
 21
93.000001154568963
 31
0.0
  0
LINE
  5
5CE
  8
0
 62
     0
 10
87.0
 20
15.00000115457139
 30
0.0
 11
87.0
 21
93.000001154568963
 31
0.0
  0
LINE
  5
5CF
  8
0
 62
     0
 10
85.5
 20
15.00000115457137
 30
0.0
 11
85.5
 21
93.000001154568963
 31
0.0
  0
LINE
  5
5D0
  8
0
 62
     0
 10
84.0
 20
15.000001154571351
 30
0.0
 11
84.0
 21
93.000001154568963
 31
0.0
  0
LINE
  5
5D1
  8
0
 62
     0
 10
82.5
 20
15.000001154571329
 30
0.0
 11
82.5
 21
93.000001154568963
 31
0.0
  0
LINE
  5
5D2
  8
0
 62
     0
 10
81.0
 20
15.00000115457131
 30
0.0
 11
81.0
 21
93.000001154568963
 31
0.0
  0
LINE
  5
5D3
  8
0
 62
     0
 10
79.5
 20
15.00000115457129
 30
0.0
 11
79.5
 21
93.000001154568963
 31
0.0
  0
LINE
  5
5D4
  8
0
 62
     0
 10
78.0
 20
15.00000115457126
 30
0.0
 11
78.0
 21
93.000001154568963
 31
0.0
  0
LINE
  5
5D5
  8
0
 62
     0
 10
76.5
 20
15.00000115457124
 30
0.0
 11
76.5
 21
93.000001154568963
 31
0.0
  0
LINE
  5
5D6
  8
0
 62
     0
 10
75.0
 20
15.000001154571221
 30
0.0
 11
75.0
 21
93.000001154568963
 31
0.0
  0
LINE
  5
5D7
  8
0
 62
     0
 10
73.5
 20
15.0000011545712
 30
0.0
 11
73.5
 21
93.000001154568963
 31
0.0
  0
LINE
  5
5D8
  8
0
 62
     0
 10
72.0
 20
15.00000115457118
 30
0.0
 11
72.0
 21
93.000001154568963
 31
0.0
  0
LINE
  5
5D9
  8
0
 62
     0
 10
70.5
 20
15.00000115457116
 30
0.0
 11
70.5
 21
93.000001154568963
 31
0.0
  0
LINE
  5
5DA
  8
0
 62
     0
 10
69.0
 20
15.000001154571139
 30
0.0
 11
69.0
 21
93.000001154568963
 31
0.0
  0
LINE
  5
5DB
  8
0
 62
     0
 10
67.5
 20
15.00000115457112
 30
0.0
 11
67.5
 21
93.000001154568963
 31
0.0
  0
LINE
  5
5DC
  8
0
 62
     0
 10
66.0
 20
15.0000011545711
 30
0.0
 11
66.0
 21
93.000001154568963
 31
0.0
  0
LINE
  5
5DD
  8
0
 62
     0
 10
64.5
 20
15.000001154571081
 30
0.0
 11
64.5
 21
93.000001154568963
 31
0.0
  0
LINE
  5
5DE
  8
0
 62
     0
 10
63.0
 20
15.000001154571059
 30
0.0
 11
63.0
 21
93.000001154568963
 31
0.0
  0
LINE
  5
5DF
  8
0
 62
     0
 10
61.5
 20
15.00000115457104
 30
0.0
 11
61.500000000000007
 21
93.000001154568963
 31
0.0
  0
LINE
  5
5E0
  8
0
 62
     0
 10
60.0
 20
15.00000115457102
 30
0.0
 11
60.0
 21
93.000001154568963
 31
0.0
  0
LINE
  5
5E1
  8
0
 62
     0
 10
58.5
 20
15.000001154571001
 30
0.0
 11
58.500000000000007
 21
93.000001154568963
 31
0.0
  0
LINE
  5
5E2
  8
0
 62
     0
 10
57.0
 20
15.000001154570979
 30
0.0
 11
57.000000000000007
 21
93.000001154568963
 31
0.0
  0
LINE
  5
5E3
  8
0
 62
     0
 10
55.5
 20
15.000001154570951
 30
0.0
 11
55.5
 21
93.000001154568963
 31
0.0
  0
LINE
  5
5E4
  8
0
 62
     0
 10
54.0
 20
15.00000115457093
 30
0.0
 11
54.000000000000007
 21
93.000001154568963
 31
0.0
  0
LINE
  5
5E5
  8
0
 62
     0
 10
52.5
 20
15.00000115457091
 30
0.0
 11
52.5
 21
93.000001154568963
 31
0.0
  0
LINE
  5
5E6
  8
0
 62
     0
 10
51.0
 20
15.00000115457089
 30
0.0
 11
51.000000000000007
 21
93.000001154568963
 31
0.0
  0
LINE
  5
5E7
  8
0
 62
     0
 10
49.5
 20
15.000001154570869
 30
0.0
 11
49.500000000000007
 21
93.000001154568963
 31
0.0
  0
LINE
  5
5E8
  8
0
 62
     0
 10
48.0
 20
15.00000115457085
 30
0.0
 11
48.0
 21
93.000001154568963
 31
0.0
  0
LINE
  5
5E9
  8
0
 62
     0
 10
46.5
 20
15.00000115457083
 30
0.0
 11
46.500000000000007
 21
93.000001154568963
 31
0.0
  0
LINE
  5
5EA
  8
0
 62
     0
 10
45.0
 20
15.000001154570811
 30
0.0
 11
45.0
 21
93.000001154568963
 31
0.0
  0
LINE
  5
5EB
  8
0
 62
     0
 10
43.5
 20
15.000001154570789
 30
0.0
 11
43.5
 21
93.000001154568963
 31
0.0
  0
LINE
  5
5EC
  8
0
 62
     0
 10
42.0
 20
15.00000115457077
 30
0.0
 11
42.000000000000007
 21
93.000001154568963
 31
0.0
  0
LINE
  5
5ED
  8
0
 62
     0
 10
40.499999999999993
 20
15.00000115457075
 30
0.0
 11
40.5
 21
93.000001154568963
 31
0.0
  0
LINE
  5
5EE
  8
0
 62
     0
 10
39.0
 20
15.000001154570731
 30
0.0
 11
39.000000000000007
 21
93.000001154568963
 31
0.0
  0
LINE
  5
5EF
  8
0
 62
     0
 10
37.5
 20
15.000001154570709
 30
0.0
 11
37.500000000000007
 21
93.000001154568963
 31
0.0
  0
LINE
  5
5F0
  8
0
 62
     0
 10
36.0
 20
15.000001154570681
 30
0.0
 11
36.000000000000007
 21
93.000001154568963
 31
0.0
  0
LINE
  5
5F1
  8
0
 62
     0
 10
34.5
 20
15.00000115457067
 30
0.0
 11
34.500000000000007
 21
93.000001154568963
 31
0.0
  0
LINE
  5
5F2
  8
0
 62
     0
 10
33.0
 20
15.000001154570651
 30
0.0
 11
33.000000000000007
 21
93.000001154568963
 31
0.0
  0
LINE
  5
5F3
  8
0
 62
     0
 10
31.5
 20
15.00000115457062
 30
0.0
 11
31.500000000000011
 21
93.000001154568963
 31
0.0
  0
LINE
  5
5F4
  8
0
 62
     0
 10
30.0
 20
15.000001154570599
 30
0.0
 11
30.000000000000011
 21
93.000001154568963
 31
0.0
  0
LINE
  5
5F5
  8
0
 62
     0
 10
28.5
 20
15.00000115457058
 30
0.0
 11
28.500000000000011
 21
93.000001154568963
 31
0.0
  0
LINE
  5
5F6
  8
0
 62
     0
 10
27.0
 20
15.00000115457056
 30
0.0
 11
27.000000000000011
 21
93.000001154568963
 31
0.0
  0
LINE
  5
5F7
  8
0
 62
     0
 10
25.5
 20
15.000001154570541
 30
0.0
 11
25.500000000000011
 21
93.000001154568963
 31
0.0
  0
LINE
  5
5F8
  8
0
 62
     0
 10
24.0
 20
15.000001154570519
 30
0.0
 11
24.000000000000011
 21
93.000001154568963
 31
0.0
  0
LINE
  5
5F9
  8
0
 62
     0
 10
22.5
 20
15.0000011545705
 30
0.0
 11
22.500000000000011
 21
93.000001154568963
 31
0.0
  0
LINE
  5
5FA
  8
0
 62
     0
 10
21.0
 20
15.00000115457048
 30
0.0
 11
21.000000000000011
 21
93.000001154568963
 31
0.0
  0
LINE
  5
5FB
  8
0
 62
     0
 10
19.5
 20
15.000001154570461
 30
0.0
 11
19.500000000000011
 21
93.000001154568963
 31
0.0
  0
LINE
  5
5FC
  8
0
 62
     0
 10
18.0
 20
15.000001154570439
 30
0.0
 11
18.0
 21
93.000001154568963
 31
0.0
  0
LINE
  5
5FD
  8
0
 62
     0
 10
16.5
 20
15.00000115457042
 30
0.0
 11
16.500000000000011
 21
93.000001154568963
 31
0.0
  0
LINE
  5
5FE
  8
0
 62
     0
 10
15.0
 20
15.0000011545704
 30
0.0
 11
15.0
 21
93.000001154568963
 31
0.0
  0
LINE
  5
5FF
  8
0
 62
     0
 10
13.5
 20
15.00000115457037
 30
0.0
 11
13.5
 21
93.000001154568963
 31
0.0
  0
LINE
  5
600
  8
0
 62
     0
 10
12.0
 20
15.000001154570359
 30
0.0
 11
12.0
 21
93.000001154568963
 31
0.0
  0
LINE
  5
601
  8
0
 62
     0
 10
10.5
 20
15.000001154570329
 30
0.0
 11
10.5
 21
93.000001154568963
 31
0.0
  0
LINE
  5
602
  8
0
 62
     0
 10
9.0000000000000018
 20
15.00000115457031
 30
0.0
 11
9.0000000000000053
 21
93.000001154568963
 31
0.0
  0
LINE
  5
603
  8
0
 62
     0
 10
7.5
 20
15.00000115457029
 30
0.0
 11
7.5000000000000053
 21
93.000001154568963
 31
0.0
  0
LINE
  5
604
  8
0
 62
     0
 10
6.0
 20
15.000001154570271
 30
0.0
 11
6.0000000000000053
 21
93.000001154568963
 31
0.0
  0
LINE
  5
605
  8
0
 62
     0
 10
4.5
 20
15.000001154570249
 30
0.0
 11
4.5000000000000053
 21
93.000001154568963
 31
0.0
  0
LINE
  5
606
  8
0
 62
     0
 10
3.0
 20
15.00000115457023
 30
0.0
 11
3.0000000000000049
 21
93.000001154568963
 31
0.0
  0
ENDBLK
  5
608
  8
0
  0
BLOCK
  8
0
  2
*X6
 70
     1
 10
0.0
 20
0.0
 30
0.0
  3
*X6
  1

  0
LINE
  5
60D
  8
0
 62
     0
 10
507.0
 20
15.000001154568981
 30
0.0
 11
507.0
 21
91.500001154569489
 31
0.0
  0
LINE
  5
60E
  8
0
 62
     0
 10
504.0
 20
15.000001154568981
 30
0.0
 11
504.0
 21
91.500001154569489
 31
0.0
  0
LINE
  5
60F
  8
0
 62
     0
 10
501.0
 20
15.000001154568981
 30
0.0
 11
501.0
 21
91.500001154569489
 31
0.0
  0
LINE
  5
610
  8
0
 62
     0
 10
498.0
 20
15.000001154568981
 30
0.0
 11
498.0
 21
91.500001154569489
 31
0.0
  0
LINE
  5
611
  8
0
 62
     0
 10
495.0
 20
15.000001154568981
 30
0.0
 11
495.0
 21
91.500001154569489
 31
0.0
  0
LINE
  5
612
  8
0
 62
     0
 10
492.0
 20
15.000001154568981
 30
0.0
 11
492.0
 21
91.500001154569489
 31
0.0
  0
LINE
  5
613
  8
0
 62
     0
 10
489.0
 20
15.000001154568981
 30
0.0
 11
489.0
 21
91.500001154569489
 31
0.0
  0
LINE
  5
614
  8
0
 62
     0
 10
486.0
 20
15.000001154568981
 30
0.0
 11
486.0
 21
91.500001154569489
 31
0.0
  0
LINE
  5
615
  8
0
 62
     0
 10
483.0
 20
15.000001154568981
 30
0.0
 11
483.0
 21
91.500001154569489
 31
0.0
  0
LINE
  5
616
  8
0
 62
     0
 10
480.0
 20
15.000001154568981
 30
0.0
 11
480.0
 21
91.500001154569489
 31
0.0
  0
LINE
  5
617
  8
0
 62
     0
 10
477.0
 20
15.000001154568981
 30
0.0
 11
477.0
 21
91.500001154569489
 31
0.0
  0
LINE
  5
618
  8
0
 62
     0
 10
474.0
 20
15.000001154568981
 30
0.0
 11
474.0
 21
91.500001154569489
 31
0.0
  0
LINE
  5
619
  8
0
 62
     0
 10
471.0
 20
15.000001154568981
 30
0.0
 11
471.0
 21
91.500001154569489
 31
0.0
  0
LINE
  5
61A
  8
0
 62
     0
 10
468.0
 20
15.000001154568981
 30
0.0
 11
468.0
 21
91.500001154569489
 31
0.0
  0
LINE
  5
61B
  8
0
 62
     0
 10
465.0
 20
15.000001154568981
 30
0.0
 11
465.0
 21
91.500001154569489
 31
0.0
  0
LINE
  5
61C
  8
0
 62
     0
 10
462.0
 20
15.000001154568981
 30
0.0
 11
462.0
 21
91.500001154569489
 31
0.0
  0
LINE
  5
61D
  8
0
 62
     0
 10
459.0
 20
15.000001154568981
 30
0.0
 11
459.0
 21
91.500001154569489
 31
0.0
  0
LINE
  5
61E
  8
0
 62
     0
 10
456.0
 20
15.000001154568981
 30
0.0
 11
456.0
 21
91.500001154569489
 31
0.0
  0
LINE
  5
61F
  8
0
 62
     0
 10
453.0
 20
15.000001154568981
 30
0.0
 11
453.0
 21
91.500001154569489
 31
0.0
  0
LINE
  5
620
  8
0
 62
     0
 10
450.0
 20
15.000001154568981
 30
0.0
 11
450.0
 21
91.500001154569489
 31
0.0
  0
LINE
  5
621
  8
0
 62
     0
 10
447.0
 20
15.000001154568981
 30
0.0
 11
447.0
 21
91.500001154569489
 31
0.0
  0
LINE
  5
622
  8
0
 62
     0
 10
444.0
 20
15.000001154568981
 30
0.0
 11
444.0
 21
91.500001154569489
 31
0.0
  0
LINE
  5
623
  8
0
 62
     0
 10
441.0
 20
15.000001154568981
 30
0.0
 11
441.0
 21
91.500001154569489
 31
0.0
  0
LINE
  5
624
  8
0
 62
     0
 10
438.0
 20
15.000001154568981
 30
0.0
 11
438.0
 21
91.500001154569489
 31
0.0
  0
LINE
  5
625
  8
0
 62
     0
 10
435.0
 20
15.000001154568981
 30
0.0
 11
435.0
 21
91.500001154569489
 31
0.0
  0
LINE
  5
626
  8
0
 62
     0
 10
432.0
 20
15.000001154568981
 30
0.0
 11
432.0
 21
91.500001154569489
 31
0.0
  0
LINE
  5
627
  8
0
 62
     0
 10
429.0
 20
15.000001154568981
 30
0.0
 11
429.0
 21
91.500001154569489
 31
0.0
  0
LINE
  5
628
  8
0
 62
     0
 10
426.0
 20
15.000001154568981
 30
0.0
 11
426.0
 21
91.500001154569489
 31
0.0
  0
LINE
  5
629
  8
0
 62
     0
 10
423.0
 20
15.000001154568981
 30
0.0
 11
423.0
 21
91.500001154569489
 31
0.0
  0
LINE
  5
62A
  8
0
 62
     0
 10
420.0
 20
15.000001154568981
 30
0.0
 11
420.0
 21
91.500001154569489
 31
0.0
  0
LINE
  5
62B
  8
0
 62
     0
 10
417.0
 20
15.000001154568981
 30
0.0
 11
417.0
 21
91.500001154569489
 31
0.0
  0
LINE
  5
62C
  8
0
 62
     0
 10
414.0
 20
15.000001154568981
 30
0.0
 11
414.0
 21
91.500001154569489
 31
0.0
  0
LINE
  5
62D
  8
0
 62
     0
 10
411.0
 20
15.000001154568981
 30
0.0
 11
411.0
 21
91.500001154569489
 31
0.0
  0
LINE
  5
62E
  8
0
 62
     0
 10
408.0
 20
15.000001154568981
 30
0.0
 11
408.0
 21
91.500001154569489
 31
0.0
  0
LINE
  5
62F
  8
0
 62
     0
 10
405.0
 20
15.000001154568981
 30
0.0
 11
405.0
 21
91.500001154569489
 31
0.0
  0
LINE
  5
630
  8
0
 62
     0
 10
402.0
 20
15.000001154568981
 30
0.0
 11
402.0
 21
91.500001154569489
 31
0.0
  0
LINE
  5
631
  8
0
 62
     0
 10
399.0
 20
15.000001154568981
 30
0.0
 11
399.0
 21
91.500001154569489
 31
0.0
  0
LINE
  5
632
  8
0
 62
     0
 10
396.0
 20
15.000001154568981
 30
0.0
 11
396.0
 21
91.500001154569489
 31
0.0
  0
LINE
  5
633
  8
0
 62
     0
 10
393.0
 20
15.000001154568981
 30
0.0
 11
393.0
 21
91.500001154569489
 31
0.0
  0
LINE
  5
634
  8
0
 62
     0
 10
390.0
 20
15.000001154568981
 30
0.0
 11
390.0
 21
91.500001154569489
 31
0.0
  0
LINE
  5
635
  8
0
 62
     0
 10
387.0
 20
15.000001154568981
 30
0.0
 11
387.0
 21
91.500001154569489
 31
0.0
  0
LINE
  5
636
  8
0
 62
     0
 10
384.0
 20
15.000001154568981
 30
0.0
 11
384.0
 21
91.500001154569489
 31
0.0
  0
LINE
  5
637
  8
0
 62
     0
 10
381.0
 20
15.000001154568981
 30
0.0
 11
381.0
 21
91.500001154569489
 31
0.0
  0
LINE
  5
638
  8
0
 62
     0
 10
378.0
 20
15.000001154568981
 30
0.0
 11
378.0
 21
91.500001154569489
 31
0.0
  0
LINE
  5
639
  8
0
 62
     0
 10
375.0
 20
15.000001154568981
 30
0.0
 11
375.0
 21
91.500001154569489
 31
0.0
  0
LINE
  5
63A
  8
0
 62
     0
 10
372.0
 20
15.000001154568981
 30
0.0
 11
372.0
 21
91.500001154569489
 31
0.0
  0
LINE
  5
63B
  8
0
 62
     0
 10
369.0
 20
15.000001154568981
 30
0.0
 11
369.0
 21
91.500001154569489
 31
0.0
  0
LINE
  5
63C
  8
0
 62
     0
 10
367.12678197644539
 20
18.0
 30
0.0
 11
508.00178197644539
 21
18.0
 31
0.0
  0
LINE
  5
63D
  8
0
 62
     0
 10
367.12678197644539
 20
21.0
 30
0.0
 11
508.00178197644539
 21
21.0
 31
0.0
  0
LINE
  5
63E
  8
0
 62
     0
 10
367.12678197644539
 20
24.0
 30
0.0
 11
508.00178197644539
 21
24.0
 31
0.0
  0
LINE
  5
63F
  8
0
 62
     0
 10
367.12678197644539
 20
27.0
 30
0.0
 11
508.00178197644539
 21
27.0
 31
0.0
  0
LINE
  5
640
  8
0
 62
     0
 10
367.12678197644539
 20
30.0
 30
0.0
 11
508.00178197644539
 21
30.0
 31
0.0
  0
LINE
  5
641
  8
0
 62
     0
 10
367.12678197644539
 20
33.0
 30
0.0
 11
508.00178197644539
 21
33.0
 31
0.0
  0
LINE
  5
642
  8
0
 62
     0
 10
367.12678197644539
 20
36.0
 30
0.0
 11
508.00178197644539
 21
36.0
 31
0.0
  0
LINE
  5
643
  8
0
 62
     0
 10
367.12678197644539
 20
39.0
 30
0.0
 11
508.00178197644539
 21
39.0
 31
0.0
  0
LINE
  5
644
  8
0
 62
     0
 10
367.12678197644539
 20
42.0
 30
0.0
 11
508.00178197644539
 21
42.0
 31
0.0
  0
LINE
  5
645
  8
0
 62
     0
 10
367.12678197644539
 20
45.0
 30
0.0
 11
508.00178197644539
 21
45.0
 31
0.0
  0
LINE
  5
646
  8
0
 62
     0
 10
367.12678197644539
 20
48.0
 30
0.0
 11
508.00178197644539
 21
48.0
 31
0.0
  0
LINE
  5
647
  8
0
 62
     0
 10
367.12678197644539
 20
51.0
 30
0.0
 11
508.00178197644539
 21
51.0
 31
0.0
  0
LINE
  5
648
  8
0
 62
     0
 10
367.12678197644539
 20
54.0
 30
0.0
 11
508.00178197644539
 21
54.0
 31
0.0
  0
LINE
  5
649
  8
0
 62
     0
 10
367.12678197644539
 20
57.0
 30
0.0
 11
508.00178197644539
 21
57.0
 31
0.0
  0
LINE
  5
64A
  8
0
 62
     0
 10
367.12678197644539
 20
60.0
 30
0.0
 11
508.00178197644539
 21
60.0
 31
0.0
  0
LINE
  5
64B
  8
0
 62
     0
 10
367.12678197644539
 20
63.0
 30
0.0
 11
508.00178197644539
 21
63.0
 31
0.0
  0
LINE
  5
64C
  8
0
 62
     0
 10
367.12678197644539
 20
66.0
 30
0.0
 11
508.00178197644539
 21
66.0
 31
0.0
  0
LINE
  5
64D
  8
0
 62
     0
 10
367.12678197644539
 20
69.0
 30
0.0
 11
508.00178197644539
 21
69.0
 31
0.0
  0
LINE
  5
64E
  8
0
 62
     0
 10
367.12678197644539
 20
72.0
 30
0.0
 11
508.00178197644539
 21
72.0
 31
0.0
  0
LINE
  5
64F
  8
0
 62
     0
 10
367.12678197644539
 20
75.0
 30
0.0
 11
508.00178197644539
 21
75.0
 31
0.0
  0
LINE
  5
650
  8
0
 62
     0
 10
367.12678197644539
 20
78.0
 30
0.0
 11
508.00178197644539
 21
78.0
 31
0.0
  0
LINE
  5
651
  8
0
 62
     0
 10
367.12678197644539
 20
81.0
 30
0.0
 11
508.00178197644539
 21
81.0
 31
0.0
  0
LINE
  5
652
  8
0
 62
     0
 10
367.12678197644539
 20
84.0
 30
0.0
 11
508.00178197644539
 21
84.0
 31
0.0
  0
LINE
  5
653
  8
0
 62
     0
 10
367.12678197644539
 20
87.0
 30
0.0
 11
508.00178197644539
 21
87.0
 31
0.0
  0
LINE
  5
654
  8
0
 62
     0
 10
367.12678197644539
 20
90.0
 30
0.0
 11
508.00178197644539
 21
90.0
 31
0.0
  0
ENDBLK
  5
656
  8
0
  0
ENDSEC
  0
SECTION
  2
ENTITIES
  0
POLYLINE
  5
30A
  8
0
 66
     1
 10
0.0
 20
0.0
 30
0.0
  0
VERTEX
  5
4FE
  8
0
 10
288.40455387383253
 20
91.305115940149562
 30
0.0
  0
VERTEX
  5
4FF
  8
0
 10
288.40608316382628
 20
91.354758435084804
 30
0.0
  0
VERTEX
  5
500
  8
0
 10
288.4061222003794
 20
91.361989815683756
 30
0.0
  0
SEQEND
  5
501
  8
0
  0
LINE
  5
30B
  8
0
 10
260.78119243839421
 20
100.00000115457139
 30
0.0
 11
260.78119243839433
 21
93.000001154571478
 31
0.0
  0
LINE
  5
30C
  8
0
 10
232.0311924383943
 20
93.000001154571436
 30
0.0
 11
232.0311924383943
 21
100.00000115457139
 31
0.0
  0
LINE
  5
30D
  8
0
 10
260.78119243839433
 20
93.000001154571478
 30
0.0
 11
232.0311924383943
 21
93.000001154571436
 31
0.0
  0
LINE
  5
30E
  8
0
 10
232.0311924383943
 20
100.00000115457139
 30
0.0
 11
260.78119243839421
 21
100.00000115457139
 31
0.0
  0
LINE
  5
30F
  8
0
 10
210.2811924383947
 20
93.000001154568963
 30
0.0
 11
297.65619243839473
 21
93.000001154568963
 31
0.0
  0
LINE
  5
310
  8
0
 10
297.65619243839473
 20
0.0000011545689618
 30
0.0
 11
295.90619243839541
 21
0.0000011545689618
 31
0.0
  0
LINE
  5
311
  8
0
 10
212.03119243839529
 20
0.0000011545689618
 30
0.0
 11
210.2811924383947
 21
0.0000011545689618
 31
0.0
  0
LINE
  5
312
  8
0
 10
210.2811924383947
 20
0.0000011545689618
 30
0.0
 11
210.2811924383947
 21
93.000001154568963
 31
0.0
  0
LINE
  5
313
  8
0
 10
212.03119243839529
 20
0.0000011545689618
 30
0.0
 11
212.03119243839529
 21
2.000001154569699
 31
0.0
  0
LINE
  5
314
  8
0
 10
212.03119243839529
 20
2.000001154569699
 30
0.0
 11
295.90619243839541
 21
2.000001154569699
 31
0.0
  0
LINE
  5
315
  8
0
 10
295.90619243839541
 20
2.000001154569699
 30
0.0
 11
295.90619243839541
 21
0.0000011545689511
 31
0.0
  0
LINE
  5
316
  8
0
 10
297.65619243839473
 20
0.0000011545689618
 30
0.0
 11
297.65619243839473
 21
93.000001154568963
 31
0.0
  0
ARC
  5
317
  8
0
 10
240.7186924383943
 20
63.63636479093374
 30
0.0
 40
8.2500000000000053
 50
179.9999999999996
 51
359.99999999999881
  0
ARC
  5
318
  8
0
 10
240.7186924383943
 20
63.63636479093374
 30
0.0
 40
8.2500000000000089
 50
359.99999999999949
 51
179.9999999999996
  0
ARC
  5
319
  8
0
 10
240.7186924383943
 20
63.63636479093374
 30
0.0
 40
7.6875000000000018
 50
0.0000000000006107
 51
180.0
  0
ARC
  5
31A
  8
0
 10
240.7186924383943
 20
63.63636479093374
 30
0.0
 40
7.6874999999999956
 50
180.00000000000011
 51
0.0
  0
LINE
  5
31B
  8
0
 10
245.84119321238219
 20
61.194508942136331
 30
0.0
 11
245.64625273619171
 21
60.74560021197761
 31
0.0
  0
LINE
  5
31C
  8
0
 10
245.64625273619171
 20
60.74560021197761
 30
0.0
 11
245.19535987904879
 21
60.588358148485533
 31
0.0
  0
LINE
  5
31D
  8
0
 10
245.19535987904879
 20
60.588358148485533
 30
0.0
 11
244.8708311092075
 21
60.652594259596647
 31
0.0
  0
LINE
  5
31E
  8
0
 10
244.8708311092075
 20
60.652594259596647
 30
0.0
 11
244.63534003777909
 21
60.845302592929997
 31
0.0
  0
LINE
  5
31F
  8
0
 10
244.63534003777909
 20
60.845302592929997
 30
0.0
 11
244.4443678155568
 21
61.603239100866489
 31
0.0
  0
LINE
  5
320
  8
0
 10
244.4443678155568
 20
61.603239100866489
 30
0.0
 11
244.6283955933346
 21
62.367127989755389
 31
0.0
  0
LINE
  5
321
  8
0
 10
244.6283955933346
 20
62.367127989755389
 30
0.0
 11
244.8581822996837
 21
62.556860132612528
 31
0.0
  0
LINE
  5
322
  8
0
 10
244.8581822996837
 20
62.556860132612528
 30
0.0
 11
245.17948686317581
 21
62.620104180231579
 31
0.0
  0
LINE
  5
323
  8
0
 10
245.17948686317581
 20
62.620104180231579
 30
0.0
 11
245.64774083142979
 21
62.476751005628422
 31
0.0
  0
LINE
  5
324
  8
0
 10
245.64774083142979
 20
62.476751005628422
 30
0.0
 11
245.84119321238219
 21
62.051651799279192
 31
0.0
  0
LINE
  5
325
  8
0
 10
245.84119321238219
 20
62.051651799279192
 30
0.0
 11
246.98405035523939
 21
62.051651799279192
 31
0.0
  0
LINE
  5
326
  8
0
 10
246.98405035523939
 20
62.051651799279192
 30
0.0
 11
246.82383210127111
 21
62.699345251660141
 31
0.0
  0
LINE
  5
327
  8
0
 10
246.82383210127111
 20
62.699345251660141
 30
0.0
 11
246.45627257746159
 21
63.178139894517287
 31
0.0
  0
LINE
  5
328
  8
0
 10
246.45627257746159
 20
63.178139894517287
 30
0.0
 11
245.89724479968379
 21
63.47389882308871
 31
0.0
  0
LINE
  5
329
  8
0
 10
245.89724479968379
 20
63.47389882308871
 30
0.0
 11
245.16262178381081
 21
63.572485132612528
 31
0.0
  0
LINE
  5
32A
  8
0
 10
245.16262178381081
 20
63.572485132612528
 30
0.0
 11
244.36463071238219
 21
63.440540688168092
 31
0.0
  0
LINE
  5
32B
  8
0
 10
244.36463071238219
 20
63.440540688168092
 30
0.0
 11
243.75438765682671
 21
63.044707354834742
 31
0.0
  0
LINE
  5
32C
  8
0
 10
243.75438765682671
 20
63.044707354834742
 30
0.0
 11
243.3671108711124
 21
62.420699418326812
 31
0.0
  0
LINE
  5
32D
  8
0
 10
243.3671108711124
 20
62.420699418326812
 30
0.0
 11
243.2380186092077
 21
61.604231164358573
 31
0.0
  0
LINE
  5
32E
  8
0
 10
243.2380186092077
 20
61.604231164358573
 30
0.0
 11
243.36773091079479
 21
60.785902791342679
 31
0.0
  0
LINE
  5
32F
  8
0
 10
243.36773091079479
 20
60.785902791342679
 30
0.0
 11
243.75686781555669
 21
60.162266878644282
 31
0.0
  0
LINE
  5
330
  8
0
 10
243.75686781555669
 20
60.162266878644282
 30
0.0
 11
244.37219519650921
 21
59.767549616739501
 31
0.0
  0
LINE
  5
331
  8
0
 10
244.37219519650921
 20
59.767549616739501
 30
0.0
 11
245.180478926668
 21
59.635977196104577
 31
0.0
  0
LINE
  5
332
  8
0
 10
245.180478926668
 20
59.635977196104577
 30
0.0
 11
245.9035692044456
 21
59.738159735787129
 31
0.0
  0
LINE
  5
333
  8
0
 10
245.9035692044456
 20
59.738159735787129
 30
0.0
 11
246.4597447996837
 21
60.044707354834742
 31
0.0
  0
LINE
  5
334
  8
0
 10
246.4597447996837
 20
60.044707354834742
 30
0.0
 11
246.82718031555669
 21
60.536522831025223
 31
0.0
  0
LINE
  5
335
  8
0
 10
246.82718031555669
 20
60.536522831025223
 30
0.0
 11
246.98405035523939
 21
61.194508942136331
 31
0.0
  0
LINE
  5
336
  8
0
 10
246.98405035523939
 20
61.194508942136331
 30
0.0
 11
245.84119321238219
 21
61.194508942136331
 31
0.0
  0
LINE
  5
337
  8
0
 10
238.61946583461449
 20
61.968583131059539
 30
0.0
 11
239.7970451996938
 21
61.968583131059539
 31
0.0
  0
LINE
  5
338
  8
0
 10
239.7970451996938
 20
61.968583131059539
 30
0.0
 11
239.94387059651919
 21
62.476519638996038
 31
0.0
  0
LINE
  5
339
  8
0
 10
239.94387059651919
 20
62.476519638996038
 30
0.0
 11
241.14724361239229
 21
62.476519638996038
 31
0.0
  0
LINE
  5
33A
  8
0
 10
241.14724361239229
 20
62.476519638996038
 30
0.0
 11
241.28910869175729
 21
61.968583131059539
 31
0.0
  0
LINE
  5
33B
  8
0
 10
241.28910869175729
 20
61.968583131059539
 30
0.0
 11
242.4924817076303
 21
61.968583131059539
 31
0.0
  0
LINE
  5
33C
  8
0
 10
242.4924817076303
 20
61.968583131059539
 30
0.0
 11
241.1631166282653
 21
65.778106940583356
 31
0.0
  0
LINE
  5
33D
  8
0
 10
241.1631166282653
 20
65.778106940583356
 30
0.0
 11
239.9339499615987
 21
65.778106940583356
 31
0.0
  0
LINE
  5
33E
  8
0
 10
239.9339499615987
 20
65.778106940583356
 30
0.0
 11
238.61946583461449
 21
61.968583131059539
 31
0.0
  0
LINE
  5
33F
  8
0
 10
240.16410869175729
 20
63.301916464392868
 30
0.0
 11
240.55002139017009
 21
64.605487892964305
 31
0.0
  0
LINE
  5
340
  8
0
 10
240.55002139017009
 20
64.605487892964305
 30
0.0
 11
240.92700551715421
 21
63.301916464392868
 31
0.0
  0
LINE
  5
341
  8
0
 10
240.92700551715421
 20
63.301916464392868
 30
0.0
 11
240.16410869175729
 21
63.301916464392868
 31
0.0
  0
LINE
  5
342
  8
0
 10
234.85873464435309
 20
63.708971440239807
 30
0.0
 11
236.55813940625779
 21
63.708971440239807
 31
0.0
  0
LINE
  5
343
  8
0
 10
236.55813940625779
 20
63.708971440239807
 30
0.0
 11
237.3259965491151
 21
63.747661916430303
 31
0.0
  0
LINE
  5
344
  8
0
 10
237.3259965491151
 20
63.747661916430303
 30
0.0
 11
237.73869496181339
 21
63.879606360874739
 31
0.0
  0
LINE
  5
345
  8
0
 10
237.73869496181339
 20
63.879606360874739
 30
0.0
 11
238.14692908879749
 21
64.262542868811252
 31
0.0
  0
LINE
  5
346
  8
0
 10
238.14692908879749
 20
64.262542868811252
 30
0.0
 11
238.28730607292451
 21
64.849844456112805
 31
0.0
  0
LINE
  5
347
  8
0
 10
238.28730607292451
 20
64.849844456112805
 30
0.0
 11
238.14345686657529
 21
65.412840487858858
 31
0.0
  0
LINE
  5
348
  8
0
 10
238.14345686657529
 20
65.412840487858858
 30
0.0
 11
237.700004485623
 21
65.737741281509656
 31
0.0
  0
LINE
  5
349
  8
0
 10
237.700004485623
 20
65.737741281509656
 30
0.0
 11
238.0452425808611
 21
66.055201598969973
 31
0.0
  0
LINE
  5
34A
  8
0
 10
238.0452425808611
 20
66.055201598969973
 30
0.0
 11
238.1603219459405
 21
66.507582551350907
 31
0.0
  0
LINE
  5
34B
  8
0
 10
238.1603219459405
 20
66.507582551350907
 30
0.0
 11
238.00655210467059
 21
67.067602392620756
 31
0.0
  0
LINE
  5
34C
  8
0
 10
238.00655210467059
 20
67.067602392620756
 30
0.0
 11
237.5640917872102
 21
67.407384138652503
 31
0.0
  0
LINE
  5
34D
  8
0
 10
237.5640917872102
 20
67.407384138652503
 30
0.0
 11
237.168754485623
 21
67.492701598969973
 31
0.0
  0
LINE
  5
34E
  8
0
 10
237.168754485623
 20
67.492701598969973
 30
0.0
 11
236.43512353324201
 21
67.518495249763603
 31
0.0
  0
LINE
  5
34F
  8
0
 10
236.43512353324201
 20
67.518495249763603
 30
0.0
 11
234.85873464435309
 21
67.518495249763632
 31
0.0
  0
LINE
  5
350
  8
0
 10
234.85873464435309
 20
67.518495249763632
 30
0.0
 11
234.85873464435309
 21
63.708971440239807
 31
0.0
  0
LINE
  5
351
  8
0
 10
236.06508385070231
 20
64.597860329128693
 30
0.0
 11
236.06508385070231
 21
65.296273027541403
 31
0.0
  0
LINE
  5
352
  8
0
 10
236.06508385070231
 20
65.296273027541403
 30
0.0
 11
236.61369496181339
 21
65.296273027541403
 31
0.0
  0
LINE
  5
353
  8
0
 10
236.61369496181339
 20
65.296273027541403
 30
0.0
 11
237.02292115228971
 21
65.216907948176328
 31
0.0
  0
LINE
  5
354
  8
0
 10
237.02292115228971
 20
65.216907948176328
 30
0.0
 11
237.1444489300674
 21
64.950042868811224
 31
0.0
  0
LINE
  5
355
  8
0
 10
237.1444489300674
 20
64.950042868811224
 30
0.0
 11
237.02540131101969
 21
64.680201598969973
 31
0.0
  0
LINE
  5
356
  8
0
 10
237.02540131101969
 20
64.680201598969973
 30
0.0
 11
236.62460766022619
 21
64.597860329128693
 31
0.0
  0
LINE
  5
357
  8
0
 10
236.62460766022619
 20
64.597860329128693
 30
0.0
 11
236.06508385070231
 21
64.597860329128693
 31
0.0
  0
LINE
  5
358
  8
0
 10
236.06508385070231
 20
65.994685725954099
 30
0.0
 11
236.06508385070231
 21
66.629606360874746
 31
0.0
  0
LINE
  5
359
  8
0
 10
236.06508385070231
 20
66.629606360874746
 30
0.0
 11
236.39940924752781
 21
66.629606360874746
 31
0.0
  0
LINE
  5
35A
  8
0
 10
236.39940924752781
 20
66.629606360874746
 30
0.0
 11
236.90784178721029
 21
66.562146043414415
 31
0.0
  0
LINE
  5
35B
  8
0
 10
236.90784178721029
 20
66.562146043414415
 30
0.0
 11
237.01746480308319
 21
66.312146043414415
 31
0.0
  0
LINE
  5
35C
  8
0
 10
237.01746480308319
 20
66.312146043414415
 30
0.0
 11
236.91528226340071
 21
66.067106360874746
 31
0.0
  0
LINE
  5
35D
  8
0
 10
236.91528226340071
 20
66.067106360874746
 30
0.0
 11
236.56309972371821
 21
65.994685725954099
 31
0.0
  0
LINE
  5
35E
  8
0
 10
236.56309972371821
 20
65.994685725954099
 30
0.0
 11
236.06508385070231
 21
65.994685725954099
 31
0.0
  0
ARC
  5
35F
  8
0
 10
240.71869243839379
 20
63.636364790934387
 30
0.0
 40
9.0000000000000302
 50
179.99999999999969
 51
359.99999999999881
  0
ARC
  5
360
  8
0
 10
240.71869243839379
 20
63.636364790934387
 30
0.0
 40
9.0000000000000089
 50
359.99999999999949
 51
179.99999999999969
  0
ARC
  5
361
  8
0
 10
271.1561924383949
 20
25.12500115456897
 30
0.0
 40
0.4999999999999984
 50
359.99999999999937
 51
179.9999999999994
  0
ARC
  5
362
  8
0
 10
271.1561924383949
 20
25.12500115456897
 30
0.0
 40
0.5000000000000285
 50
180.00000000000011
 51
359.99999999999881
  0
LINE
  5
363
  8
0
 10
244.2811924383949
 20
100.25000115456891
 30
0.0
 11
244.2811924383949
 21
100.00000115457139
 31
0.0
  0
LINE
  5
364
  8
0
 10
252.28119243839481
 20
100.00000115457139
 30
0.0
 11
252.28119243839481
 21
100.25000115456891
 31
0.0
  0
LINE
  5
365
  8
0
 10
244.2811924383947
 20
100.25000115456891
 30
0.0
 11
244.41748865479391
 21
100.25000115456891
 31
0.0
  0
LINE
  5
366
  8
0
 10
244.41748913323829
 20
100.25000115456891
 30
0.0
 11
245.4527641933677
 21
100.25000115456891
 31
0.0
  0
LINE
  5
367
  8
0
 10
245.4527653136484
 20
100.25000115456891
 30
0.0
 11
247.24591620494479
 21
100.25000115456901
 31
0.0
  0
LINE
  5
368
  8
0
 10
247.24591625798439
 20
100.25000115456901
 30
0.0
 11
248.28119165780171
 21
100.25000115456901
 31
0.0
  0
LINE
  5
369
  8
0
 10
248.2811924383947
 20
100.25000115456901
 30
0.0
 11
249.31646861880461
 21
100.25000115456901
 31
0.0
  0
LINE
  5
36A
  8
0
 10
249.31647005336109
 20
100.25000115456901
 30
0.0
 11
250.2811924383947
 21
100.25000115456901
 31
0.0
  0
LINE
  5
36B
  8
0
 10
250.28119263759899
 20
100.25000115456901
 30
0.0
 11
251.10961904319959
 21
100.25000115456901
 31
0.0
  0
LINE
  5
36C
  8
0
 10
251.1096195631408
 20
100.25000115456901
 30
0.0
 11
251.74529405353229
 21
100.25000115456901
 31
0.0
  0
LINE
  5
36D
  8
0
 10
251.7452957724978
 20
100.25000115456901
 30
0.0
 11
252.2811924383947
 21
100.25000115456901
 31
0.0
  0
ARC
  5
36E
  8
0
 10
288.40619243839478
 20
8.5000011545693877
 30
0.0
 40
4.0000000000000204
 50
359.9999999999992
 51
179.99999999999929
  0
ARC
  5
36F
  8
0
 10
288.40619243839478
 20
8.5000011545693877
 30
0.0
 40
4.0000000000000018
 50
180.00000000000011
 51
359.9999999999992
  0
ARC
  5
370
  8
0
 10
264.65619243839473
 20
14.62500115456896
 30
0.0
 40
1.50000000000001
 50
359.99999999999898
 51
179.99999999999909
  0
ARC
  5
371
  8
0
 10
264.65619243839473
 20
14.62500115456896
 30
0.0
 40
1.4999999999999909
 50
180.00000000000071
 51
0.0000000000001527
  0
ARC
  5
372
  8
0
 10
264.65619243839473
 20
4.6250011545689604
 30
0.0
 40
1.0000000000000111
 50
359.99999999999881
 51
179.99999999999889
  0
ARC
  5
373
  8
0
 10
264.65619243839473
 20
4.6250011545689604
 30
0.0
 40
1.0
 50
180.00000000000011
 51
359.9999999999992
  0
CIRCLE
  5
374
  8
0
 10
266.28119243839478
 20
39.12500115456897
 30
0.0
 40
8.5000000000000266
  0
LINE
  5
375
  8
0
 10
508.00178197644112
 20
15.00000115456897
 30
0.0
 11
508.00178197644112
 21
91.500001154569418
 31
0.0
  0
LINE
  5
376
  8
0
 10
508.00178197644112
 20
91.500001154569418
 30
0.0
 11
367.12678197644129
 21
91.500001154569418
 31
0.0
  0
LINE
  5
377
  8
0
 10
367.12678197644129
 20
91.500001154569418
 30
0.0
 11
367.12678197644129
 21
15.00000115456897
 31
0.0
  0
LINE
  5
378
  8
0
 10
367.12678197644129
 20
15.00000115456897
 30
0.0
 11
508.00178197644112
 21
15.00000115456897
 31
0.0
  0
LINE
  5
379
  8
0
 10
508.00178197644112
 20
15.00000115456897
 30
0.0
 11
367.12678197644129
 21
15.00000115456897
 31
0.0
  0
LINE
  5
37A
  8
0
 10
367.12678197644129
 20
15.00000115456897
 30
0.0
 11
367.12678197644129
 21
91.500001154569418
 31
0.0
  0
LINE
  5
37B
  8
0
 10
367.12678197644129
 20
91.500001154569418
 30
0.0
 11
508.00178197644112
 21
91.500001154569418
 31
0.0
  0
LINE
  5
37C
  8
0
 10
508.00178197644112
 20
91.500001154569418
 30
0.0
 11
508.00178197644112
 21
15.00000115456897
 31
0.0
  0
ARC
  5
381
  8
0
 10
474.43928197644141
 20
59.000001154568679
 30
0.0
 40
32.49999999999941
 50
179.9999999999996
 51
359.99999999999898
  0
ARC
  5
382
  8
0
 10
474.43928197644141
 20
59.000001154568679
 30
0.0
 40
32.499999999999432
 50
0.0000000000002036
 51
179.9999999999996
  0
ARC
  5
383
  8
0
 10
474.43928197644141
 20
59.000001154568679
 30
0.0
 40
32.49999999999941
 50
179.9999999999996
 51
359.99999999999898
  0
ARC
  5
384
  8
0
 10
474.43928197644141
 20
59.000001154568679
 30
0.0
 40
32.499999999999432
 50
0.0000000000002036
 51
179.9999999999996
  0
ARC
  5
385
  8
0
 10
474.43928197644141
 20
59.000001154568679
 30
0.0
 40
30.499999999999421
 50
179.9999999999996
 51
359.99999999999898
  0
ARC
  5
386
  8
0
 10
474.43928197644141
 20
59.000001154568679
 30
0.0
 40
30.499999999999421
 50
359.99999999999909
 51
179.9999999999996
  0
ARC
  5
387
  8
0
 10
400.68928197644078
 20
59.00000115456892
 30
0.0
 40
32.500000000000028
 50
179.9999999999996
 51
359.99999999999909
  0
ARC
  5
388
  8
0
 10
400.68928197644078
 20
59.00000115456892
 30
0.0
 40
32.500000000000028
 50
0.0000000000002036
 51
179.9999999999996
  0
ARC
  5
389
  8
0
 10
400.68928197644078
 20
59.00000115456892
 30
0.0
 40
32.500000000000028
 50
179.9999999999996
 51
359.99999999999909
  0
ARC
  5
38A
  8
0
 10
400.68928197644078
 20
59.00000115456892
 30
0.0
 40
32.500000000000028
 50
0.0000000000002036
 51
179.9999999999996
  0
ARC
  5
38B
  8
0
 10
400.6892819764409
 20
59.00000115456892
 30
0.0
 40
30.500000000000028
 50
179.9999999999996
 51
359.99999999999898
  0
ARC
  5
38C
  8
0
 10
400.6892819764409
 20
59.00000115456892
 30
0.0
 40
30.500000000000039
 50
359.99999999999909
 51
179.9999999999996
  0
LINE
  5
38D
  8
0
 10
365.50178197644539
 20
93.000001154571507
 30
0.0
 11
509.6267819764455
 21
93.000001154571507
 31
0.0
  0
LINE
  5
38E
  8
0
 10
509.6267819764455
 20
93.000001154571507
 30
0.0
 11
509.6267819764455
 21
100.00000115457151
 31
0.0
  0
LINE
  5
38F
  8
0
 10
509.6267819764455
 20
100.00000115457151
 30
0.0
 11
365.50178197644539
 21
100.00000115457151
 31
0.0
  0
LINE
  5
390
  8
0
 10
365.50178197644539
 20
100.00000115457151
 30
0.0
 11
365.50178197644539
 21
93.000001154571507
 31
0.0
  0
LINE
  5
391
  8
0
 10
365.5017819764455
 20
93.00000115457145
 30
0.0
 11
365.5017819764455
 21
100.00000115457151
 31
0.0
  0
LINE
  5
392
  8
0
 10
365.5017819764455
 20
100.00000115457151
 30
0.0
 11
509.62678197644561
 21
100.00000115457151
 31
0.0
  0
LINE
  5
393
  8
0
 10
509.62678197644561
 20
100.00000115457151
 30
0.0
 11
509.62678197644561
 21
93.00000115457145
 31
0.0
  0
LINE
  5
394
  8
0
 10
509.62678197644561
 20
93.00000115457145
 30
0.0
 11
365.5017819764455
 21
93.00000115457145
 31
0.0
  0
LINE
  5
39A
  8
0
 10
365.50178197644499
 20
93.000001154568977
 30
0.0
 11
509.62678197644487
 21
93.000001154568977
 31
0.0
  0
LINE
  5
39C
  8
0
 10
509.62678197644522
 20
93.000001154568977
 30
0.0
 11
508.00178197644681
 21
93.000001154568977
 31
0.0
  0
LINE
  5
39E
  8
0
 10
508.00178197644681
 20
93.000001154568977
 30
0.0
 11
367.12678197644692
 21
93.000001154568977
 31
0.0
  0
LINE
  5
3A0
  8
0
 10
367.12678197644698
 20
93.000001154568977
 30
0.0
 11
365.50178197644527
 21
93.000001154568977
 31
0.0
  0
LINE
  5
3A1
  8
0
 10
509.62678197644487
 20
0.000001154568972
 30
0.0
 11
365.50178197644499
 21
0.000001154568972
 31
0.0
  0
LINE
  5
3A3
  8
0
 10
365.50178197644499
 20
0.000001154568972
 30
0.0
 11
509.62678197644487
 21
0.000001154568972
 31
0.0
  0
LINE
  5
3A5
  8
0
 10
365.50178197644527
 20
0.000001154568972
 30
0.0
 11
509.62678197644522
 21
0.000001154568972
 31
0.0
  0
LINE
  5
3A7
  8
0
 10
509.62678197644522
 20
0.000001154568972
 30
0.0
 11
365.50178197644527
 21
0.000001154568972
 31
0.0
  0
LINE
  5
3A9
  8
0
 10
367.12678197644698
 20
93.000001154568977
 30
0.0
 11
367.1267819764459
 21
15.000001154572161
 31
0.0
  0
LINE
  5
3AA
  8
0
 10
367.1267819764459
 20
15.000001154572169
 30
0.0
 11
508.00178197644578
 21
15.000001154570221
 31
0.0
  0
LINE
  5
3AB
  8
0
 10
508.00178197644578
 20
15.00000115457021
 30
0.0
 11
508.00178197644681
 21
93.000001154568977
 31
0.0
  0
LINE
  5
3AC
  8
0
 10
509.62678197644522
 20
93.000001154568977
 30
0.0
 11
509.62678197644522
 21
0.000001154568972
 31
0.0
  0
LINE
  5
3AD
  8
0
 10
365.50178197644527
 20
0.000001154568972
 30
0.0
 11
365.50178197644527
 21
93.000001154568977
 31
0.0
  0
LINE
  5
3AE
  8
0
 10
365.50178197644527
 20
0.000001154568972
 30
0.0
 11
365.50178197644527
 21
2.0000011545697101
 31
0.0
  0
LINE
  5
3B0
  8
0
 10
365.50178197644499
 20
2.0000011545697101
 30
0.0
 11
365.50178197644499
 21
0.0000011545689613
 31
0.0
  0
LINE
  5
3B1
  8
0
 10
365.50178197644499
 20
0.000001154568972
 30
0.0
 11
365.50178197644499
 21
93.000001154568977
 31
0.0
  0
LINE
  5
3B2
  8
0
 10
367.12678197644527
 20
91.500001154569489
 30
0.0
 11
508.00178197644522
 21
91.500001154569489
 31
0.0
  0
LINE
  5
3B3
  8
0
 10
508.00178197644522
 20
91.500001154569489
 30
0.0
 11
508.00178197644522
 21
15.00000115456897
 31
0.0
  0
LINE
  5
3B4
  8
0
 10
508.00178197644522
 20
15.000001154568981
 30
0.0
 11
367.12678197644527
 21
15.00000115456897
 31
0.0
  0
LINE
  5
3B5
  8
0
 10
367.12678197644527
 20
15.00000115456897
 30
0.0
 11
367.12678197644527
 21
91.500001154569489
 31
0.0
  0
LINE
  5
3B6
  8
0
 10
509.62678197644487
 20
0.000001154568972
 30
0.0
 11
509.62678197644487
 21
93.000001154568977
 31
0.0
  0
LINE
  5
3B7
  8
0
 10
509.62678197644487
 20
0.000001154568972
 30
0.0
 11
509.62678197644487
 21
2.000001154567717
 31
0.0
  0
LINE
  5
3B9
  8
0
 10
509.62678197644522
 20
2.000001154567717
 30
0.0
 11
509.62678197644522
 21
0.0000011545689826
 31
0.0
  0
LINE
  5
3BA
  8
0
 10
509.62678197644561
 20
2.0000011545677192
 30
0.0
 11
365.50178197644573
 21
2.0000011545697118
 31
0.0
  0
LINE
  5
3BB
  8
0
 10
509.62678197644522
 20
2.0000011545677192
 30
0.0
 11
365.50178197644539
 21
2.0000011545697118
 31
0.0
  0
LINE
  5
3BD
  8
0
 10
508.00178197644578
 20
15.000001154570221
 30
0.0
 11
508.00178197644681
 21
93.000001154570725
 31
0.0
  0
LINE
  5
3BE
  8
0
 10
367.12678197644692
 20
93.000001154572672
 30
0.0
 11
367.1267819764459
 21
15.000001154572169
 31
0.0
  0
LINE
  5
3C0
  8
0
 10
508.00178197644578
 20
15.000001154570221
 30
0.0
 11
367.1267819764459
 21
15.000001154572169
 31
0.0
  0
LINE
  5
3C1
  8
0
 10
508.00178197644539
 20
91.500001154569489
 30
0.0
 11
367.12678197644539
 21
91.500001154569489
 31
0.0
1001
ACAD
1000
ASC_BOUNDS
1002
{
1070
    19
1005
462
1002
}
  0
LINE
  5
3C2
  8
0
 10
367.12678197644539
 20
91.500001154569489
 30
0.0
 11
367.12678197644539
 21
15.00000115456897
 31
0.0
1001
ACAD
1000
ASC_BOUNDS
1002
{
1070
    19
1005
462
1002
}
  0
LINE
  5
3C3
  8
0
 10
367.12678197644539
 20
15.00000115456897
 30
0.0
 11
508.00178197644539
 21
15.00000115456897
 31
0.0
1001
ACAD
1000
ASC_BOUNDS
1002
{
1070
    19
1005
462
1002
}
  0
LINE
  5
3C4
  8
0
 10
508.00178197644539
 20
15.00000115456897
 30
0.0
 11
508.00178197644539
 21
91.500001154569489
 31
0.0
1001
ACAD
1000
ASC_BOUNDS
1002
{
1070
    19
1005
462
1002
}
  0
LINE
  5
3CA
  8
0
 10
144.1249980102088
 20
93.000001154571436
 30
0.0
 11
144.1249980102088
 21
100.00000115457139
 31
0.0
  0
LINE
  5
3CB
  8
0
 10
144.1249980102088
 20
100.00000115457139
 30
0.0
 11
-0.0000019897912864
 21
100.00000115457139
 31
0.0
  0
LINE
  5
3CC
  8
0
 10
-0.0000019897912864
 20
100.00000115457139
 30
0.0
 11
-0.0000019897912864
 21
93.000001154571436
 31
0.0
  0
LINE
  5
3CD
  8
0
 10
-0.0000019897908885
 20
93.000001154568963
 30
0.0
 11
1.624998010207406
 21
93.000001154568963
 31
0.0
  0
LINE
  5
3CE
  8
0
 10
1.624998010207463
 20
93.000001154568963
 30
0.0
 11
142.49999801020741
 21
93.000001154568963
 31
0.0
1001
ACAD
1000
ASC_BOUNDS
1002
{
1070
    19
1005
449
1002
}
  0
LINE
  5
3CF
  8
0
 10
142.49999801020741
 20
93.000001154568963
 30
0.0
 11
144.124998010209
 21
93.000001154568963
 31
0.0
  0
LINE
  5
3D0
  8
0
 10
144.124998010209
 20
0.0000011545689618
 30
0.0
 11
-0.0000019897908885
 21
0.0000011545689618
 31
0.0
  0
LINE
  5
3D1
  8
0
 10
142.49999801020741
 20
93.000001154568963
 30
0.0
 11
142.4999980102084
 21
15.00000115457215
 31
0.0
1001
ACAD
1000
ASC_BOUNDS
1002
{
1070
    19
1005
449
1002
}
  0
LINE
  5
3D2
  8
0
 10
142.4999980102084
 20
15.000001154572161
 30
0.0
 11
1.624998010208486
 21
15.00000115457021
 31
0.0
1001
ACAD
1000
ASC_BOUNDS
1002
{
1070
    19
1005
449
1002
}
  0
LINE
  5
3D3
  8
0
 10
1.624998010208486
 20
15.000001154570199
 30
0.0
 11
1.624998010207406
 21
93.000001154568963
 31
0.0
1001
ACAD
1000
ASC_BOUNDS
1002
{
1070
    19
1005
449
1002
}
  0
LINE
  5
3D4
  8
0
 10
-0.0000019897908885
 20
93.000001154568963
 30
0.0
 11
-0.0000019897908885
 21
0.0000011545689618
 31
0.0
  0
LINE
  5
3D5
  8
0
 10
144.124998010209
 20
0.0000011545689618
 30
0.0
 11
144.124998010209
 21
93.000001154568963
 31
0.0
  0
LINE
  5
3DA
  8
0
  6
HIDDEN2
 10
280.15619243839518
 20
292.72230228606298
 30
0.0
 11
281.65619243839518
 21
292.72230228606298
 31
0.0
  0
LINE
  5
3DB
  8
0
  6
HIDDEN2
 10
280.1561924383945
 20
151.8473022860631
 30
0.0
 11
281.6561924383945
 21
151.8473022860631
 31
0.0
  0
POLYLINE
  5
3DC
  8
0
  6
HIDDEN2
 66
     1
 10
0.0
 20
0.0
 30
0.0
  0
VERTEX
  5
502
  8
0
  6
HIDDEN2
 10
286.53119243839512
 20
289.6598022860627
 30
0.0
  0
VERTEX
  5
503
  8
0
  6
HIDDEN2
 10
286.74038735213509
 20
289.67150883411659
 30
0.0
  0
VERTEX
  5
504
  8
0
  6
HIDDEN2
 10
286.94697005221082
 20
289.70648229879299
 30
0.0
  0
VERTEX
  5
505
  8
0
  6
HIDDEN2
 10
287.1483609436296
 20
289.7642859669777
 30
0.0
  0
VERTEX
  5
506
  8
0
  6
HIDDEN2
 10
287.34204526143361
 20
289.84419804515642
 30
0.0
  0
VERTEX
  5
507
  8
0
  6
HIDDEN2
 10
287.52560447253092
 20
289.94522067244043
 30
0.0
  0
VERTEX
  5
508
  8
0
  6
HIDDEN2
 10
287.69674647588101
 20
290.06609238083968
 30
0.0
  0
VERTEX
  5
509
  8
0
  6
HIDDEN2
 10
287.85333422392529
 20
290.20530384719382
 30
0.0
  0
VERTEX
  5
50A
  8
0
  6
HIDDEN2
 10
287.9934124078668
 20
290.36111674006759
 30
0.0
  0
VERTEX
  5
50B
  8
0
  6
HIDDEN2
 10
288.11523187358108
 20
290.53158542626858
 30
0.0
  0
VERTEX
  5
50C
  8
0
  6
HIDDEN2
 10
288.21727146327709
 20
290.71458126593922
 30
0.0
  0
VERTEX
  5
50D
  8
0
  6
HIDDEN2
 10
288.29825701017057
 20
290.90781919284899
 30
0.0
  0
VERTEX
  5
50E
  8
0
  6
HIDDEN2
 10
288.35717724898518
 20
291.10888624798253
 30
0.0
  0
VERTEX
  5
50F
  8
0
  6
HIDDEN2
 10
288.39329644360703
 20
291.31527171012038
 30
0.0
  0
VERTEX
  5
510
  8
0
  6
HIDDEN2
 10
288.41449468912788
 20
291.6598022860627
 30
0.0
  0
VERTEX
  5
511
  8
0
  6
HIDDEN2
 10
288.65619243839512
 20
291.6598022860627
 30
0.0
  0
SEQEND
  5
512
  8
0
  6
HIDDEN2
  0
POLYLINE
  5
3DD
  8
0
  6
HIDDEN2
 66
     1
 10
0.0
 20
0.0
 30
0.0
  0
VERTEX
  5
513
  8
0
  6
HIDDEN2
 10
288.65619243839478
 20
226.65980228606389
 30
0.0
  0
VERTEX
  5
514
  8
0
  6
HIDDEN2
 10
288.41318743880169
 20
226.65980228606389
 30
0.0
  0
VERTEX
  5
515
  8
0
  6
HIDDEN2
 10
288.39448589034089
 20
226.993997199804
 30
0.0
  0
VERTEX
  5
516
  8
0
  6
HIDDEN2
 10
288.35951242566438
 20
227.2005798998797
 30
0.0
  0
VERTEX
  5
517
  8
0
  6
HIDDEN2
 10
288.3017087574799
 20
227.40197079129851
 30
0.0
  0
VERTEX
  5
518
  8
0
  6
HIDDEN2
 10
288.22179667930118
 20
227.59565510910249
 30
0.0
  0
VERTEX
  5
519
  8
0
  6
HIDDEN2
 10
288.12077405201711
 20
227.7792143201998
 30
0.0
  0
VERTEX
  5
51A
  8
0
  6
HIDDEN2
 10
287.9999023436178
 20
227.9503563235499
 30
0.0
  0
VERTEX
  5
51B
  8
0
  6
HIDDEN2
 10
287.86069087726378
 20
228.1069440715942
 30
0.0
  0
VERTEX
  5
51C
  8
0
  6
HIDDEN2
 10
287.70487798439001
 20
228.24702225553571
 30
0.0
  0
VERTEX
  5
51D
  8
0
  6
HIDDEN2
 10
287.53440929818902
 20
228.36884172125011
 30
0.0
  0
VERTEX
  5
51E
  8
0
  6
HIDDEN2
 10
287.35141345851838
 20
228.470881310946
 30
0.0
  0
VERTEX
  5
51F
  8
0
  6
HIDDEN2
 10
287.15817553160861
 20
228.5518668578394
 30
0.0
  0
VERTEX
  5
520
  8
0
  6
HIDDEN2
 10
286.95710847647513
 20
228.61078709665409
 30
0.0
  0
VERTEX
  5
521
  8
0
  6
HIDDEN2
 10
286.7507230143371
 20
228.64690629127591
 30
0.0
  0
VERTEX
  5
522
  8
0
  6
HIDDEN2
 10
286.54159627728001
 20
228.65977342187821
 30
0.0
  0
VERTEX
  5
523
  8
0
  6
HIDDEN2
 10
286.5311924383949
 20
228.65980228606401
 30
0.0
  0
SEQEND
  5
524
  8
0
  6
HIDDEN2
  0
LINE
  5
3DE
  8
0
  6
HIDDEN2
 10
280.15619243839478
 20
228.65980228606401
 30
0.0
 11
286.5311924383949
 21
228.65980228606389
 31
0.0
  0
LINE
  5
3DF
  8
0
  6
HIDDEN2
 10
286.53119243839512
 20
289.6598022860627
 30
0.0
 11
280.15619243839512
 21
289.65980228606281
 31
0.0
  0
LINE
  5
3E0
  8
0
  6
HIDDEN2
 10
288.65619243839478
 20
226.65980228606389
 30
0.0
 11
288.65619243839512
 21
291.6598022860627
 31
0.0
  0
LINE
  5
3E1
  8
0
  6
HIDDEN2
 10
288.65619243839512
 20
291.6598022860627
 30
0.0
 11
288.65619243839478
 21
226.65980228606389
 31
0.0
  0
POLYLINE
  5
3E2
  8
0
  6
HIDDEN2
 66
     1
 10
0.0
 20
0.0
 30
0.0
  0
VERTEX
  5
525
  8
0
  6
HIDDEN2
 10
286.53119243839478
 20
215.90980228606281
 30
0.0
  0
VERTEX
  5
526
  8
0
  6
HIDDEN2
 10
286.7403873521348
 20
215.92150883411671
 30
0.0
  0
VERTEX
  5
527
  8
0
  6
HIDDEN2
 10
286.94697005221047
 20
215.95648229879311
 30
0.0
  0
VERTEX
  5
528
  8
0
  6
HIDDEN2
 10
287.14836094362931
 20
216.0142859669777
 30
0.0
  0
VERTEX
  5
529
  8
0
  6
HIDDEN2
 10
287.34204526143333
 20
216.0941980451565
 30
0.0
  0
VERTEX
  5
52A
  8
0
  6
HIDDEN2
 10
287.52560447253057
 20
216.19522067244051
 30
0.0
  0
VERTEX
  5
52B
  8
0
  6
HIDDEN2
 10
287.69674647588067
 20
216.31609238083979
 30
0.0
  0
VERTEX
  5
52C
  8
0
  6
HIDDEN2
 10
287.853334223925
 20
216.4553038471939
 30
0.0
  0
VERTEX
  5
52D
  8
0
  6
HIDDEN2
 10
287.99341240786657
 20
216.6111167400675
 30
0.0
  0
VERTEX
  5
52E
  8
0
  6
HIDDEN2
 10
288.11523187358091
 20
216.78158542626861
 30
0.0
  0
VERTEX
  5
52F
  8
0
  6
HIDDEN2
 10
288.21727146327692
 20
216.9645812659391
 30
0.0
  0
VERTEX
  5
530
  8
0
  6
HIDDEN2
 10
288.29825701017029
 20
217.15781919284899
 30
0.0
  0
VERTEX
  5
531
  8
0
  6
HIDDEN2
 10
288.35717724898501
 20
217.3588862479825
 30
0.0
  0
VERTEX
  5
532
  8
0
  6
HIDDEN2
 10
288.3932964436068
 20
217.5652717101205
 30
0.0
  0
VERTEX
  5
533
  8
0
  6
HIDDEN2
 10
288.41449468912771
 20
217.90980228606281
 30
0.0
  0
VERTEX
  5
534
  8
0
  6
HIDDEN2
 10
288.65619243839478
 20
217.9098022860627
 30
0.0
  0
SEQEND
  5
535
  8
0
  6
HIDDEN2
  0
POLYLINE
  5
3E3
  8
0
  6
HIDDEN2
 66
     1
 10
0.0
 20
0.0
 30
0.0
  0
VERTEX
  5
536
  8
0
  6
HIDDEN2
 10
288.65619243839461
 20
152.9098022860627
 30
0.0
  0
VERTEX
  5
537
  8
0
  6
HIDDEN2
 10
288.41318743880151
 20
152.9098022860627
 30
0.0
  0
VERTEX
  5
538
  8
0
  6
HIDDEN2
 10
288.39448589034072
 20
153.24399719980281
 30
0.0
  0
VERTEX
  5
539
  8
0
  6
HIDDEN2
 10
288.35951242566421
 20
153.45057989987839
 30
0.0
  0
VERTEX
  5
53A
  8
0
  6
HIDDEN2
 10
288.30170875747967
 20
153.6519707912972
 30
0.0
  0
VERTEX
  5
53B
  8
0
  6
HIDDEN2
 10
288.22179667930089
 20
153.8456551091013
 30
0.0
  0
VERTEX
  5
53C
  8
0
  6
HIDDEN2
 10
288.12077405201683
 20
154.02921432019849
 30
0.0
  0
VERTEX
  5
53D
  8
0
  6
HIDDEN2
 10
287.99990234361758
 20
154.2003563235487
 30
0.0
  0
VERTEX
  5
53E
  8
0
  6
HIDDEN2
 10
287.86069087726349
 20
154.35694407159301
 30
0.0
  0
VERTEX
  5
53F
  8
0
  6
HIDDEN2
 10
287.70487798438978
 20
154.49702225553449
 30
0.0
  0
VERTEX
  5
540
  8
0
  6
HIDDEN2
 10
287.53440929818868
 20
154.6188417212488
 30
0.0
  0
VERTEX
  5
541
  8
0
  6
HIDDEN2
 10
287.35141345851821
 20
154.7208813109448
 30
0.0
  0
VERTEX
  5
542
  8
0
  6
HIDDEN2
 10
287.15817553160832
 20
154.80186685783821
 30
0.0
  0
VERTEX
  5
543
  8
0
  6
HIDDEN2
 10
286.9571084764749
 20
154.8607870966529
 30
0.0
  0
VERTEX
  5
544
  8
0
  6
HIDDEN2
 10
286.75072301433681
 20
154.89690629127469
 30
0.0
  0
VERTEX
  5
545
  8
0
  6
HIDDEN2
 10
286.54159627727978
 20
154.90977342187691
 30
0.0
  0
VERTEX
  5
546
  8
0
  6
HIDDEN2
 10
286.5311924383945
 20
154.9098022860627
 30
0.0
  0
SEQEND
  5
547
  8
0
  6
HIDDEN2
  0
LINE
  5
3E4
  8
0
  6
HIDDEN2
 10
280.15619243839461
 20
154.90980228606281
 30
0.0
 11
286.5311924383945
 21
154.9098022860627
 31
0.0
  0
LINE
  5
3E5
  8
0
  6
HIDDEN2
 10
286.53119243839478
 20
215.90980228606281
 30
0.0
 11
280.15619243839478
 21
215.90980228606281
 31
0.0
  0
LINE
  5
3E6
  8
0
  6
HIDDEN2
 10
288.65619243839461
 20
152.9098022860627
 30
0.0
 11
288.65619243839478
 21
217.9098022860627
 31
0.0
  0
LINE
  5
3E7
  8
0
  6
HIDDEN2
 10
288.65619243839478
 20
217.9098022860627
 30
0.0
 11
288.65619243839461
 21
152.9098022860627
 31
0.0
  0
LINE
  5
3E8
  8
0
  6
HIDDEN2
 10
289.26579075514371
 20
227.2848022860633
 30
0.0
 11
280.1561924383949
 21
227.2848022860633
 31
0.0
  0
LINE
  5
3E9
  8
0
  6
HIDDEN2
 10
280.15619243839478
 20
217.2848022860633
 30
0.0
 11
289.2657907551436
 21
217.2848022860633
 31
0.0
  0
LINE
  5
3EA
  8
0
  6
HIDDEN2
 10
289.2657907551436
 20
217.2848022860633
 30
0.0
 11
289.26579075514371
 21
227.2848022860633
 31
0.0
  0
LINE
  5
3EB
  8
0
  6
HIDDEN2
 10
289.26579075514371
 20
227.2848022860633
 30
0.0
 11
289.2657907551436
 21
217.2848022860633
 31
0.0
  0
LINE
  5
3F0
  8
0
  6
HIDDEN2
 10
297.53119243839518
 20
292.72230228606298
 30
0.0
 11
297.65619243839518
 21
292.72230228606298
 31
0.0
  0
LINE
  5
3F1
  8
0
  6
HIDDEN2
 10
297.65619243839473
 20
151.84730228606301
 30
0.0
 11
297.53119243839473
 21
151.84730228606301
 31
0.0
  0
LINE
  5
3F3
  8
0
 10
260.78119243839478
 20
294.34730228606742
 30
0.0
 11
260.78119243839433
 21
150.22230228606719
 31
0.0
  0
LINE
  5
3F6
  8
0
 10
232.0311924383943
 20
150.2223022860673
 30
0.0
 11
232.03119243839481
 21
294.34730228606747
 31
0.0
  0
LINE
  5
3F8
  8
0
 10
232.03119243839481
 20
294.34730228606747
 30
0.0
 11
260.78119243839478
 21
294.34730228606742
 31
0.0
  0
LINE
  5
3F9
  8
0
 10
232.0311924383943
 20
150.2223022860673
 30
0.0
 11
260.78119243839433
 21
150.22230228606719
 31
0.0
  0
LINE
  5
3FA
  8
0
 10
210.2811924383947
 20
150.22230228606711
 30
0.0
 11
297.65619243839473
 21
150.22230228606679
 31
0.0
  0
LINE
  5
3FB
  8
0
 10
297.65619243839518
 20
294.34730228606679
 30
0.0
 11
210.28119243839521
 21
294.34730228606702
 31
0.0
  0
LINE
  5
3FC
  8
0
 10
210.28119243839521
 20
294.34730228606702
 30
0.0
 11
210.28119243839521
 21
292.72230228606873
 31
0.0
  0
LINE
  5
3FD
  8
0
 10
210.28119243839521
 20
292.72230228606873
 30
0.0
 11
226.53469693365591
 21
292.72230228606873
 31
0.0
  0
LINE
  5
3FE
  8
0
 10
226.5346969336556
 20
292.72230228606873
 30
0.0
 11
226.5346969336548
 21
151.8473022860687
 31
0.0
1001
ACAD
1000
ASC_BOUNDS
1002
{
1070
    19
1005
440
1002
}
  0
LINE
  5
3FF
  8
0
 10
226.53469693365551
 20
151.8473022860687
 30
0.0
 11
210.2811924383947
 21
151.84730228606881
 31
0.0
  0
LINE
  5
400
  8
0
 10
210.2811924383947
 20
151.84730228606881
 30
0.0
 11
210.2811924383947
 21
150.22230228606711
 31
0.0
  0
LINE
  5
402
  8
0
 10
210.2811924383947
 20
151.8473022860677
 30
0.0
 11
210.28119243839521
 21
292.7223022860677
 31
0.0
  0
LINE
  5
40E
  8
0
 10
210.28119243839521
 20
292.7223022860677
 30
0.0
 11
212.78119243839521
 21
292.7223022860677
 31
0.0
  0
LINE
  5
40F
  8
0
 10
212.78119243839521
 20
292.7223022860677
 30
0.0
 11
226.53469693365591
 21
292.72230228606873
 31
0.0
1001
ACAD
1000
ASC_BOUNDS
1002
{
1070
    19
1005
440
1002
}
  0
LINE
  5
410
  8
0
 10
226.53469693365551
 20
151.8473022860687
 30
0.0
 11
212.7811924383947
 21
151.8473022860677
 31
0.0
1001
ACAD
1000
ASC_BOUNDS
1002
{
1070
    19
1005
440
1002
}
  0
LINE
  5
411
  8
0
 10
212.7811924383947
 20
151.8473022860677
 30
0.0
 11
210.2811924383947
 21
151.8473022860677
 31
0.0
  0
LINE
  5
412
  8
0
 10
212.78119243839521
 20
292.7223022860677
 30
0.0
 11
212.7811924383947
 21
151.8473022860677
 31
0.0
1001
ACAD
1000
ASC_BOUNDS
1002
{
1070
    19
1005
440
1002
}
  0
LINE
  5
415
  8
0
  6
HIDDEN2
 10
297.65619243839433
 20
151.84730228606719
 30
0.0
 11
280.15619243839438
 21
151.8473022860673
 31
0.0
  0
LINE
  5
416
  8
0
  6
HIDDEN2
 10
297.65619243839512
 20
292.72230228606708
 30
0.0
 11
280.15619243839512
 21
292.7223022860673
 31
0.0
  0
LINE
  5
417
  8
0
 10
270.65619243839478
 20
150.22230228606691
 30
0.0
 11
270.65619243839478
 21
149.97230228606699
 31
0.0
  0
LINE
  5
418
  8
0
 10
271.65619243839478
 20
149.97230228606699
 30
0.0
 11
271.65619243839478
 21
150.22230228606691
 31
0.0
  0
LINE
  5
419
  8
0
 10
271.65619243839478
 20
150.22230228606691
 30
0.0
 11
270.65619243839478
 21
150.22230228606691
 31
0.0
  0
LINE
  5
41A
  8
0
 10
270.65619243839478
 20
150.22230228606691
 30
0.0
 11
271.65619243839478
 21
150.22230228606691
 31
0.0
  0
LINE
  5
41B
  8
0
 10
271.65619243839478
 20
149.97230228606699
 30
0.0
 11
270.65619243839478
 21
149.97230228606699
 31
0.0
  0
LINE
  5
41C
  8
0
 10
270.65619243839478
 20
149.97230228606699
 30
0.0
 11
271.65619243839478
 21
149.97230228606699
 31
0.0
  0
ARC
  5
41D
  8
0
 10
248.2811924383945
 20
222.28480228606281
 30
0.0
 40
3.9999999999999951
 50
90.0
 51
269.9999999999992
  0
ARC
  5
41E
  8
0
 10
248.2811924383945
 20
222.28480228606281
 30
0.0
 40
3.9999999999999978
 50
269.9999999999992
 51
90.0
  0
LINE
  5
41F
  8
0
 10
284.40619243839478
 20
150.22230228606691
 30
0.0
 11
284.40619243839478
 21
149.97230228606691
 31
0.0
  0
LINE
  5
420
  8
0
 10
292.40619243839478
 20
149.97230228606691
 30
0.0
 11
292.40619243839478
 21
150.22230228606691
 31
0.0
  0
LINE
  5
421
  8
0
 10
263.15619243839478
 20
150.22230228606699
 30
0.0
 11
263.15619243839478
 21
149.97230228606699
 31
0.0
  0
LINE
  5
422
  8
0
 10
266.15619243839478
 20
149.97230228606699
 30
0.0
 11
266.15619243839478
 21
150.22230228606699
 31
0.0
  0
LINE
  5
423
  8
0
 10
263.65619243839478
 20
150.22230228606699
 30
0.0
 11
263.65619243839478
 21
149.97230228606699
 31
0.0
  0
LINE
  5
424
  8
0
 10
265.65619243839478
 20
149.97230228606699
 30
0.0
 11
265.65619243839478
 21
150.22230228606699
 31
0.0
  0
LINE
  5
425
  8
0
 10
292.40619243839478
 20
150.22230228606691
 30
0.0
 11
284.40619243839478
 21
150.22230228606691
 31
0.0
  0
LINE
  5
426
  8
0
 10
284.40619243839478
 20
150.22230228606691
 30
0.0
 11
292.40619243839478
 21
150.22230228606691
 31
0.0
  0
LINE
  5
427
  8
0
 10
266.15619243839478
 20
150.22230228606699
 30
0.0
 11
263.15619243839478
 21
150.22230228606699
 31
0.0
  0
LINE
  5
428
  8
0
 10
263.15619243839478
 20
150.22230228606699
 30
0.0
 11
266.15619243839478
 21
150.22230228606699
 31
0.0
  0
LINE
  5
429
  8
0
 10
265.65619243839478
 20
150.22230228606699
 30
0.0
 11
263.65619243839478
 21
150.22230228606699
 31
0.0
  0
LINE
  5
42A
  8
0
 10
263.65619243839478
 20
150.22230228606699
 30
0.0
 11
265.65619243839478
 21
150.22230228606699
 31
0.0
  0
LINE
  5
42B
  8
0
 10
292.40619243839478
 20
149.97230228606691
 30
0.0
 11
284.40619243839478
 21
149.97230228606691
 31
0.0
  0
LINE
  5
42C
  8
0
 10
284.40619243839478
 20
149.97230228606691
 30
0.0
 11
292.40619243839478
 21
149.97230228606691
 31
0.0
  0
LINE
  5
42D
  8
0
 10
266.15619243839478
 20
149.97230228606699
 30
0.0
 11
263.15619243839478
 21
149.97230228606699
 31
0.0
  0
LINE
  5
42E
  8
0
 10
263.15619243839478
 20
149.97230228606699
 30
0.0
 11
266.15619243839478
 21
149.97230228606699
 31
0.0
  0
LINE
  5
42F
  8
0
 10
265.65619243839478
 20
149.97230228606699
 30
0.0
 11
263.65619243839478
 21
149.97230228606699
 31
0.0
  0
LINE
  5
430
  8
0
 10
263.65619243839478
 20
149.97230228606699
 30
0.0
 11
265.65619243839478
 21
149.97230228606699
 31
0.0
  0
LINE
  5
432
  8
0
 10
297.65619243839473
 20
150.22230228606679
 30
0.0
 11
297.65619243839518
 21
294.34730228606679
 31
0.0
  0
LINE
  5
433
  8
0
  6
HIDDEN2
 10
280.15619243839438
 20
151.8473022860673
 30
0.0
 11
280.15619243839518
 21
292.72230228606298
 31
0.0
  0
INSERT
  5
440
  8
0
  6
CONTINUOUS
  2
*X4
 10
0.0
 20
0.0
 30
0.0
1001
GRADIENTCOLOR1ACI
1070
     5
1001
GRADIENTCOLOR2ACI
1070
     2
1001
ACAD
1000
HATCH
1002
{
1070
    19
1000
ANSI31
1040
12.0
1040
2.3561944901923439
1000
ASC_BOUNDS
1070
     1
1070
     1
1070
     4
1005
3FE
1005
410
1005
412
1005
40F
1000
ASC_SEEDPOINT
1011
221.86872031344069
1021
0.0
1031
0.0
1021
234.43499879263561
1031
0.0
1000
R14_HATCH_DATA
1000
440
1011
1.0
1021
0.0
1031
0.0
1021
0.0
1031
0.0
1011
0.0
1021
0.0
1031
0.0
1021
1.0
1031
0.0
1011
0.0
1021
0.0
1031
0.0
1021
0.0
1031
1.0
1040
0.0
1010
0.0
1020
0.0
1030
1.0
1000
ANSI31
1070
     0
1070
     1
1071
        1
1071
        7
1070
     0
1070
     1
1071
        4
1040
226.5346969336556
1040
292.72230228606873
1040
212.78119243839521
1040
292.7223022860677
1040
212.7811924383947
1040
151.8473022860677
1040
226.5346969336548
1040
151.8473022860687
1071
        4
1005
40F
1005
412
1005
410
1005
3FE
1070
     1
1070
     1
1040
2.3561944901923439
1040
12.0
1070
     0
1070
     1
1040
3.1415926535897931
1040
0.0
1040
0.0
1040
-0.0000000000000002
1040
-1.5
1070
     0
1040
0.3304301652670516
1071
        1
1040
221.86872031344069
1040
234.43499879263561
1040
0.0
1002
}
  0
INSERT
  5
449
  8
0
  6
CONTINUOUS
  2
*X5
 10
0.0
 20
0.0
 30
0.0
1001
GRADIENTCOLOR1ACI
1070
     5
1001
GRADIENTCOLOR2ACI
1070
     2
1001
ACAD
1000
HATCH
1002
{
1070
    19
1000
ANSI31
1040
12.0
1040
0.7853981633974483
1000
ASC_BOUNDS
1070
     1
1070
     1
1070
     4
1005
3D1
1005
3D2
1005
3D3
1005
3CE
1000
ASC_SEEDPOINT
1011
40.623590167081829
1021
0.0
1031
0.0
1021
45.77834190907231
1031
0.0
1000
R14_HATCH_DATA
1000
449
1011
1.0
1021
0.0
1031
0.0
1021
0.0
1031
0.0
1011
0.0
1021
0.0
1031
0.0
1021
1.0
1031
0.0
1011
0.0
1021
0.0
1031
0.0
1021
0.0
1031
1.0
1040
0.0
1010
0.0
1020
0.0
1030
1.0
1000
ANSI31
1070
     0
1070
     1
1071
        1
1071
        7
1070
     0
1070
     1
1071
        4
1040
142.49999801020741
1040
93.000001154568963
1040
1.624998010207406
1040
93.000001154568963
1040
1.6249980102084789
1040
15.00000115457021
1040
142.4999980102084
1040
15.000001154572161
1071
        4
1005
3CE
1005
3D3
1005
3D2
1005
3D1
1070
     1
1070
     1
1040
0.7853981633974483
1040
12.0
1070
     0
1070
     1
1040
1.5707963267948959
1040
0.0
1040
0.0
1040
-1.5
1040
0.0000000000000002
1070
     0
1040
0.2078149434103397
1071
        1
1040
40.623590167081829
1040
45.77834190907231
1040
0.0
1002
}
  0
INSERT
  5
462
  8
0
  6
CONTINUOUS
  2
*X6
 10
0.0
 20
0.0
 30
0.0
1001
GRADIENTCOLOR1ACI
1070
     5
1001
GRADIENTCOLOR2ACI
1070
     2
1001
ACAD
1000
HATCH
1002
{
1070
    19
1000
NET
1040
24.0
1040
0.0
1000
ASC_BOUNDS
1070
     1
1070
     1
1070
     4
1005
3C4
1005
3C3
1005
3C2
1005
3C1
1000
ASC_SEEDPOINT
1011
417.96045397803982
1021
0.0
1031
0.0
1021
68.063461329791153
1031
0.0
1000
R14_HATCH_DATA
1000
462
1011
1.0
1021
0.0
1031
0.0
1021
0.0
1031
0.0
1011
0.0
1021
0.0
1031
0.0
1021
1.0
1031
0.0
1011
0.0
1021
0.0
1031
0.0
1021
0.0
1031
1.0
1040
0.0
1010
0.0
1020
0.0
1030
1.0
1000
NET
1070
     0
1070
     1
1071
        1
1071
        7
1070
     0
1070
     1
1071
        4
1040
367.12678197644539
1040
91.500001154569489
1040
367.12678197644539
1040
15.000001154568981
1040
508.00178197644539
1040
15.000001154568981
1040
508.00178197644539
1040
91.500001154569489
1071
        4
1005
3C1
1005
3C2
1005
3C3
1005
3C4
1070
     1
1070
     1
1040
0.0
1040
24.0
1070
     0
1070
     2
1040
0.0
1040
0.0
1040
0.0
1040
0.0
1040
3.0
1070
     0
1040
1.5707963267948959
1040
0.0
1040
0.0
1040
-3.0
1040
0.0000000000000002
1070
     0
1040
0.2084251877298081
1071
        1
1040
417.96045397803982
1040
68.063461329791153
1040
0.0
1002
}
  0
ENDSEC
  0
EOF
